0
SECTION
2
HEADER
9
$INSUNITS
70
4
9
$ACADVER
1
AC1014
9
$HANDSEED
5
FFFF
0
ENDSEC
0
SECTION
2
TABLES
0
TABLE
2
VPORT
5
8
100
AcDbSymbolTable
0
ENDTAB
0
TABLE
2
LTYPE
5
5
100
AcDbSymbolTable
0
LTYPE
5
14
100
AcDbSymbolTableRecord
100
AcDbLinetypeTableRecord
2
BYBLOCK
70
0
0
LTYPE
5
15
100
AcDbSymbolTableRecord
100
AcDbLinetypeTableRecord
2
BYLAYER
70
0
0
ENDTAB
0
TABLE
2
LAYER
5
2
100
AcDbSymbolTable
70
2
0
LAYER
5
50
100
AcDbSymbolTableRecord
100
AcDbLayerTableRecord
2
0
70
0
6
CONTINUOUS
0
ENDTAB
0
TABLE
2
STYLE
5
3
100
AcDbSymbolTable
70
1
0
STYLE
5
11
100
AcDbSymbolTableRecord
100
AcDbTextStyleTableRecord
2
STANDARD
70
0
0
ENDTAB
0
TABLE
2
VIEW
5
6
100
AcDbSymbolTable
70
0
0
ENDTAB
0
TABLE
2
UCS
5
7
100
AcDbSymbolTable
70
0
0
ENDTAB
0
TABLE
2
APPID
5
9
100
AcDbSymbolTable
70
2
0
APPID
5
12
100
AcDbSymbolTableRecord
100
AcDbRegAppTableRecord
2
ACAD
70
0
0
ENDTAB
0
TABLE
2
DIMSTYLE
5
A
100
AcDbSymbolTable
70
1
0
ENDTAB
0
TABLE
2
BLOCK_RECORD
5
1
100
AcDbSymbolTable
70
1
0
BLOCK_RECORD
5
1F
100
AcDbSymbolTableRecord
100
AcDbBlockTableRecord
2
*MODEL_SPACE
0
BLOCK_RECORD
5
1B
100
AcDbSymbolTableRecord
100
AcDbBlockTableRecord
2
*PAPER_SPACE
0
ENDTAB
0
ENDSEC
0
SECTION
2
BLOCKS
0
BLOCK
5
20
100
AcDbEntity
100
AcDbBlockBegin
2
*MODEL_SPACE
0
ENDBLK
5
21
100
AcDbEntity
100
AcDbBlockEnd
0
BLOCK
5
1C
100
AcDbEntity
100
AcDbBlockBegin
2
*PAPER_SPACE
0
ENDBLK
5
1D
100
AcDbEntity
100
AcDbBlockEnd
0
ENDSEC
0
SECTION
2
ENTITIES
0
LWPOLYLINE
5
100
100
AcDbEntity
8
0
100
AcDbPolyline
90
30
70
1
43
0.0
10
-17.000000000000025
20
28.345014602134817
10
-17.00000000000006
20
45.100000000000016
42
-0.99999999999999989
10
-9.0000000000000444
20
45.100000000000016
10
-9.0000000000000444
20
39.542667364737099
42
0.41421356237309509
10
-5.0000000000000444
20
35.542667364737099
10
5.0000199746781675
20
35.542667364737092
42
0.4142135623730957
10
9.0000199746781675
20
39.542667364737092
10
9.0000199746781693
20
45.087358915146808
42
-1.0015813879717257
10
16.999999999999986
20
45.100000000000016
10
17.000000000000021
20
28.345014602134814
10
17.000000000000057
20
14.337337893224307
42
0.19413362299603032
10
17.840000000000032
20
12.25541570447664
42
-0.19413362299603112
10
18.750000000000011
20
9.9999999999999911
10
18.750000000000014
20
-10.000000000000014
42
-0.19413362299603387
10
17.840000000000011
20
-12.255415704476686
42
0.19413362299603359
10
17.000000000000007
20
-14.337337893224387
10
17
20
-39.900379678605653
42
-0.39710723115503027
10
13.234888087805876
20
-43.893477171305634
10
5.6938515529383746
20
-44.337067555709588
42
0.1866757898136015
10
4.3808228345419087
20
-44.9358510584226
42
-0.42100400107931596
10
-4.3808228345419273
20
-44.935851058422578
42
0.18667578981359717
10
-5.6938515529383853
20
-44.337067555709559
10
-13.234888087805912
20
-43.893477171305577
42
-0.39710723115502883
10
-17.000000000000032
20
-39.900379678605582
10
-17.000000000000032
20
-14.337337893224342
42
0.19413362299603182
10
-17.840000000000018
20
-12.255415704476661
42
-0.19413362299603168
10
-18.75
20
-10.000000000000009
10
-18.750000000000018
20
10.000000000000004
42
-0.19413362299603262
10
-17.840000000000018
20
12.255415704476674
42
0.19413362299603329
10
-17.000000000000025
20
14.337337893224369
0
CIRCLE
5
101
100
AcDbEntity
8
0
100
AcDbCircle
10
13
20
-39.900379678605653
30
0
40
1.5000000000000004
0
CIRCLE
5
102
100
AcDbEntity
8
0
100
AcDbCircle
10
-13.000000000000016
20
-39.900379678605582
30
0
40
1.4999999999999991
0
CIRCLE
5
103
100
AcDbEntity
8
0
100
AcDbCircle
10
-1.1674864731731827e-15
20
-40.655194999784364
30
0
40
3.125
0
LINE
5
104
100
AcDbEntity
8
0
100
AcDbLine
10
-6.9999950063304697
20
19.271333682368557
30
0
11
7.000004993669533
21
19.271333682368549
31
0
0
LWPOLYLINE
5
105
100
AcDbEntity
8
0
100
AcDbPolyline
90
4
70
1
43
0.0
10
-6.9999950063304706
20
18.27133368236856
42
-0.99999999999999989
10
-6.9999950063304688
20
20.271333682368553
10
7.0000049936695348
20
20.271333682368553
42
-0.99999999999999989
10
7.0000049936695312
20
18.271333682368542
0
LWPOLYLINE
5
106
100
AcDbEntity
8
0
100
AcDbPolyline
90
4
70
1
43
0.0
10
7.0000049936695312
20
23.271333682368542
10
-6.9999950063304697
20
23.27133368236856
42
-0.99999999999999989
10
-6.9999950063304706
20
25.271333682368553
10
7.0000049936695348
20
25.271333682368553
42
-0.99999999999999989
0
LINE
5
107
100
AcDbEntity
8
0
100
AcDbLine
10
-6.9999950063304697
20
24.271333682368557
30
0
11
7.000004993669533
21
24.271333682368549
31
0
0
CIRCLE
5
108
100
AcDbEntity
8
0
100
AcDbCircle
10
-13.000000000000069
20
45.100000000000037
30
0
40
1.5000000000000004
0
CIRCLE
5
109
100
AcDbEntity
8
0
100
AcDbCircle
10
12.999999999999998
20
45.100000000000037
30
0
40
1.5000000000000004
0
LWPOLYLINE
5
110
100
AcDbEntity
8
0
100
AcDbPolyline
90
4
70
1
43
0.0
10
14.250000000000011
20
9.9999999999999911
42
-0.99999999999999989
10
16.750000000000011
20
9.9999999999999911
10
16.750000000000021
20
-10.000000000000018
42
-0.99999999999999989
10
14.250000000000007
20
-10.000000000000009
0
LWPOLYLINE
5
111
100
AcDbEntity
8
0
100
AcDbPolyline
90
4
70
1
43
0.0
10
-14.250000000000005
20
-10.000000000000009
42
-0.99999999999999989
10
-16.75
20
-10.000000000000009
10
-16.750000000000011
20
10
42
-0.99999999999999989
10
-14.250000000000004
20
9.9999999999999964
0
CIRCLE
5
112
100
AcDbEntity
8
0
100
AcDbCircle
10
9.9999999999999982
20
-10.000000000000002
30
0
40
1.2500000000000002
0
CIRCLE
5
113
100
AcDbEntity
8
0
100
AcDbCircle
10
-10.000000000000002
20
-9.9999999999999982
30
0
40
1.2500000000000002
0
CIRCLE
5
114
100
AcDbEntity
8
0
100
AcDbCircle
10
-9.9999999999999982
20
10.000000000000002
30
0
40
1.2500000000000002
0
CIRCLE
5
115
100
AcDbEntity
8
0
100
AcDbCircle
10
10
20
10
30
0
40
1.2500000000000002
0
LWPOLYLINE
5
116
100
AcDbEntity
8
0
100
AcDbPolyline
90
6
70
1
43
0.0
10
-1.7320508075688754
20
3.0000000000000018
10
1.7320508075688792
20
2.9999999999999991
10
3.4641016151377553
20
-1.6653345369377348e-15
10
1.7320508075688765
20
-3.0000000000000009
10
-1.7320508075688803
20
-2.9999999999999987
10
-3.4641016151377553
20
2.7755575615628914e-15
0
LWPOLYLINE
5
117
100
AcDbEntity
8
0
100
AcDbPolyline
90
4
70
1
43
0.0
10
3.0000000000000018
20
-16.900000000000013
42
-0.99999999999999989
10
5.0000000000000018
20
-16.900000000000013
10
5.0000000000000018
20
-30.900000000000016
42
-0.99999999999999989
10
3.0000000000000009
20
-30.900000000000016
0
LINE
5
118
100
AcDbEntity
8
0
100
AcDbLine
10
4.0000000000000018
20
-16.900000000000013
30
0
11
4.0000000000000018
21
-30.900000000000016
31
0
0
LWPOLYLINE
5
119
100
AcDbEntity
8
0
100
AcDbPolyline
90
4
70
1
43
0.0
10
-5.0000000000000044
20
-30.900000000000016
10
-5.0000000000000071
20
-16.900000000000013
42
-0.99999999999999989
10
-3.0000000000000044
20
-16.900000000000013
10
-3.0000000000000036
20
-30.900000000000016
42
-0.99999999999999989
0
LINE
5
120
100
AcDbEntity
8
0
100
AcDbLine
10
-4.0000000000000053
20
-16.900000000000013
30
0
11
-4.0000000000000044
21
-30.900000000000016
31
0
0
LWPOLYLINE
5
121
100
AcDbEntity
8
0
100
AcDbPolyline
90
4
70
1
43
0.0
10
-6.9999950063304706
20
25.271333682368553
10
7.0000049936695348
20
25.271333682368553
42
-0.99999999999999989
10
7.0000049936695312
20
23.271333682368542
10
-6.9999950063304697
20
23.27133368236856
42
-0.99999999999999989
0
LINE
5
122
100
AcDbEntity
8
0
100
AcDbLine
10
-6.9999950063304697
20
24.271333682368557
30
0
11
7.000004993669533
21
24.271333682368549
31
0
0
LWPOLYLINE
5
123
100
AcDbEntity
8
0
100
AcDbPolyline
90
4
70
1
43
0.0
10
7.0000049936695348
20
30.271333682368553
42
-0.99999999999999989
10
7.0000049936695312
20
28.271333682368542
10
-6.9999950063304697
20
28.27133368236856
42
-0.99999999999999989
10
-6.9999950063304706
20
30.271333682368553
0
LINE
5
124
100
AcDbEntity
8
0
100
AcDbLine
10
-6.9999950063304697
20
29.271333682368557
30
0
11
7.000004993669533
21
29.271333682368549
31
0
0
LWPOLYLINE
5
125
100
AcDbEntity
8
0
100
AcDbPolyline
90
4
70
1
43
0.0
10
-6.9999950063304697
20
28.27133368236856
42
-0.99999999999999989
10
-6.9999950063304706
20
30.271333682368553
10
7.0000049936695348
20
30.271333682368553
42
-0.99999999999999989
10
7.0000049936695312
20
28.271333682368542
0
LINE
5
126
100
AcDbEntity
8
0
100
AcDbLine
10
-6.9999950063304697
20
29.271333682368557
30
0
11
7.000004993669533
21
29.271333682368549
31
0
0
LWPOLYLINE
5
127
100
AcDbEntity
8
0
100
AcDbPolyline
90
4
70
1
43
0.0
10
8.5021457450632258
20
-31.85704623350416
42
-0.84300125208853416
10
10.497851376400915
20
-31.857029460608665
10
10.500000000000004
20
-35.90000000000002
42
-0.99999999999999989
10
8.5000000000000018
20
-35.90000000000002
0
LINE
5
128
100
AcDbEntity
8
0
100
AcDbLine
10
9.5000000000000036
20
-32.028287654136292
30
0
11
9.5000000000000036
21
-35.90000000000002
31
0
0
LINE
5
129
100
AcDbEntity
8
0
100
AcDbLine
10
-9.5000000000000053
20
-31.900000000000013
30
0
11
-9.5000000000000053
21
-35.90000000000002
31
0
0
LWPOLYLINE
5
130
100
AcDbEntity
8
0
100
AcDbPolyline
90
4
70
1
43
0.0
10
-8.5000000000000036
20
-35.90000000000002
42
-0.99999999999999989
10
-10.500000000000007
20
-35.90000000000002
10
-10.500000000000007
20
-31.900000000000013
42
-0.99999999999999989
10
-8.5000000000000036
20
-31.900000000000013
0
LWPOLYLINE
5
131
100
AcDbEntity
8
0
100
AcDbPolyline
90
6
70
1
43
0.0
10
-3.4641016151377553
20
2.7755575615628914e-15
10
-1.7320508075688754
20
3.0000000000000018
10
1.7320508075688792
20
2.9999999999999991
10
3.4641016151377553
20
-1.6653345369377348e-15
10
1.7320508075688765
20
-3.0000000000000009
10
-1.7320508075688803
20
-2.9999999999999987
0
LWPOLYLINE
5
132
100
AcDbEntity
8
0
100
AcDbPolyline
90
6
70
1
43
0.0
10
4.8452994616207512
20
7
10
7.1547005383792541
20
6.9999999999999982
10
8.3094010767585047
20
4.9999999999999982
10
7.1547005383792515
20
2.9999999999999982
10
4.8452994616207468
20
2.9999999999999991
10
3.6905989232414971
20
5.0000000000000009
0
LWPOLYLINE
5
133
100
AcDbEntity
8
0
100
AcDbPolyline
90
6
70
1
43
0.0
10
-4.8452994616207476
20
6.9999999999999982
10
-3.6905989232414975
20
4.9999999999999982
10
-4.8452994616207503
20
2.9999999999999982
10
-7.154700538379255
20
2.9999999999999991
10
-8.3094010767585047
20
5.0000000000000009
10
-7.1547005383792506
20
7
0
LWPOLYLINE
5
134
100
AcDbEntity
8
0
100
AcDbPolyline
90
6
70
1
43
0.0
10
-7.1547005383792506
20
-3
10
-4.8452994616207476
20
-3.0000000000000018
10
-3.6905989232414975
20
-5.0000000000000018
10
-4.8452994616207503
20
-7.0000000000000018
10
-7.154700538379255
20
-7.0000000000000009
10
-8.3094010767585047
20
-4.9999999999999991
0
LWPOLYLINE
5
135
100
AcDbEntity
8
0
100
AcDbPolyline
90
6
70
1
43
0.0
10
3.6905989232414971
20
-4.9999999999999991
10
4.8452994616207512
20
-3
10
7.1547005383792541
20
-3.0000000000000018
10
8.3094010767585047
20
-5.0000000000000018
10
7.1547005383792515
20
-7.0000000000000018
10
4.8452994616207468
20
-7.0000000000000009
0
ENDSEC
0
SECTION
2
OBJECTS
0
DICTIONARY
5
C
100
AcDbDictionary
3
ACAD_GROUP
350
D
3
ACAD_MLINESTYLE
350
17
0
DICTIONARY
5
D
100
AcDbDictionary
0
DICTIONARY
5
1A
330
C
100
AcDbDictionary
0
DICTIONARY
5
17
100
AcDbDictionary
0
ENDSEC
0
EOF
