 0
SECTION
 2
ENTITIES
  0
LINE
 8
Group#2
10
582.5035541483711
20
123.41103059256224
30
2.0000000000019944
11
582.2492843522125
21
123.07965974267731
31
2.0000000000019513
  0
LINE
 8
Group#2
10
605.1908825225913
20
136.36066171642537
30
2.0000000000018647
11
605.6906352752839
21
139.56446850623863
31
2.0000000000018625
  0
LINE
 8
Group#2
10
597.7221921021464
20
136.88586420743283
30
2.0000000000018954
11
597.4973721511302
21
137.24312027709365
31
2.0000000000018954
  0
LINE
 8
Group#2
10
606.350297469877
20
146.26389055535645
30
2.000000000001844
11
606.2922866182096
21
146.50694555574498
31
2.0000000000018296
  0
LINE
 8
Group#2
10
603.705787442833
20
134.13953313466152
30
2.0000000000018954
11
603.9925833300392
21
134.2677986352599
31
2.0000000000018665
  0
LINE
 8
Group#2
10
606.1866817239222
20
146.73341541781866
30
2.000000000001829
11
606.0377790649661
21
146.93408676674733
31
2.000000000001858
  0
LINE
 8
Group#2
10
615.2579660444334
20
134.43691694469925
30
2.0000000000018634
11
615.0210011453634
21
134.64319723016303
31
2.000000000001878
  0
LINE
 8
Group#2
10
621.7728927514681
20
140.43499247587928
30
2.000000000001829
11
621.4961727998775
21
140.75374312776262
31
2.000000000001858
  0
LINE
 8
Group#2
10
614.116189989412
20
147.3068557735766
30
2.000000000001856
11
614.3641455883386
21
147.33782370999552
31
2.0000000000018123
  0
LINE
 8
Group#2
10
603.4032242475686
20
134.05491970526896
30
2.0000000000018523
11
603.705787442833
21
134.13953313466152
31
2.0000000000018954
  0
LINE
 8
Group#2
10
628.2152774426631
20
159.7492207436208
30
2.0000000000018736
11
629.0761759902529
21
157.67082779420213
31
2.0000000000018168
  0
LINE
 8
Group#2
10
613.1650214590661
20
146.26389055535634
30
2.000000000001828
11
613.2230323107335
21
146.5069455557449
31
2.000000000001828
  0
LINE
 8
Group#2
10
602.1694690134464
20
134.1749345914166
30
2.000000000001867
11
602.4678136351374
21
134.07647441535445
31
2.000000000001867
  0
LINE
 8
Group#2
10
622.360724274939
20
138.87477984428946
30
2.000000000001873
11
622.2986690784311
21
139.29230237334704
31
2.000000000001873
  0
LINE
 8
Group#2
10
619.7576594644715
20
135.17393881646296
30
2.0000000000018763
11
617.3458499154967
21
134.1749345914166
31
2.0000000000018776
  0
LINE
 8
Group#2
10
606.3583542486947
20
146.0141385174464
30
2.0000000000018585
11
606.350297469877
21
146.26389055535645
31
2.000000000001844
  0
LINE
 8
Group#2
10
605.1511733406046
20
147.33782370999572
30
2.0000000000018727
11
604.9020471138732
21
147.3184042537815
31
2.0000000000018727
  0
LINE
 8
Group#2
10
597.1545946540041
20
138.87477984428963
30
2.000000000001894
11
597.2166498505121
21
139.29230237334718
31
2.000000000001865
  0
LINE
 8
Group#2
10
597.5135474396493
20
140.08032300573055
30
2.0000000000018647
11
597.742426177475
21
140.43499247587937
31
2.0000000000018643
  0
LINE
 8
Group#2
10
605.0720607104704
20
135.73990533218864
30
2.0000000000019083
11
605.1908825225913
21
136.36066171642537
31
2.0000000000018647
  0
LINE
 8
Group#2
10
597.3253157092252
20
137.62857129925243
30
2.000000000001895
11
597.2094788005414
21
138.0344748841971
31
2.0000000000018945
  0
LINE
 8
Group#2
10
604.8648672275854
20
135.14852353708935
30
2.0000000000018803
11
604.9903649127797
21
135.43654133267336
31
2.0000000000018945
  0
LINE
 8
Group#2
10
604.6983065125337
20
134.88213763700514
30
2.000000000001866
11
604.8648672275854
21
135.14852353708935
31
2.0000000000018803
  0
LINE
 8
Group#2
10
606.2922866182096
20
146.50694555574498
30
2.0000000000018296
11
606.1866817239222
21
146.73341541781866
31
2.000000000001829
  0
LINE
 8
Group#2
10
597.742426177475
20
140.43499247587937
30
2.0000000000018643
11
598.0191461290655
21
140.7537431277627
31
2.0000000000018643
  0
LINE
 8
Group#2
10
605.6906352752839
20
139.56446850623863
30
2.0000000000018625
11
606.0799459483992
21
142.78356278259594
31
2.0000000000018607
  0
LINE
 8
Group#2
10
605.3991289395311
20
147.3068557735766
30
2.000000000001858
11
605.1511733406046
21
147.33782370999572
31
2.0000000000018727
  0
LINE
 8
Group#2
10
606.0799459483992
20
142.78356278259594
30
2.0000000000018607
11
606.3583542486947
21
146.0141385174464
31
2.0000000000018585
  0
LINE
 8
Group#2
10
604.2573528845098
20
134.43691694469925
30
2.000000000001852
11
604.4943177835796
21
134.64319723016303
31
2.000000000001895
  0
LINE
 8
Group#2
10
597.9952597001387
20
136.56397914003932
30
2.0000000000018954
11
597.7221921021464
21
136.88586420743283
31
2.0000000000018954
  0
LINE
 8
Group#2
10
604.9020471138732
20
147.3184042537815
30
2.0000000000018727
11
604.6618853531895
21
147.24938743821937
31
2.0000000000018585
  0
LINE
 8
Group#2
10
606.0377790649661
20
146.93408676674733
30
2.000000000001858
11
605.8516363834069
21
147.10079577738261
31
2.0000000000018727
  0
LINE
 8
Group#2
10
614.5249540161635
20
135.43654133267327
30
2.0000000000018487
11
614.4432582184727
21
135.7399053321886
31
2.0000000000018767
  0
LINE
 8
Group#2
10
613.2230323107335
20
146.5069455557449
30
2.000000000001828
11
613.3286372050206
21
146.73341541781858
31
2.0000000000018274
  0
LINE
 8
Group#2
10
622.2986690784311
20
139.29230237334704
30
2.000000000001873
11
622.1782116241058
21
139.6968588111674
31
2.0000000000018585
  0
LINE
 8
Group#2
10
627.0781675401604
20
162.4944468921517
30
2.0000000000018288
11
628.2152774426631
21
159.7492207436208
31
2.0000000000018736
  0
LINE
 8
Group#2
10
616.737910477628
20
134.02304250206132
30
2.0000000000018776
11
616.4238220547708
21
134.01580494797972
31
2.0000000000018634
  0
LINE
 8
Group#2
10
602.4678136351374
20
134.07647441535445
30
2.000000000001867
11
602.777408451315
21
134.02304250206132
31
2.000000000001867
  0
LINE
 8
Group#2
10
615.8095314861102
20
134.13953313466152
30
2.0000000000018923
11
615.522735598904
21
134.2677986352599
31
2.000000000001878
  0
LINE
 8
Group#2
10
622.3631307374569
20
138.45267782033972
30
2.0000000000018736
11
622.360724274939
21
138.87477984428946
31
2.000000000001873
  0
LINE
 8
Group#2
10
623.8997950882025
20
166.6365825158827
30
2.0000000000018705
11
627.0781675401604
21
162.4944468921517
31
2.0000000000018288
  0
LINE
 8
Group#2
10
616.4238220547708
20
134.01580494797972
30
2.0000000000018634
11
616.1120946813746
21
134.05491970526896
31
2.0000000000018634
  0
LINE
 8
Group#2
10
602.1694690134464
20
134.1749345914166
30
2.000000000001867
11
599.7576594644715
21
135.17393881646288
31
2.000000000001867
  0
LINE
 8
Group#2
10
621.5200592288044
20
136.56397914003904
30
2.000000000001889
11
621.7931268267967
21
136.88586420743277
31
2.000000000001875
  0
LINE
 8
Group#2
10
597.2094788005414
20
138.0344748841971
30
2.0000000000018945
11
597.1521881914863
21
138.4526778203399
31
2.0000000000018945
  0
LINE
 8
Group#2
10
613.8794924880012
20
147.22676029960326
30
2.0000000000018416
11
614.116189989412
21
147.3068557735766
31
2.000000000001856
  0
LINE
 8
Group#2
10
603.9925833300392
20
134.2677986352599
30
2.0000000000018665
11
604.2573528845098
21
134.43691694469925
31
2.000000000001852
  0
LINE
 8
Group#2
10
599.7576594644715
20
135.17393881646288
30
2.000000000001867
11
598.3110899531371
21
136.2839306424975
31
2.0000000000018807
  0
LINE
 8
Group#2
10
613.4353729805438
20
142.783562782596
30
2.000000000001873
11
613.1569646802483
21
146.0141385174464
31
2.0000000000018137
  0
LINE
 8
Group#2
10
597.2166498505121
20
139.29230237334718
30
2.000000000001865
11
597.3371073048372
21
139.69685881116746
31
2.0000000000018794
  0
LINE
 8
Group#2
10
617.3458499154967
20
134.1749345914166
30
2.0000000000018776
11
617.0475052938057
21
134.07647441535445
31
2.0000000000018923
  0
LINE
 8
Group#2
10
621.8319801346985
20
168.22327273585273
30
2.000000000001856
11
623.8997950882025
21
166.6365825158827
31
2.0000000000018705
  0
LINE
 8
Group#2
10
603.0914968741724
20
134.01580494797972
30
2.000000000001867
11
603.4032242475686
21
134.05491970526896
31
2.0000000000018523
  0
LINE
 8
Group#2
10
602.777408451315
20
134.02304250206132
30
2.000000000001867
11
603.0914968741724
21
134.01580494797972
31
2.000000000001867
  0
LINE
 8
Group#2
10
605.6358264409417
20
147.22676029960326
30
2.000000000001844
11
605.3991289395311
21
147.3068557735766
31
2.000000000001858
  0
LINE
 8
Group#2
10
597.1521881914863
20
138.4526778203399
30
2.0000000000018945
11
597.1545946540041
21
138.87477984428963
31
2.000000000001894
  0
LINE
 8
Group#2
10
598.3110899531371
20
136.2839306424975
30
2.0000000000018807
11
597.9952597001387
21
136.56397914003932
31
2.0000000000018954
  0
LINE
 8
Group#2
10
605.8516363834069
20
147.10079577738261
30
2.0000000000018727
11
605.6358264409417
21
147.22676029960326
31
2.000000000001844
  0
LINE
 8
Group#2
10
604.4943177835796
20
134.64319723016303
30
2.000000000001895
11
604.6983065125337
21
134.88213763700514
31
2.000000000001866
  0
LINE
 8
Group#2
10
622.3058401284018
20
138.03447488419692
30
2.0000000000018594
11
622.3631307374569
21
138.45267782033972
31
2.0000000000018736
  0
LINE
 8
Group#2
10
598.0191461290655
20
140.7537431277627
30
2.0000000000018643
11
604.2467746332386
21
146.97569637337375
31
2.000000000001873
  0
LINE
 8
Group#2
10
604.4404584549353
20
147.13358104437773
30
2.000000000001873
11
604.2467746332386
21
146.97569637337375
31
2.000000000001873
  0
LINE
 8
Group#2
10
597.3371073048372
20
139.69685881116746
30
2.0000000000018794
11
597.5135474396493
21
140.08032300573055
31
2.0000000000018647
  0
LINE
 8
Group#2
10
604.6618853531895
20
147.24938743821937
30
2.0000000000018585
11
604.4404584549353
21
147.13358104437773
31
2.000000000001873
  0
LINE
 8
Group#2
10
613.3286372050206
20
146.73341541781858
30
2.0000000000018274
11
613.4775398639771
21
146.93408676674724
31
2.000000000001842
  0
LINE
 8
Group#2
10
597.4973721511302
20
137.24312027709365
30
2.0000000000018954
11
597.3253157092252
21
137.62857129925243
31
2.000000000001895
  0
LINE
 8
Group#2
10
608.4966505695708
20
99.82351443170101
30
2.00000000000385
11
608.7223832840626
21
99.73001287988745
31
2.000000000003821
  0
LINE
 8
Group#2
10
634.604325682773
20
248.1007255479352
30
2.0000000000018328
11
634.154773781503
21
249.1860398449772
31
2.000000000001832
  0
LINE
 8
Group#2
10
634.154773781503
20
244.68603984496772
30
2.000000000001835
11
634.604325682773
21
245.77135414200978
31
2.0000000000018487
  0
LINE
 8
Group#2
10
634.604325682773
20
245.77135414200978
30
2.0000000000018487
11
634.757659464472
21
246.93603984496875
31
2.000000000001833
  0
LINE
 8
Group#2
10
606.2935578493336
20
105.59371618504758
30
2.0000000000001505
11
605.8939561593161
21
104.62899236545537
31
2.0000000000001514
  0
LINE
 8
Group#2
10
611.018668359376
20
99.82351443170101
30
2.000000000003849
11
611.7576594644725
21
100.1296145698996
31
2.0000000000038196
  0
LINE
 8
Group#2
10
608.7223832840609
20
107.45741949019836
30
2.0000000000001634
11
608.496650569569
21
107.3639179383848
31
2.0000000000001488
  0
LINE
 8
Group#2
10
567.1538118871787
20
102.85115391052285
30
2.0000000000019673
11
566.6879376059948
21
102.78982039784255
31
2.000000000001996
  0
LINE
 8
Group#2
10
632.5076594644711
20
243.03892552793752
30
2.000000000001894
11
633.4396399798122
21
243.75405932962664
31
2.0000000000019225
  0
LINE
 8
Group#2
10
565.4151453998579
20
100.58527962934886
30
2.000000000001998
11
565.5949661603662
21
100.15115391052018
31
2.0000000000019837
  0
LINE
 8
Group#2
10
608.7223832840626
20
99.73001287988745
30
2.000000000003821
11
609.7576594644734
21
99.59371618504478
31
2.0000000000038494
  0
LINE
 8
Group#2
10
565.4151453998579
20
101.51702819170562
30
2.0000000000020117
11
565.3538118871794
21
101.05115391051605
31
2.000000000001998
  0
LINE
 8
Group#2
10
566.253811887179
20
102.60999963734348
30
2.0000000000020113
11
565.8810196810438
21
102.32394611666047
31
2.00000000000204
  0
LINE
 8
Group#2
10
634.154773781503
20
249.1860398449772
30
2.000000000001832
11
633.4396399798122
21
250.11802036031835
31
2.0000000000018243
  0
LINE
 8
Group#2
10
634.757659464472
20
246.93603984496875
30
2.000000000001833
11
634.604325682773
21
248.1007255479352
31
2.0000000000018328
  0
LINE
 8
Group#2
10
653.2615070417659
20
245.68770589480917
30
2.0000000000018727
11
653.6342992479013
21
245.9737594154921
31
2.0000000000018576
  0
LINE
 8
Group#2
10
577.8538118871796
20
265.7794952626105
30
2.000000000001887
11
578.2879376059954
21
265.5996745021039
31
2.0000000000018945
  0
LINE
 8
Group#2
10
577.0151453998584
20
267.8042152706051
30
2.000000000001893
11
576.95381188718
21
267.3383409894229
31
2.0000000000018434
  0
LINE
 8
Group#2
10
580.4924783744982
20
267.8042152706051
30
2.0000000000018927
11
580.3126576139898
21
268.238340989419
31
2.000000000001907
  0
LINE
 8
Group#2
10
568.9538118871781
20
101.05115391051605
30
2.0000000000019966
11
568.8924783744995
21
101.51702819170562
31
2.0000000000020113
  0
LINE
 8
Group#2
10
654.1615070417655
20
247.24655162162162
30
2.0000000000018567
11
654.1001735290871
21
247.7124259028037
31
2.000000000001835
  0
LINE
 8
Group#2
10
577.1949661603668
20
266.43834098942693
30
2.0000000000018727
11
577.4810196810424
21
266.0655487832935
31
2.0000000000018656
  0
LINE
 8
Group#2
10
626.3605451474406
20
249.1860398449772
30
2.000000000001834
11
625.9109932461727
21
248.1007255479352
31
2.000000000001864
  0
LINE
 8
Group#2
10
577.4810196810424
20
266.0655487832935
30
2.0000000000018656
11
577.8538118871796
21
265.7794952626105
31
2.000000000001887
  0
LINE
 8
Group#2
10
631.4223451674346
20
242.58937362667498
30
2.0000000000018803
11
632.5076594644711
21
243.03892552793752
31
2.000000000001894
  0
LINE
 8
Group#2
10
568.0538118871784
20
102.60999963734348
30
2.0000000000020104
11
567.6196861683627
21
102.78982039784255
31
2.000000000001996
  0
LINE
 8
Group#2
10
627.0756789491315
20
243.75405932962664
30
2.000000000001924
11
628.0076594644726
21
243.03892552793752
31
2.0000000000018954
  0
LINE
 8
Group#2
10
578.2879376059954
20
269.0770074767493
30
2.000000000001871
11
577.8538118871796
21
268.897186716228
31
2.000000000001871
  0
LINE
 8
Group#2
10
610.8890303143702
20
256.2069701395196
30
2.000000000001834
11
611.1433001105286
21
256.53834098942673
31
2.000000000001819
  0
LINE
 8
Group#2
10
565.8810196810438
20
102.32394611666047
30
2.00000000000204
11
565.5949661603662
21
101.95115391052686
31
2.0000000000020117
  0
LINE
 8
Group#2
10
628.0076594644726
20
250.8331541620074
30
2.000000000001811
11
627.0756789491315
21
250.11802036031835
31
2.000000000001826
  0
LINE
 8
Group#2
10
610.5576594644722
20
255.95270034337426
30
2.00000000000187
11
610.8890303143702
21
256.2069701395196
31
2.000000000001834
  0
LINE
 8
Group#2
10
576.95381188718
20
267.3383409894229
30
2.0000000000018434
11
577.0151453998584
21
266.8724667082334
31
2.000000000001894
  0
LINE
 8
Group#2
10
650.8026613149538
20
248.14655162162492
30
2.000000000001886
11
650.6228405544452
21
247.7124259028037
31
2.000000000001836
  0
LINE
 8
Group#2
10
654.1001735290871
20
247.7124259028037
30
2.000000000001835
11
653.9203527685787
21
248.14655162162492
31
2.000000000001885
  0
LINE
 8
Group#2
10
577.1949661603668
20
268.238340989419
30
2.0000000000019074
11
577.0151453998584
21
267.8042152706051
31
2.000000000001893
  0
LINE
 8
Group#2
10
651.8956327605804
20
245.50788513430254
30
2.000000000001815
11
652.3615070417662
21
245.44655162162215
31
2.0000000000018003
  0
LINE
 8
Group#2
10
567.6196861683627
20
102.78982039784255
30
2.000000000001996
11
567.1538118871787
21
102.85115391052285
31
2.0000000000019673
  0
LINE
 8
Group#2
10
650.561507041765
20
247.24655162162162
30
2.0000000000018576
11
650.6228405544452
21
246.78067734044683
31
2.000000000001815
  0
LINE
 8
Group#2
10
611.7576594644725
20
100.1296145698996
30
2.0000000000038196
11
612.5860865892182
21
100.76528906030373
31
2.000000000003834
  0
LINE
 8
Group#2
10
633.4396399798122
20
243.75405932962664
30
2.0000000000019225
11
634.154773781503
21
244.68603984496772
31
2.000000000001835
  0
LINE
 8
Group#2
10
630.2576594644719
20
242.43603984497412
30
2.000000000001909
11
631.4223451674346
21
242.58937362667498
31
2.0000000000018803
  0
LINE
 8
Group#2
10
605.7576594644714
20
103.59371618504667
30
2.000000000002
11
605.8939561593161
21
102.55844000463031
31
2.0000000000020153
  0
LINE
 8
Group#2
10
652.82738132295
20
245.50788513430254
30
2.000000000001815
11
653.2615070417659
21
245.68770589480917
31
2.0000000000018727
  0
LINE
 8
Group#2
10
650.6228405544452
20
246.78067734044683
30
2.000000000001815
11
650.8026613149538
21
246.34655162162565
31
2.000000000001786
  0
LINE
 8
Group#2
10
605.8939561593161
20
104.62899236545537
30
2.0000000000001514
11
605.7576594644714
21
103.59371618504667
31
2.000000000002
  0
LINE
 8
Group#2
10
568.8924783744995
20
101.51702819170562
30
2.0000000000020113
11
568.7126576139912
21
101.95115391052686
31
2.0000000000020104
  0
LINE
 8
Group#2
10
566.6879376059948
20
102.78982039784255
30
2.000000000001996
11
566.253811887179
21
102.60999963734348
31
2.0000000000020113
  0
LINE
 8
Group#2
10
565.5949661603662
20
101.95115391052686
30
2.0000000000020117
11
565.4151453998579
21
101.51702819170562
31
2.0000000000020117
  0
LINE
 8
Group#2
10
565.5949661603662
20
100.15115391052018
30
2.0000000000019837
11
565.8810196810438
21
99.778361704394
31
2.000000000001984
  0
LINE
 8
Group#2
10
611.0186683593723
20
107.3639179383848
30
2.0000000000001483
11
610.7929356448805
21
107.45741949019836
31
2.0000000000001625
  0
LINE
 8
Group#2
10
565.8810196810438
20
99.778361704394
30
2.000000000001984
11
566.253811887179
21
99.49230818371099
31
2.0000000000019984
  0
LINE
 8
Group#2
10
613.2217610796093
20
105.59371618504758
30
2.0000000000020117
11
612.5860865892163
21
106.42214330978936
31
2.0000000000019966
  0
LINE
 8
Group#2
10
633.4396399798122
20
250.11802036031835
30
2.0000000000018243
11
632.5076594644711
21
250.8331541620074
31
2.00000000000181
  0
LINE
 8
Group#2
10
608.496650569569
20
107.3639179383848
30
2.0000000000001488
11
607.7576594644707
21
107.057817800179
31
2.000000000000164
  0
LINE
 8
Group#2
10
630.2576594644719
20
251.43603984497088
30
2.000000000001832
11
629.0929737615111
21
251.28270606326993
31
2.0000000000018394
  0
LINE
 8
Group#2
10
652.82738132295
20
248.98521810894803
30
2.000000000001907
11
652.3615070417662
21
249.04655162162098
31
2.0000000000018634
  0
LINE
 8
Group#2
10
625.7576594644717
20
246.93603984496886
30
2.000000000001908
11
625.9109932461727
21
245.77135414200978
31
2.0000000000019087
  0
LINE
 8
Group#2
10
609.7576594644734
20
99.59371618504478
30
2.0000000000038494
11
610.7929356448842
21
99.73001287988745
31
2.0000000000038205
  0
LINE
 8
Group#2
10
568.7126576139912
20
101.95115391052686
30
2.0000000000020104
11
568.4266040933137
21
102.32394611666047
31
2.000000000002025
  0
LINE
 8
Group#2
10
568.4266040933137
20
99.778361704394
30
2.0000000000019833
11
568.7126576139912
21
100.15115391052018
31
2.000000000001983
  0
LINE
 8
Group#2
10
567.6196861683627
20
99.31248742320457
30
2.000000000001998
11
568.0538118871784
21
99.49230818371099
31
2.000000000001998
  0
LINE
 8
Group#2
10
605.8939561593161
20
102.55844000463031
30
2.0000000000020153
11
606.2935578493355
21
101.59371618504565
31
2.0000000000020157
  0
LINE
 8
Group#2
10
580.5538118871787
20
267.3383409894229
30
2.0000000000018425
11
580.4924783744982
21
267.8042152706051
31
2.0000000000018927
  0
LINE
 8
Group#2
10
568.4266040933137
20
102.32394611666047
30
2.000000000002025
11
568.0538118871784
21
102.60999963734348
31
2.0000000000020104
  0
LINE
 8
Group#2
10
568.7126576139912
20
100.15115391052018
30
2.000000000001983
11
568.8924783744995
21
100.58527962934886
31
2.000000000001997
  0
LINE
 8
Group#2
10
651.4615070417645
20
245.6877058948091
30
2.000000000001801
11
651.8956327605804
21
245.50788513430254
31
2.000000000001815
  0
LINE
 8
Group#2
10
640.7615070417656
20
269.13834098942976
30
2.0000000000018834
11
640.2956327605817
21
269.0770074767493
31
2.0000000000018616
  0
LINE
 8
Group#2
10
652.3615070417662
20
245.44655162162215
30
2.0000000000018003
11
652.82738132295
21
245.50788513430254
31
2.000000000001815
  0
LINE
 8
Group#2
10
577.8538118871796
20
268.897186716228
30
2.000000000001871
11
577.4810196810424
21
268.6111331955599
31
2.0000000000018714
  0
LINE
 8
Group#2
10
577.4810196810424
20
268.6111331955599
30
2.0000000000018714
11
577.1949661603668
21
268.238340989419
31
2.0000000000019074
  0
LINE
 8
Group#2
10
579.2196861683632
20
269.0770074767493
30
2.0000000000018705
11
578.7538118871793
21
269.13834098942965
31
2.0000000000018705
  0
LINE
 8
Group#2
10
650.6228405544452
20
247.7124259028037
30
2.000000000001836
11
650.561507041765
21
247.24655162162162
31
2.0000000000018576
  0
LINE
 8
Group#2
10
580.3126576139898
20
268.238340989419
30
2.000000000001907
11
580.0266040933143
21
268.6111331955599
31
2.0000000000018705
  0
LINE
 8
Group#2
10
653.2615070417659
20
248.80539734844152
30
2.0000000000018776
11
652.82738132295
21
248.98521810894803
31
2.000000000001907
  0
LINE
 8
Group#2
10
579.653811887179
20
268.897186716228
30
2.0000000000018705
11
579.2196861683632
21
269.0770074767493
31
2.0000000000018705
  0
LINE
 8
Group#2
10
653.9203527685787
20
246.34655162162557
30
2.000000000001872
11
654.1001735290871
21
246.78067734044683
31
2.0000000000018137
  0
LINE
 8
Group#2
10
567.1538118871787
20
99.25115391052412
30
2.000000000002013
11
567.6196861683627
21
99.31248742320457
31
2.000000000001998
  0
LINE
 8
Group#2
10
580.0266040933143
20
266.0655487832935
30
2.0000000000018647
11
580.3126576139898
21
266.43834098942693
31
2.000000000001872
  0
LINE
 8
Group#2
10
654.1001735290871
20
246.78067734044683
30
2.0000000000018137
11
654.1615070417655
21
247.24655162162162
31
2.0000000000018567
  0
LINE
 8
Group#2
10
651.8956327605821
20
248.98521810894803
30
2.0000000000019074
11
651.4615070417645
21
248.80539734844152
31
2.0000000000018785
  0
LINE
 8
Group#2
10
653.9203527685787
20
248.14655162162492
30
2.000000000001885
11
653.6342992479013
21
248.5193438277585
31
2.0000000000018563
  0
LINE
 8
Group#2
10
579.653811887179
20
265.7794952626105
30
2.000000000001887
11
580.0266040933143
21
266.0655487832935
31
2.0000000000018647
  0
LINE
 8
Group#2
10
566.6879376059948
20
99.31248742320457
30
2.0000000000019984
11
567.1538118871787
21
99.25115391052412
31
2.000000000002013
  0
LINE
 8
Group#2
10
568.8924783744995
20
100.58527962934886
30
2.000000000001997
11
568.9538118871781
21
101.05115391051605
31
2.0000000000019966
  0
LINE
 8
Group#2
10
592.4396399798117
20
243.75405932962664
30
2.000000000001803
11
593.1547737815025
21
244.68603984496772
31
2.000000000001802
  0
LINE
 8
Group#2
10
639.0228405544466
20
267.8042152706051
30
2.000000000001877
11
638.9615070417661
21
267.33834098942293
31
2.000000000001834
  0
LINE
 8
Group#2
10
651.0887148356311
20
248.5193438277585
30
2.000000000001857
11
650.8026613149538
21
248.14655162162492
31
2.000000000001886
  0
LINE
 8
Group#2
10
642.3203527685781
20
266.43834098942693
30
2.000000000001827
11
642.5001735290863
21
266.8724667082335
31
2.000000000001848
  0
LINE
 8
Group#2
10
653.6342992479013
20
245.9737594154921
30
2.0000000000018576
11
653.9203527685787
21
246.34655162162557
31
2.000000000001872
  0
LINE
 8
Group#2
10
568.0538118871784
20
99.49230818371099
30
2.000000000001998
11
568.4266040933137
21
99.778361704394
31
2.0000000000019833
  0
LINE
 8
Group#2
10
586.0756789491328
20
243.75405932962664
30
2.0000000000018336
11
587.0076594644721
21
243.03892552793755
31
2.000000000001805
  0
LINE
 8
Group#2
10
591.5076594644723
20
243.0389255279376
30
2.0000000000017746
11
592.4396399798117
21
243.75405932962664
31
2.000000000001803
  0
LINE
 8
Group#2
10
640.2956327605817
20
265.599674502104
30
2.000000000001864
11
640.7615070417656
21
265.538340989431
31
2.0000000000018785
  0
LINE
 8
Group#2
10
584.9109932461702
20
248.10072554793516
30
2.0000000000018527
11
584.7576594644729
21
246.93603984496875
31
2.0000000000018323
  0
LINE
 8
Group#2
10
587.0076594644721
20
250.83315416200745
30
2.000000000001793
11
586.0756789491328
21
250.11802036031835
31
2.0000000000018225
  0
LINE
 8
Group#2
10
641.6615070417652
20
265.7794952626105
30
2.0000000000018705
11
642.0342992479024
21
266.06554878327876
31
2.000000000001863
  0
LINE
 8
Group#2
10
638.9615070417661
20
267.33834098942293
30
2.000000000001834
11
639.0228405544466
21
266.8724667082335
31
2.000000000001849
  0
LINE
 8
Group#2
10
652.3615070417662
20
249.04655162162098
30
2.0000000000018634
11
651.8956327605821
21
248.98521810894803
31
2.0000000000019074
  0
LINE
 8
Group#2
10
639.4887148356305
20
266.06554878327876
30
2.000000000001864
11
639.8615070417658
21
265.7794952626105
31
2.0000000000018714
  0
LINE
 8
Group#2
10
642.5001735290863
20
266.8724667082335
30
2.000000000001848
11
642.5615070417649
21
267.33834098942293
31
2.000000000001833
  0
LINE
 8
Group#2
10
651.0887148356311
20
245.97375941549208
30
2.000000000001786
11
651.4615070417645
21
245.6877058948091
31
2.000000000001801
  0
LINE
 8
Group#2
10
642.3203527685781
20
268.238340989419
30
2.0000000000018763
11
642.0342992479024
21
268.6111331955598
31
2.0000000000018185
  0
LINE
 8
Group#2
10
590.9503373079199
20
148.44669166122603
30
2.000000000001847
11
590.6800391102665
21
148.7407996818723
31
2.000000000001861
  0
LINE
 8
Group#2
10
588.0929737615104
20
242.58937362667498
30
2.000000000001805
11
589.2576594644731
21
242.43603984497412
31
2.0000000000018336
  0
LINE
 8
Group#2
10
580.4924783744982
20
266.8724667082334
30
2.000000000001893
11
580.5538118871787
21
267.3383409894229
31
2.0000000000018425
  0
LINE
 8
Group#2
10
589.2576594644731
20
242.43603984497412
30
2.0000000000018336
11
590.4223451674321
21
242.58937362667498
31
2.0000000000018043
  0
LINE
 8
Group#2
10
584.9109932461702
20
245.77135414200978
30
2.0000000000018323
11
585.3605451474419
21
244.68603984496772
31
2.000000000001848
  0
LINE
 8
Group#2
10
642.0342992479024
20
266.06554878327876
30
2.000000000001863
11
642.3203527685781
21
266.43834098942693
31
2.000000000001827
  0
LINE
 8
Group#2
10
641.2273813229497
20
265.599674502104
30
2.0000000000018634
11
641.6615070417652
21
265.7794952626105
31
2.0000000000018705
  0
LINE
 8
Group#2
10
593.1403732002127
20
147.6440481441429
30
2.0000000000018323
11
592.7409474181635
21
147.6484852713261
31
2.000000000001847
  0
LINE
 8
Group#2
10
580.0266040933143
20
268.6111331955599
30
2.0000000000018705
11
579.653811887179
21
268.897186716228
31
2.0000000000018705
  0
LINE
 8
Group#2
10
580.3126576139898
20
266.43834098942693
30
2.000000000001872
11
580.4924783744982
21
266.8724667082334
31
2.000000000001893
  0
LINE
 8
Group#2
10
566.253811887179
20
99.49230818371099
30
2.0000000000019984
11
566.6879376059948
21
99.31248742320457
31
2.0000000000019984
  0
LINE
 8
Group#2
10
591.9622835591422
20
147.8187063968499
30
2.000000000001861
11
591.5974413208021
21
147.9813433686186
31
2.0000000000018323
  0
LINE
 8
Group#2
10
640.2956327605817
20
269.0770074767493
30
2.0000000000018616
11
639.8615070417658
21
268.8971867162281
31
2.000000000001862
  0
LINE
 8
Group#2
10
639.202661314955
20
266.43834098942693
30
2.0000000000018274
11
639.4887148356305
21
266.06554878327876
31
2.000000000001864
  0
LINE
 8
Group#2
10
593.53670863651
20
147.69383634955548
30
2.0000000000018177
11
595.0570582787877
21
148.0484462921381
31
2.0000000000018314
  0
LINE
 8
Group#2
10
584.7576594644729
20
246.93603984496875
30
2.0000000000018323
11
584.9109932461702
21
245.77135414200978
31
2.0000000000018323
  0
LINE
 8
Group#2
10
577.0151453998584
20
266.8724667082334
30
2.000000000001894
11
577.1949661603668
21
266.43834098942693
31
2.0000000000018727
  0
LINE
 8
Group#2
10
650.8026613149538
20
246.34655162162565
30
2.000000000001786
11
651.0887148356311
21
245.97375941549208
31
2.000000000001786
  0
LINE
 8
Group#2
10
578.2879376059954
20
265.5996745021039
30
2.0000000000018945
11
578.7538118871793
21
265.53834098943094
31
2.0000000000018945
  0
LINE
 8
Group#2
10
653.6342992479013
20
248.5193438277585
30
2.0000000000018563
11
653.2615070417659
21
248.80539734844152
31
2.0000000000018776
  0
LINE
 8
Group#2
10
579.2196861683632
20
265.5996745021039
30
2.000000000001894
11
579.653811887179
21
265.7794952626105
31
2.000000000001887
  0
LINE
 8
Group#2
10
593.1547737815025
20
249.18603984497727
30
2.000000000001915
11
592.4396399798117
21
250.11802036031835
31
2.0000000000019145
  0
LINE
 8
Group#2
10
642.5001735290863
20
267.8042152706051
30
2.0000000000018767
11
642.3203527685781
21
268.238340989419
31
2.0000000000018763
  0
LINE
 8
Group#2
10
578.7538118871793
20
269.13834098942965
30
2.0000000000018705
11
578.2879376059954
21
269.0770074767493
31
2.000000000001871
  0
LINE
 8
Group#2
10
651.4615070417645
20
248.80539734844152
30
2.0000000000018785
11
651.0887148356311
21
248.5193438277585
31
2.000000000001857
  0
LINE
 8
Group#2
10
603.705787442833
20
170.8493606496419
30
2.0000000000018443
11
603.9925833300392
21
170.7210951490434
31
2.00000000000183
  0
LINE
 8
Group#2
10
593.53670863651
20
147.69383634955548
30
2.0000000000018177
11
593.1403732002127
21
147.6440481441429
31
2.0000000000018323
  0
LINE
 8
Group#2
10
596.5478280493237
20
148.51192955764986
30
2.000000000001802
11
598.0012323824844
21
149.08186559836147
31
2.0000000000018154
  0
LINE
 8
Group#2
10
585.3605451474419
20
249.1860398449772
30
2.0000000000018305
11
584.9109932461702
21
248.10072554793516
31
2.0000000000018527
  0
LINE
 8
Group#2
10
591.2580342655361
20
148.19196980166763
30
2.0000000000018323
11
590.9503373079199
21
148.44669166122603
31
2.000000000001847
  0
LINE
 8
Group#2
10
590.6800391102665
20
148.7407996818723
30
2.000000000001861
11
590.4521369113598
21
149.0688564318359
31
2.000000000001846
  0
LINE
 8
Group#2
10
591.5974413208021
20
147.9813433686186
30
2.0000000000018323
11
591.2580342655361
21
148.19196980166763
31
2.0000000000018323
  0
LINE
 8
Group#2
10
587.0076594644721
20
243.03892552793755
30
2.000000000001805
11
588.0929737615104
21
242.58937362667498
31
2.000000000001805
  0
LINE
 8
Group#2
10
639.202661314955
20
268.238340989419
30
2.0000000000018767
11
639.0228405544466
21
267.8042152706051
31
2.000000000001877
  0
LINE
 8
Group#2
10
589.2576594644731
20
251.43603984497088
30
2.0000000000018856
11
588.0929737615104
21
251.28270606327
31
2.0000000000018647
  0
LINE
 8
Group#2
10
590.1395125083911
20
149.80204032390446
30
2.000000000001832
11
590.0605700646265
21
150.19361245523626
31
2.0000000000018603
  0
LINE
 8
Group#2
10
589.7576594644717
20
152.49444689215173
30
2.0000000000018447
11
590.4391429386902
21
157.67082779420207
31
2.000000000001841
  0
LINE
 8
Group#2
10
604.9903649127797
20
169.55235245163013
30
2.0000000000018594
11
605.0720607104704
21
169.24898845211487
31
2.0000000000018594
  0
LINE
 8
Group#2
10
592.3458158235437
20
147.70706569806083
30
2.000000000001861
11
591.9622835591422
21
147.8187063968499
31
2.000000000001861
  0
LINE
 8
Group#2
10
604.2573528845098
20
170.5519768396041
30
2.0000000000018443
11
604.4943177835796
21
170.3456965541404
31
2.0000000000018154
  0
LINE
 8
Group#2
10
590.6845179250656
20
129.43946044499975
30
2.000000000001873
11
590.4905463633567
21
129.19151020156303
31
2.0000000000018874
  0
LINE
 8
Group#2
10
604.3196331854614
20
153.31534216857656
30
2.0000000000017537
11
603.9167631271157
21
152.9224895251069
31
2.000000000001783
  0
LINE
 8
Group#2
10
586.0756789491328
20
250.11802036031835
30
2.0000000000018225
11
585.3605451474419
21
249.1860398449772
31
2.0000000000018305
  0
LINE
 8
Group#2
10
592.7409474181635
20
147.6484852713261
30
2.000000000001847
11
592.3458158235437
21
147.70706569806083
31
2.000000000001861
  0
LINE
 8
Group#2
10
642.5615070417649
20
267.33834098942293
30
2.000000000001833
11
642.5001735290863
21
267.8042152706051
31
2.0000000000018767
  0
LINE
 8
Group#2
10
593.1547737815025
20
244.68603984496772
30
2.000000000001802
11
593.6043256827725
21
245.77135414200978
31
2.0000000000018154
  0
LINE
 8
Group#2
10
639.4887148356305
20
268.6111331955599
30
2.0000000000018407
11
639.202661314955
21
268.238340989419
31
2.0000000000018767
  0
LINE
 8
Group#2
10
603.4032242475686
20
170.93397407903436
30
2.0000000000018443
11
603.705787442833
21
170.8493606496419
31
2.0000000000018443
  0
LINE
 8
Group#2
10
605.1908825225913
20
168.62823206787817
30
2.0000000000018305
11
605.0720607104704
21
169.24898845211487
31
2.0000000000018594
  0
LINE
 8
Group#2
10
605.3356264485078
20
154.65948428042392
30
2.00000000000181
11
605.0310846617091
21
154.18631223614616
31
2.000000000001825
  0
LINE
 8
Group#2
10
626.5367509687059
20
130.1389089766783
30
2.000000000001964
11
626.8465137986911
21
130.19504523173472
31
2.0000000000019638
  0
LINE
 8
Group#2
10
592.4371513887828
20
162.49444689215164
30
2.0000000000018234
11
595.6155238407406
21
166.63658251588262
31
2.0000000000018203
  0
LINE
 8
Group#2
10
641.2273813229497
20
269.0770074767493
30
2.00000000000184
11
640.7615070417656
21
269.13834098942976
31
2.0000000000018834
  0
LINE
 8
Group#2
10
590.2708441381383
20
149.42479683954576
30
2.000000000001875
11
590.1395125083911
21
149.80204032390446
31
2.000000000001832
  0
LINE
 8
Group#2
10
606.0244156142273
20
156.19718705163328
30
2.000000000001838
11
605.8337059759132
21
155.66778425862344
31
2.000000000001795
  0
LINE
 8
Group#2
10
642.0342992479024
20
268.6111331955598
30
2.0000000000018185
11
641.6615070417652
21
268.8971867162281
31
2.000000000001847
  0
LINE
 8
Group#2
10
598.0012323824844
20
149.08186559836147
30
2.0000000000018154
11
599.4096808541484
21
149.7552779154603
31
2.000000000001786
  0
LINE
 8
Group#2
10
590.0605700646265
20
150.19361245523626
30
2.0000000000018603
11
589.7576594644717
21
152.49444689215173
31
2.0000000000018447
  0
LINE
 8
Group#2
10
639.8615070417658
20
268.8971867162281
30
2.000000000001862
11
639.4887148356305
21
268.6111331955599
31
2.0000000000018407
  0
LINE
 8
Group#2
10
593.7576594644715
20
246.93603984496886
30
2.000000000001801
11
593.6043256827725
21
248.1007255479352
31
2.0000000000018647
  0
LINE
 8
Group#2
10
603.9925833300392
20
170.7210951490434
30
2.00000000000183
11
604.2573528845098
21
170.5519768396041
31
2.0000000000018443
  0
LINE
 8
Group#2
10
599.7576594644715
20
169.81495496784044
30
2.0000000000018026
11
602.1694690134464
21
170.8139591928868
31
2.0000000000018736
  0
LINE
 8
Group#2
10
590.4391429386902
20
157.67082779420207
30
2.000000000001841
11
591.30004148628
21
159.7492207436208
31
2.0000000000018545
  0
LINE
 8
Group#2
10
591.5076594644723
20
250.83315416200745
30
2.0000000000018923
11
590.4223451674321
21
251.28270606327
31
2.000000000001864
  0
LINE
 8
Group#2
10
605.6906352752839
20
165.4244252780648
30
2.0000000000018474
11
605.1908825225913
21
168.62823206787817
31
2.0000000000018305
  0
LINE
 8
Group#2
10
590.4223451674321
20
251.28270606327
30
2.000000000001864
11
589.2576594644731
21
251.43603984497088
31
2.0000000000018856
  0
LINE
 8
Group#2
10
591.30004148628
20
159.7492207436208
30
2.0000000000018545
11
592.4371513887828
21
162.49444689215164
31
2.0000000000018234
  0
LINE
 8
Group#2
10
602.1694690134464
20
170.8139591928868
30
2.0000000000018736
11
602.4678136351374
21
170.91241936894895
31
2.0000000000018443
  0
LINE
 8
Group#2
10
604.4943177835796
20
170.3456965541404
30
2.0000000000018154
11
604.6983065125337
21
170.10675614729826
31
2.0000000000018443
  0
LINE
 8
Group#2
10
639.0228405544466
20
266.8724667082335
30
2.000000000001849
11
639.202661314955
21
266.43834098942693
31
2.0000000000018274
  0
LINE
 8
Group#2
10
585.3605451474419
20
244.68603984496772
30
2.000000000001848
11
586.0756789491328
21
243.75405932962664
31
2.0000000000018336
  0
LINE
 8
Group#2
10
641.6615070417652
20
268.8971867162281
30
2.000000000001847
11
641.2273813229497
21
269.0770074767493
31
2.00000000000184
  0
LINE
 8
Group#2
10
593.6043256827725
20
248.1007255479352
30
2.0000000000018647
11
593.1547737815025
21
249.18603984497727
31
2.000000000001915
  0
LINE
 8
Group#2
10
603.0914968741724
20
170.97308883632368
30
2.000000000001859
11
603.4032242475686
21
170.93397407903436
31
2.0000000000018443
  0
LINE
 8
Group#2
10
590.4223451674321
20
242.58937362667498
30
2.0000000000018043
11
591.5076594644723
21
243.0389255279376
31
2.0000000000017746
  0
LINE
 8
Group#2
10
591.7341682682088
20
130.10855399280052
30
2.000000000001887
11
591.4399672587178
21
129.99652696040727
31
2.00000000000193
  0
LINE
 8
Group#2
10
605.8337059759132
20
155.66778425862344
30
2.000000000001795
11
605.6036742128529
21
155.1542447067136
31
2.000000000001839
  0
LINE
 8
Group#2
10
639.8615070417658
20
265.7794952626105
30
2.0000000000018714
11
640.2956327605817
21
265.599674502104
31
2.000000000001864
  0
LINE
 8
Group#2
10
640.7615070417656
20
265.538340989431
30
2.0000000000018785
11
641.2273813229497
21
265.599674502104
31
2.0000000000018634
  0
LINE
 8
Group#2
10
590.4521369113598
20
149.0688564318359
30
2.000000000001846
11
590.2708441381383
21
149.42479683954576
31
2.000000000001875
  0
LINE
 8
Group#2
10
606.17472027589
20
156.73944712952493
30
2.0000000000018234
11
606.0244156142273
21
156.19718705163328
31
2.000000000001838
  0
LINE
 8
Group#2
10
592.3542945963094
20
130.20873515543425
30
2.0000000000019007
11
592.0408256143351
21
130.17972675471825
31
2.0000000000018865
  0
LINE
 8
Group#2
10
578.7538118871793
20
265.53834098943094
30
2.0000000000018945
11
579.2196861683632
21
265.5996745021039
31
2.000000000001894
  0
LINE
 8
Group#2
10
588.0929737615104
20
251.28270606327
30
2.0000000000018647
11
587.0076594644721
21
250.83315416200745
31
2.000000000001793
  0
LINE
 8
Group#2
10
591.4399672587178
20
129.99652696040727
30
2.00000000000193
11
591.1636380004645
21
129.84570776068358
31
2.000000000001887
  0
LINE
 8
Group#2
10
590.9102669392853
20
129.65887255166467
30
2.0000000000019016
11
590.6845179250656
21
129.43946044499975
31
2.000000000001873
  0
LINE
 8
Group#2
10
592.6688051302526
20
130.1950452317341
30
2.000000000001872
11
592.3542945963094
21
130.20873515543425
31
2.0000000000019007
  0
LINE
 8
Group#2
10
593.6043256827725
20
245.77135414200978
30
2.0000000000018154
11
593.7576594644715
21
246.93603984496886
31
2.000000000001801
  0
LINE
 8
Group#2
10
592.4396399798117
20
250.11802036031835
30
2.0000000000019145
11
591.5076594644723
21
250.83315416200745
31
2.0000000000018923
  0
LINE
 8
Group#2
10
605.6036742128529
20
155.1542447067136
30
2.000000000001839
11
605.3356264485078
21
154.65948428042392
31
2.00000000000181
  0
LINE
 8
Group#2
10
625.6919041919816
20
129.72993376696192
30
2.000000000001936
11
625.9540835295062
21
129.9041930133374
31
2.0000000000019353
  0
LINE
 8
Group#2
10
617.0045927273421
20
125.44852375605771
30
2.000000000001883
11
609.7576594644715
21
124.49444689215164
31
2.000000000001885
  0
LINE
 8
Group#2
10
598.8893119960966
20
106.65888696343491
30
2.000000000001957
11
599.761433889537
21
107.13656677222005
31
2.0000000000019273
  0
LINE
 8
Group#2
10
604.8648672275854
20
169.84037024721414
30
2.000000000001859
11
604.9903649127797
21
169.55235245163013
31
2.0000000000018594
  0
LINE
 8
Group#2
10
630.5510387379519
20
116.64434382666172
30
2.000000000002
11
630.7186234821863
21
116.71340534280473
31
2.0000000000019424
  0
LINE
 8
Group#2
10
602.510726201601
20
125.44852375605771
30
2.000000000001858
11
595.7576594644715
21
128.2457355861874
31
2.0000000000018576
  0
LINE
 8
Group#2
10
625.9540835295062
20
129.9041930133374
30
2.0000000000019353
11
626.2374377067051
21
130.04135970111616
31
2.000000000001964
  0
LINE
 8
Group#2
10
606.3583542486947
20
158.974755266857
30
2.0000000000018505
11
606.3758449265954
21
158.41232166226075
31
2.000000000001851
  0
LINE
 8
Group#2
10
595.6155238407406
20
166.63658251588262
30
2.0000000000018203
11
597.6833387942447
21
168.22327273585287
31
2.000000000001862
  0
LINE
 8
Group#2
10
595.7576594644715
20
128.2457355861874
30
2.0000000000018576
11
593.823414736962
21
129.72993376696138
31
2.0000000000019007
  0
LINE
 8
Group#2
10
600.7658178227982
20
150.52864960385747
30
2.0000000000018
11
602.0625608444608
21
151.39794171927227
31
2.000000000001813
  0
LINE
 8
Group#2
10
590.4905463633567
20
129.19151020156303
30
2.0000000000018874
11
588.901327024248
21
126.8483282744458
31
2.000000000001904
  0
LINE
 8
Group#2
10
632.648151533892
20
121.41707101203802
30
2.0000000000019247
11
632.6652490606416
21
121.80335754664846
31
2.000000000001953
  0
LINE
 8
Group#2
10
629.0844619857567
20
116.09281049420748
30
2.0000000000019282
11
630.2001378011429
21
116.55493854815295
31
2.000000000001957
  0
LINE
 8
Group#2
10
626.9291418180632
20
113.28394256507494
30
2.000000000001888
11
627.3912698720067
21
114.39961838045961
31
2.000000000001916
  0
LINE
 8
Group#2
10
627.474493314609
20
130.17972675471864
30
2.0000000000019496
11
627.7811506607354
21
130.10855399280095
31
2.000000000001993
  0
LINE
 8
Group#2
10
593.2778812222386
20
130.04135970111562
30
2.0000000000018865
11
592.9785679602378
21
130.13890897667778
31
2.0000000000019007
  0
LINE
 8
Group#2
10
626.9291418180612
20
110.88940731410607
30
2.000000000001918
11
626.7715185448858
21
112.08667493959064
31
2.000000000001874
  0
LINE
 8
Group#2
10
623.7576594644717
20
128.24573558618732
30
2.000000000001894
11
617.0045927273421
21
125.44852375605771
31
2.000000000001883
  0
LINE
 8
Group#2
10
606.0799459483992
20
162.20533100170746
30
2.000000000001878
11
605.6906352752839
21
165.4244252780648
31
2.0000000000018474
  0
LINE
 8
Group#2
10
627.7811506607354
20
130.10855399280095
30
2.000000000001993
11
628.0753516702263
21
129.9965269604075
31
2.000000000001993
  0
LINE
 8
Group#2
10
628.1264094435458
20
115.35767092266846
30
2.0000000000018714
11
629.0844619857567
21
116.09281049420748
31
2.0000000000019282
  0
LINE
 8
Group#2
10
609.7576594644715
20
124.49444689215164
30
2.000000000001885
11
602.510726201601
21
125.44852375605771
31
2.000000000001858
  0
LINE
 8
Group#2
10
626.5071259200419
20
108.95808472555932
30
2.0000000000019194
11
625.9935034962716
21
108.10663501915542
31
2.0000000000019487
  0
LINE
 8
Group#2
10
602.777408451315
20
170.96585128224217
30
2.000000000001859
11
603.0914968741724
21
170.97308883632368
31
2.000000000001859
  0
LINE
 8
Group#2
10
630.2001378011429
20
116.55493854815295
30
2.000000000001957
11
630.3776970122208
21
116.59136472104642
31
2.000000000002
  0
LINE
 8
Group#2
10
603.2931376608684
20
152.35861437167418
30
2.000000000001798
11
603.9167631271157
21
152.9224895251069
31
2.000000000001783
  0
LINE
 8
Group#2
10
602.0625608444608
20
151.39794171927227
30
2.000000000001813
11
603.2931376608684
21
152.35861437167418
31
2.000000000001798
  0
LINE
 8
Group#2
10
604.6917780448406
20
153.73741525114656
30
2.000000000001768
11
604.3196331854614
21
153.31534216857656
31
2.0000000000017537
  0
LINE
 8
Group#2
10
602.4678136351374
20
170.91241936894895
30
2.0000000000018443
11
602.777408451315
21
170.96585128224217
31
2.000000000001859
  0
LINE
 8
Group#2
10
604.6983065125337
20
170.10675614729826
30
2.0000000000018443
11
604.8648672275854
21
169.84037024721414
31
2.000000000001859
  0
LINE
 8
Group#2
10
592.0408256143351
20
130.17972675471825
30
2.0000000000018865
11
591.7341682682088
21
130.10855399280052
31
2.000000000001887
  0
LINE
 8
Group#2
10
630.613991904695
20
126.84832827444572
30
2.0000000000019362
11
629.0247725655876
21
129.19151020156303
31
2.000000000001993
  0
LINE
 8
Group#2
10
599.4096808541484
20
149.7552779154603
30
2.000000000001786
11
600.7658178227982
21
150.52864960385747
31
2.0000000000018
  0
LINE
 8
Group#2
10
593.823414736962
20
129.72993376696138
30
2.0000000000019007
11
593.5612353994374
21
129.90419301333685
31
2.0000000000019007
  0
LINE
 8
Group#2
10
595.0570582787877
20
148.0484462921381
30
2.0000000000018314
11
596.5478280493237
21
148.51192955764986
31
2.000000000001802
  0
LINE
 8
Group#2
10
630.8789628781301
20
116.79793591491234
30
2.000000000001942
11
631.0306329069483
21
116.89718480340984
31
2.0000000000019855
  0
LINE
 8
Group#2
10
606.3583542486947
20
158.974755266857
30
2.0000000000018505
11
606.0799459483992
21
162.20533100170746
31
2.000000000001878
  0
LINE
 8
Group#2
10
632.5348614302454
20
120.65254451904704
30
2.0000000000019535
11
632.6046207584617
21
121.03286444801468
31
2.000000000001968
  0
LINE
 8
Group#2
10
626.8240258524261
20
109.90060742003367
30
2.0000000000019043
11
626.5071259200419
21
108.95808472555932
31
2.0000000000019194
  0
LINE
 8
Group#2
10
622.5732439205859
20
106.31775286547082
30
2.0000000000019655
11
621.5809214740765
21
106.38155536463154
31
2.0000000000020086
  0
LINE
 8
Group#2
10
616.8287272763376
20
110.66478399691488
30
2.000000000001993
11
618.4179135023168
21
108.59371618504157
31
2.000000000001994
  0
LINE
 8
Group#2
10
609.7576594644715
20
113.59371618504396
30
2.000000000002022
11
612.3458499154974
21
113.25297444793308
31
2.0000000000019638
  0
LINE
 8
Group#2
10
597.6833387942447
20
168.22327273585287
30
2.000000000001862
11
599.7576594644715
21
169.81495496784044
31
2.0000000000018026
  0
LINE
 8
Group#2
10
593.5612353994374
20
129.90419301333685
30
2.0000000000019007
11
593.2778812222386
21
130.04135970111562
31
2.0000000000018865
  0
LINE
 8
Group#2
10
605.0310846617091
20
154.18631223614616
30
2.000000000001825
11
604.6917780448406
21
153.73741525114656
31
2.000000000001768
  0
LINE
 8
Group#2
10
628.3516809284797
20
129.84570776068395
30
2.000000000001993
11
628.6050519896588
21
129.65887255166467
31
2.0000000000019784
  0
LINE
 8
Group#2
10
626.2374377067051
20
130.04135970111616
30
2.000000000001964
11
626.5367509687059
21
130.1389089766783
31
2.000000000001964
  0
LINE
 8
Group#2
10
606.3758449265954
20
158.41232166226075
30
2.000000000001851
11
606.3509352074564
21
157.8501677782709
31
2.000000000001822
  0
LINE
 8
Group#2
10
632.5577613382195
20
122.956534873944
30
2.000000000001981
11
632.4695670205716
21
123.33300714992303
31
2.000000000001967
  0
LINE
 8
Group#2
10
625.3075697932579
20
107.38672561385984
30
2.000000000001993
11
624.4819255549924
21
106.83257203536922
31
2.000000000001979
  0
LINE
 8
Group#2
10
591.1636380004645
20
129.84570776068358
30
2.000000000001887
11
590.9102669392853
21
129.65887255166467
31
2.0000000000019016
  0
LINE
 8
Group#2
10
625.6919041919816
20
129.72993376696192
30
2.000000000001936
11
623.7576594644717
21
128.24573558618732
31
2.000000000001894
  0
LINE
 8
Group#2
10
632.6046207584617
20
121.03286444801468
30
2.000000000001968
11
632.648151533892
21
121.41707101203802
31
2.0000000000019247
  0
LINE
 8
Group#2
10
628.8308010038785
20
129.43946044499984
30
2.0000000000020073
11
629.0247725655876
21
129.19151020156303
31
2.000000000001993
  0
LINE
 8
Group#2
10
632.6558329405708
20
122.18990760669814
30
2.0000000000019384
11
632.6199474513433
21
122.5749035078564
31
2.0000000000019384
  0
LINE
 8
Group#2
10
619.7538850394059
20
107.13656677221995
30
2.0000000000019655
11
619.0060056050846
21
107.79189184305197
31
2.0000000000019944
  0
LINE
 8
Group#2
10
606.2837665289996
20
157.29148553224277
30
2.000000000001852
11
606.17472027589
21
156.73944712952493
31
2.0000000000018234
  0
LINE
 8
Group#2
10
606.3509352074564
20
157.8501677782709
30
2.000000000001822
11
606.2837665289996
21
157.29148553224277
31
2.000000000001852
  0
LINE
 8
Group#2
10
627.3912698720067
20
114.39961838045961
30
2.000000000001916
11
628.1264094435458
21
115.35767092266846
31
2.0000000000018714
  0
LINE
 8
Group#2
10
632.6652490606416
20
121.80335754664846
30
2.000000000001953
11
632.6558329405708
21
122.18990760669814
31
2.0000000000019384
  0
LINE
 8
Group#2
10
631.5250794009609
20
117.42194557743522
30
2.000000000001956
11
631.6151385760442
21
117.5792461956574
31
2.0000000000019846
  0
LINE
 8
Group#2
10
592.9785679602378
20
130.13890897667778
30
2.0000000000019007
11
592.6688051302526
21
130.1950452317341
31
2.000000000001872
  0
LINE
 8
Group#2
10
626.8465137986911
20
130.19504523173472
30
2.0000000000019638
11
627.1610243326346
21
130.20873515543488
31
2.0000000000019638
  0
LINE
 8
Group#2
10
588.901327024248
20
126.8483282744458
30
2.000000000001904
11
587.6485272726324
21
124.75243704598563
31
2.0000000000019633
  0
LINE
 8
Group#2
10
594.2077491356868
20
107.38672561385984
30
2.000000000001972
11
595.0333933739524
21
106.83257203536922
31
2.0000000000019575
  0
LINE
 8
Group#2
10
592.7438003840589
20
112.08667493959055
30
2.0000000000019695
11
592.5861771108816
21
113.28394256507508
31
2.0000000000019833
  0
LINE
 8
Group#2
10
631.7489695024102
20
117.91571915806396
30
2.0000000000019846
11
632.4392015803295
21
120.27789961335142
31
2.000000000001954
  0
LINE
 8
Group#2
10
631.4206125179427
20
117.27382127199057
30
2.000000000001956
11
631.5250794009609
21
117.42194557743522
31
2.000000000001956
  0
LINE
 8
Group#2
10
631.0306329069483
20
116.89718480340984
30
2.0000000000019855
11
631.1722865448671
21
117.01027055129931
31
2.0000000000019997
  0
LINE
 8
Group#2
10
621.5809214740765
20
106.38155536463154
30
2.0000000000020086
11
620.6260069328463
21
106.65888696343491
31
2.0000000000019797
  0
LINE
 8
Group#2
10
602.6865916526071
20
110.66478399691488
30
2.0000000000019678
11
604.7576594644728
21
112.25397022289219
31
2.0000000000020526
  0
LINE
 8
Group#2
10
632.0536812531561
20
124.41393757651088
30
2.000000000001923
11
631.8667916563126
21
124.75243704598559
31
2.000000000001937
  0
LINE
 8
Group#2
10
631.1722865448671
20
117.01027055129931
30
2.0000000000019997
11
631.3026657264741
21
117.13618881254912
31
2.000000000001942
  0
LINE
 8
Group#2
10
624.4819255549924
20
106.83257203536922
30
2.000000000001979
11
623.5558116240189
21
106.4705118420294
31
2.0000000000019504
  0
LINE
 8
Group#2
10
632.4392015803295
20
120.27789961335142
30
2.000000000001954
11
632.5348614302454
21
120.65254451904704
31
2.0000000000019535
  0
LINE
 8
Group#2
10
600.5093133238582
20
107.79189184305189
30
2.00000000000197
11
601.0974054266279
21
108.59371618504157
31
2.000000000001984
  0
LINE
 8
Group#2
10
623.5558116240189
20
106.4705118420294
30
2.0000000000019504
11
622.5732439205859
21
106.31775286547082
31
2.0000000000019655
  0
LINE
 8
Group#2
10
631.8667916563126
20
124.75243704598559
30
2.000000000001937
11
630.613991904695
21
126.84832827444572
31
2.0000000000019362
  0
LINE
 8
Group#2
10
632.4695670205716
20
123.33300714992303
30
2.000000000001967
11
632.355779216818
21
123.70255004048414
31
2.000000000001981
  0
LINE
 8
Group#2
10
632.2169329942852
20
124.06342583453691
30
2.000000000001923
11
632.0536812531561
21
124.41393757651088
31
2.000000000001923
  0
LINE
 8
Group#2
10
586.8500698683031
20
121.8033575466486
30
2.000000000002008
11
586.8671673950508
21
121.41707101203811
31
2.0000000000019367
  0
LINE
 8
Group#2
10
625.9935034962716
20
108.10663501915542
30
2.0000000000019487
11
625.3075697932579
21
107.38672561385984
31
2.000000000001993
  0
LINE
 8
Group#2
10
626.9291418180612
20
110.88940731410607
30
2.000000000001918
11
626.8240258524261
21
109.90060742003367
31
2.0000000000019043
  0
LINE
 8
Group#2
10
627.0270200753505
20
175.84334182744075
30
2.000000000001922
11
627.1456227995543
21
176.00885173738374
31
2.000000000001936
  0
LINE
 8
Group#2
10
626.1499490041223
20
175.37453757285016
30
2.0000000000018785
11
626.3500756014763
21
175.41208063491857
31
2.000000000001908
  0
LINE
 8
Group#2
10
592.1240490569381
20
114.3996183804594
30
2.000000000001968
11
591.388909485399
21
115.35767092266846
31
2.0000000000019678
  0
LINE
 8
Group#2
10
601.0974054266279
20
108.59371618504157
30
2.000000000001984
11
602.6865916526071
21
110.66478399691488
31
2.0000000000019678
  0
LINE
 8
Group#2
10
631.6899902025772
20
117.74432609606014
30
2.0000000000019704
11
631.7489695024102
21
117.91571915806396
31
2.0000000000019846
  0
LINE
 8
Group#2
10
630.3776970122208
20
116.59136472104642
30
2.000000000002
11
630.5510387379519
21
116.64434382666172
31
2.000000000002
  0
LINE
 8
Group#2
10
631.6151385760442
20
117.5792461956574
30
2.0000000000019846
11
631.6899902025772
21
117.74432609606014
31
2.0000000000019704
  0
LINE
 8
Group#2
10
630.7186234821863
20
116.71340534280473
30
2.0000000000019424
11
630.8789628781301
21
116.79793591491234
31
2.000000000001942
  0
LINE
 8
Group#2
10
587.4616376757871
20
124.41393757651097
30
2.0000000000019633
11
587.2983859346598
21
124.06342583453701
31
2.000000000001949
  0
LINE
 8
Group#2
10
625.9464404003471
20
175.3678753909728
30
2.0000000000018936
11
626.1499490041223
21
175.37453757285016
31
2.0000000000018785
  0
LINE
 8
Group#2
10
587.9902395279821
20
117.42194557743527
30
2.0000000000019384
11
588.0947064110021
21
117.27382127199063
31
2.000000000001996
  0
LINE
 8
Group#2
10
626.7715185448858
20
112.08667493959064
30
2.000000000001874
11
626.9291418180632
21
113.28394256507494
31
2.000000000001888
  0
LINE
 8
Group#2
10
586.8594859883741
20
122.18990760669814
30
2.0000000000019216
11
586.8500698683031
21
121.8033575466486
31
2.000000000002008
  0
LINE
 8
Group#2
10
593.008193008901
20
108.95808472555932
30
2.000000000001942
11
593.5218154326732
21
108.10663501915536
31
2.0000000000019718
  0
LINE
 8
Group#2
10
595.0333933739524
20
106.83257203536922
30
2.0000000000019575
11
595.9595073049259
21
106.4705118420294
31
2.000000000001943
  0
LINE
 8
Group#2
10
614.7576594644721
20
112.25397022289219
30
2.0000000000020357
11
616.8287272763376
21
110.66478399691488
31
2.000000000001993
  0
LINE
 8
Group#2
10
588.3430323840757
20
117.01027055129931
30
2.000000000001996
11
588.4846860219965
21
116.89718480340984
31
2.0000000000019678
  0
LINE
 8
Group#2
10
593.5218154326732
20
108.10663501915536
30
2.0000000000019718
11
594.2077491356868
21
107.38672561385984
31
2.000000000001972
  0
LINE
 8
Group#2
10
607.1694690134476
20
113.25297444793304
30
2.0000000000019935
11
609.7576594644715
21
113.59371618504396
31
2.000000000002022
  0
LINE
 8
Group#2
10
586.9106981704813
20
121.03286444801464
30
2.0000000000019513
11
586.9804574986994
21
120.65254451904704
31
2.0000000000019367
  0
LINE
 8
Group#2
10
632.355779216818
20
123.70255004048414
30
2.000000000001981
11
632.2169329942852
21
124.06342583453691
31
2.000000000001923
  0
LINE
 8
Group#2
10
632.6199474513433
20
122.5749035078564
30
2.0000000000019384
11
632.5577613382195
21
122.956534873944
31
2.000000000001981
  0
LINE
 8
Group#2
10
627.4275324455497
20
176.6488527660699
30
2.000000000001921
11
627.2376672392455
21
176.19047760998959
31
2.0000000000019362
  0
LINE
 8
Group#2
10
590.4308569431863
20
116.09281049420748
30
2.000000000001939
11
589.3151811278019
21
116.55493854815286
31
2.0000000000019678
  0
LINE
 8
Group#2
10
619.0060056050846
20
107.79189184305197
30
2.0000000000019944
11
618.4179135023168
21
108.59371618504157
31
2.000000000001994
  0
LINE
 8
Group#2
10
628.0753516702263
20
129.9965269604075
30
2.000000000001993
11
628.3516809284797
21
129.84570776068395
31
2.000000000001993
  0
LINE
 8
Group#2
10
604.7576594644728
20
112.25397022289219
30
2.0000000000020526
11
607.1694690134476
21
113.25297444793304
31
2.0000000000019935
  0
LINE
 8
Group#2
10
631.3026657264741
20
117.13618881254912
30
2.000000000001942
11
631.4206125179427
21
117.27382127199057
31
2.000000000001956
  0
LINE
 8
Group#2
10
599.761433889537
20
107.13656677222005
30
2.0000000000019273
11
600.5093133238582
21
107.79189184305189
31
2.00000000000197
  0
LINE
 8
Group#2
10
587.7663494265328
20
117.91571915806405
30
2.000000000001996
11
587.0761173486153
21
120.27789961335142
31
2.0000000000019518
  0
LINE
 8
Group#2
10
586.9804574986994
20
120.65254451904704
30
2.0000000000019367
11
587.0761173486153
21
120.27789961335142
31
2.0000000000019518
  0
LINE
 8
Group#2
10
586.9575575907236
20
122.956534873944
30
2.000000000001979
11
587.0457519083714
21
123.33300714992303
31
2.000000000001964
  0
LINE
 8
Group#2
10
627.1610243326346
20
130.20873515543488
30
2.0000000000019638
11
627.474493314609
21
130.17972675471864
31
2.0000000000019496
  0
LINE
 8
Group#2
10
620.6260069328463
20
106.65888696343491
30
2.0000000000019797
11
619.7538850394059
21
107.13656677221995
31
2.0000000000019655
  0
LINE
 8
Group#2
10
628.6050519896588
20
129.65887255166467
30
2.0000000000019784
11
628.8308010038785
21
129.43946044499984
31
2.0000000000020073
  0
LINE
 8
Group#2
10
627.1456227995543
20
176.00885173738374
30
2.000000000001936
11
627.2376672392455
21
176.19047760998959
31
2.0000000000019362
  0
LINE
 8
Group#2
10
625.74428685566
20
175.3922491647546
30
2.0000000000018936
11
625.9464404003471
21
175.3678753909728
31
2.0000000000018936
  0
LINE
 8
Group#2
10
625.5481938938885
20
175.44709154637326
30
2.000000000001879
11
625.74428685566
21
175.3922491647546
31
2.0000000000018936
  0
LINE
 8
Group#2
10
626.3500756014763
20
175.41208063491857
30
2.000000000001908
11
626.542161849792
21
175.4796306881081
31
2.0000000000018936
  0
LINE
 8
Group#2
10
592.6912930765186
20
109.90060742003357
30
2.0000000000019567
11
593.008193008901
21
108.95808472555932
31
2.000000000001942
  0
LINE
 8
Group#2
10
588.0947064110021
20
117.27382127199063
30
2.000000000001996
11
588.2126532024688
21
117.13618881254912
31
2.000000000001953
  0
LINE
 8
Group#2
10
625.3627259667986
20
175.53112597086027
30
2.000000000001879
11
625.5481938938885
21
175.44709154637326
31
2.000000000001879
  0
LINE
 8
Group#2
10
612.3458499154974
20
113.25297444793308
30
2.0000000000019638
11
614.7576594644721
21
112.25397022289219
31
2.0000000000020357
  0
LINE
 8
Group#2
10
587.8253287263676
20
117.74432609606014
30
2.000000000001982
11
587.7663494265328
21
117.91571915806405
31
2.000000000001996
  0
LINE
 8
Group#2
10
587.6485272726324
20
124.75243704598563
30
2.0000000000019633
11
587.4616376757871
21
124.41393757651097
31
2.0000000000019633
  0
LINE
 8
Group#2
10
626.7217365614888
20
175.57561537124505
30
2.0000000000019367
11
626.8846197797623
21
175.6978004508694
31
2.0000000000019074
  0
LINE
 8
Group#2
10
587.8253287263676
20
117.74432609606014
30
2.000000000001982
11
587.9001803528987
21
117.5792461956574
31
2.0000000000019673
  0
LINE
 8
Group#2
10
609.7576594644715
20
180.4944468921517
30
2.0000000000018225
11
617.0045927273421
21
179.5403700282457
31
2.000000000001821
  0
LINE
 8
Group#2
10
626.542161849792
20
175.4796306881081
30
2.0000000000018936
11
626.7217365614888
21
175.57561537124505
31
2.0000000000019367
  0
LINE
 8
Group#2
10
591.388909485399
20
115.35767092266846
30
2.0000000000019678
11
590.4308569431863
21
116.09281049420748
31
2.000000000001939
  0
LINE
 8
Group#2
10
589.1376219167221
20
116.59136472104642
30
2.0000000000019966
11
589.3151811278019
21
116.55493854815286
31
2.0000000000019678
  0
LINE
 8
Group#2
10
592.5861771108816
20
110.88940731410607
30
2.0000000000019416
11
592.7438003840589
21
112.08667493959055
31
2.0000000000019695
  0
LINE
 8
Group#2
10
617.0045927273421
20
179.5403700282457
30
2.000000000001821
11
623.7576594644715
21
176.74315819811602
31
2.000000000001821
  0
LINE
 8
Group#2
10
625.1922002074461
20
175.64239637067627
30
2.0000000000018647
11
625.3627259667986
21
175.53112597086027
31
2.000000000001879
  0
LINE
 8
Group#2
10
595.9595073049259
20
106.4705118420294
30
2.000000000001943
11
596.9420750083588
21
106.31775286547082
31
2.0000000000019433
  0
LINE
 8
Group#2
10
587.2983859346598
20
124.06342583453701
30
2.000000000001949
11
587.159539712127
21
123.70255004048423
31
2.0000000000019496
  0
LINE
 8
Group#2
10
626.8846197797623
20
175.6978004508694
30
2.0000000000019074
11
627.0270200753505
21
175.84334182744075
31
2.000000000001922
  0
LINE
 8
Group#2
10
593.9671250350548
20
175.4470915463736
30
2.000000000001829
11
593.7710320732832
21
175.39224916475482
31
2.0000000000018443
  0
LINE
 8
Group#2
10
586.9575575907236
20
122.956534873944
30
2.000000000001979
11
586.8953714776019
21
122.5749035078564
31
2.0000000000019935
  0
LINE
 8
Group#2
10
597.9343974548663
20
106.38155536463154
30
2.0000000000020006
11
598.8893119960966
21
106.65888696343491
31
2.000000000001957
  0
LINE
 8
Group#2
10
588.7966954467583
20
116.71340534280473
30
2.0000000000019247
11
588.9642801909911
21
116.64434382666172
31
2.0000000000019966
  0
LINE
 8
Group#2
10
588.4846860219965
20
116.89718480340984
30
2.0000000000019678
11
588.6363560508147
21
116.79793591491234
31
2.0000000000019535
  0
LINE
 8
Group#2
10
630.0794066421254
20
194.31615643173905
30
2.0000000000018665
11
630.2600896370096
21
193.89645521298442
31
2.0000000000018234
  0
LINE
 8
Group#2
10
592.4882988535925
20
175.84334182744126
30
2.000000000001902
11
592.3696961293886
21
176.0088517373842
31
2.0000000000019162
  0
LINE
 8
Group#2
10
593.1652433274669
20
175.41208063491882
30
2.000000000001873
11
592.9731570791512
21
175.47963068810847
31
2.000000000001873
  0
LINE
 8
Group#2
10
590.9242506442533
20
178.10191720299548
30
2.0000000000018865
11
590.7597844712872
21
178.32694478490444
31
2.0000000000019296
  0
LINE
 8
Group#2
10
589.0299916335482
20
192.5509614640049
30
2.000000000001835
11
589.0641372129224
21
192.09529762182072
31
2.0000000000018208
  0
LINE
 8
Group#2
10
587.159539712127
20
123.70255004048423
30
2.0000000000019496
11
587.0457519083714
21
123.33300714992303
31
2.000000000001964
  0
LINE
 8
Group#2
10
623.7576594644715
20
176.74315819811602
30
2.000000000001821
11
625.1922002074461
21
175.64239637067627
31
2.0000000000018647
  0
LINE
 8
Group#2
10
607.1120773563609
20
200.19145823444475
30
2.0000000000019553
11
604.4772360555116
21
199.93881787818944
31
2.0000000000018843
  0
LINE
 8
Group#2
10
609.7576594644715
20
200.2757858071274
30
2.000000000001897
11
607.1120773563609
21
200.19145823444475
31
2.0000000000019553
  0
LINE
 8
Group#2
10
595.7576594644715
20
176.74315819811608
30
2.0000000000017994
11
602.510726201601
21
179.5403700282457
31
2.0000000000017817
  0
LINE
 8
Group#2
10
591.1022794578088
20
177.88745910403048
30
2.000000000001901
11
590.9242506442533
21
178.10191720299548
31
2.0000000000018865
  0
LINE
 8
Group#2
10
588.2126532024688
20
117.13618881254912
30
2.000000000001953
11
588.3430323840757
21
117.01027055129931
31
2.000000000001996
  0
LINE
 8
Group#2
10
594.2576594644719
20
197.27578580713342
30
2.000000000001874
11
591.8458499154971
21
196.27678158208505
31
2.0000000000019185
  0
LINE
 8
Group#2
10
628.5159017199743
20
195.93661405769916
30
2.0000000000018514
11
628.9024094473489
21
195.69287806457402
31
2.0000000000018368
  0
LINE
 8
Group#2
10
596.7436507453543
20
198.18466598715378
30
2.0000000000019162
11
594.2576594644719
21
197.27578580713342
31
2.000000000001874
  0
LINE
 8
Group#2
10
628.9024094473489
20
195.69287806457402
30
2.0000000000018368
11
629.256864389484
21
195.40450824705118
31
2.0000000000018225
  0
LINE
 8
Group#2
10
590.4739897478523
20
178.80524579426614
30
2.0000000000019007
11
590.353748874122
21
179.0566989051193
31
2.000000000001915
  0
LINE
 8
Group#2
10
590.353748874122
20
179.0566989051193
30
2.000000000001915
11
590.2492418549633
21
179.31508779345708
31
2.000000000001915
  0
LINE
 8
Group#2
10
590.6095068637902
20
178.56168544043283
30
2.0000000000019154
11
590.4739897478523
21
178.80524579426614
31
2.0000000000019007
  0
LINE
 8
Group#2
10
594.3231187214974
20
175.64239637067658
30
2.000000000001815
11
595.7576594644715
21
176.74315819811608
31
2.0000000000017994
  0
LINE
 8
Group#2
10
587.9902395279821
20
117.42194557743527
30
2.0000000000019384
11
587.9001803528987
21
117.5792461956574
31
2.0000000000019673
  0
LINE
 8
Group#2
10
592.0877864833934
20
176.6488527660699
30
2.000000000001901
11
592.2776516896972
21
176.1904776099901
31
2.000000000001902
  0
LINE
 8
Group#2
10
586.8671673950508
20
121.41707101203811
30
2.0000000000019367
11
586.9106981704813
21
121.03286444801464
31
2.0000000000019513
  0
LINE
 8
Group#2
10
586.8953714776019
20
122.5749035078564
30
2.0000000000019935
11
586.8594859883741
21
122.18990760669814
31
2.0000000000019216
  0
LINE
 8
Group#2
10
591.4123881219598
20
196.13219136386405
30
2.000000000001933
11
590.9994172089708
21
195.93661405769916
31
2.0000000000019194
  0
LINE
 8
Group#2
10
599.2824776418609
20
198.93338076586528
30
2.0000000000018714
11
596.7436507453543
21
198.18466598715378
31
2.0000000000019162
  0
LINE
 8
Group#2
10
594.1525929621449
20
175.53112597086064
30
2.0000000000018296
11
593.9671250350548
21
175.4470915463736
31
2.000000000001829
  0
LINE
 8
Group#2
10
593.7710320732832
20
175.39224916475482
30
2.0000000000018443
11
593.5688785285961
21
175.36787539097315
31
2.0000000000018585
  0
LINE
 8
Group#2
10
592.5861771108816
20
113.28394256507508
30
2.0000000000019833
11
592.1240490569381
21
114.3996183804594
31
2.000000000001968
  0
LINE
 8
Group#2
10
612.4032415725841
20
200.19145823444475
30
2.000000000001853
11
609.7576594644715
21
200.2757858071274
31
2.000000000001897
  0
LINE
 8
Group#2
10
617.6514861663954
20
199.5188904337359
30
2.0000000000018665
11
615.0380828734333
21
199.9388178781895
31
2.0000000000019105
  0
LINE
 8
Group#2
10
630.4645282393084
20
193.00742926891195
30
2.000000000001824
11
630.4853272953968
21
192.55096146400496
31
2.0000000000018674
  0
LINE
 8
Group#2
10
589.1376219167221
20
116.59136472104642
30
2.0000000000019966
11
588.9642801909911
21
116.64434382666172
31
2.0000000000019966
  0
LINE
 8
Group#2
10
593.5688785285961
20
175.36787539097315
30
2.0000000000018585
11
593.3653699248209
21
175.37453757285047
31
2.0000000000018585
  0
LINE
 8
Group#2
10
588.6363560508147
20
116.79793591491234
30
2.0000000000019535
11
588.7966954467583
21
116.71340534280473
31
2.0000000000019247
  0
LINE
 8
Group#2
10
602.510726201601
20
179.5403700282457
30
2.0000000000017817
11
609.7576594644715
21
180.4944468921517
31
2.0000000000018225
  0
LINE
 8
Group#2
10
630.3890853396605
20
193.45809968791684
30
2.000000000001838
11
630.4645282393084
21
193.00742926891195
31
2.000000000001824
  0
LINE
 8
Group#2
10
629.256864389484
20
195.40450824705118
30
2.0000000000018225
11
629.574140487912
21
195.07567495339057
31
2.000000000001852
  0
LINE
 8
Group#2
10
630.4853272953968
20
192.55096146400496
30
2.0000000000018674
11
630.4511817160208
21
192.09529762182078
31
2.000000000001839
  0
LINE
 8
Group#2
10
630.4511817160208
20
192.09529762182078
30
2.000000000001839
11
629.8584029265681
21
187.72977517030415
31
2.000000000001914
  0
LINE
 8
Group#2
10
589.2552292919353
20
193.89645521298442
30
2.000000000001892
11
589.1262335892825
21
193.4580996879168
31
2.000000000001863
  0
LINE
 8
Group#2
10
594.3231187214974
20
175.64239637067658
30
2.000000000001815
11
594.1525929621449
21
175.53112597086064
31
2.0000000000018296
  0
LINE
 8
Group#2
10
592.5861771108816
20
110.88940731410607
30
2.0000000000019416
11
592.6912930765186
21
109.90060742003357
31
2.0000000000019567
  0
LINE
 8
Group#2
10
629.8584029265681
20
187.72977517030415
30
2.000000000001914
11
629.5408576945601
21
180.6759387616674
31
2.000000000001947
  0
LINE
 8
Group#2
10
596.9420750083588
20
106.31775286547082
30
2.0000000000019433
11
597.9343974548663
21
106.38155536463154
31
2.0000000000020006
  0
LINE
 8
Group#2
10
592.9731570791512
20
175.47963068810847
30
2.000000000001873
11
592.7935823674543
21
175.5756153712453
31
2.000000000001859
  0
LINE
 8
Group#2
10
625.2576594644713
20
197.27578580713333
30
2.000000000001851
11
627.669469013448
21
196.27678158208502
31
2.0000000000018656
  0
LINE
 8
Group#2
10
616.4238220547708
20
170.9730888363236
30
2.000000000001812
11
616.1120946813746
21
170.93397407903424
31
2.000000000001812
  0
LINE
 8
Group#2
10
629.3758064205521
20
149.80204032390458
30
2.0000000000018647
11
629.4547488643165
21
150.1936124552363
31
2.000000000001836
  0
LINE
 8
Group#2
10
589.656916002375
20
187.72977517030407
30
2.0000000000018665
11
589.9744612343829
21
180.6759387616674
31
2.0000000000019287
  0
LINE
 8
Group#2
10
629.8496493573634
20
194.7111337067268
30
2.000000000001852
11
630.0794066421254
21
194.31615643173905
31
2.0000000000018665
  0
LINE
 8
Group#2
10
629.4263600120686
20
179.84871674623355
30
2.000000000001933
11
629.4815259266571
21
180.12192592715644
31
2.0000000000019185
  0
LINE
 8
Group#2
10
629.4815259266571
20
180.12192592715644
30
2.0000000000019185
11
629.5197402995387
21
180.39801684764345
31
2.0000000000019473
  0
LINE
 8
Group#2
10
629.3544525060489
20
179.5794290835991
30
2.00000000000189
11
629.4263600120686
21
179.84871674623355
31
2.000000000001933
  0
LINE
 8
Group#2
10
616.737910477628
20
170.96585128224206
30
2.0000000000018265
11
616.4238220547708
21
170.9730888363236
31
2.000000000001812
  0
LINE
 8
Group#2
10
614.8170124164093
20
170.10675614729817
30
2.0000000000018274
11
614.6504517013578
21
169.8403702472139
31
2.000000000001842
  0
LINE
 8
Group#2
10
590.033793002286
20
180.1219259271565
30
2.0000000000019003
11
589.9955786294062
21
180.3980168476434
31
2.0000000000019282
  0
LINE
 8
Group#2
10
591.8458499154971
20
196.27678158208505
30
2.0000000000019185
11
591.4123881219598
21
196.13219136386405
31
2.000000000001933
  0
LINE
 8
Group#2
10
628.5910682846898
20
178.10191720299548
30
2.0000000000018914
11
628.7555344576579
21
178.3269447849044
31
2.000000000001934
  0
LINE
 8
Group#2
10
613.8246836536592
20
165.4244252780648
30
2.0000000000018163
11
614.3244364063518
21
168.62823206787817
31
2.000000000001814
  0
LINE
 8
Group#2
10
589.4359122868177
20
194.3161564317391
30
2.000000000001892
11
589.2552292919353
21
193.89645521298442
31
2.000000000001892
  0
LINE
 8
Group#2
10
628.8352798186764
20
148.7407996818723
30
2.000000000001851
11
629.063182017583
21
149.06885643183597
31
2.000000000001851
  0
LINE
 8
Group#2
10
629.2660770739798
20
179.31508779345708
30
2.0000000000019336
11
629.3544525060489
21
179.5794290835991
31
2.00000000000189
  0
LINE
 8
Group#2
10
615.2579660444334
20
170.55197683960392
30
2.000000000001784
11
615.0210011453634
21
170.34569655414037
31
2.000000000001841
  0
LINE
 8
Group#2
10
589.0507906896365
20
193.00742926891195
30
2.0000000000018057
11
589.0299916335482
21
192.5509614640049
31
2.000000000001835
  0
LINE
 8
Group#2
10
592.3696961293886
20
176.0088517373842
30
2.0000000000019162
11
592.2776516896972
21
176.1904776099901
31
2.000000000001902
  0
LINE
 8
Group#2
10
591.2931933704047
20
177.68438667201025
30
2.000000000001901
11
591.1022794578088
21
177.88745910403048
31
2.000000000001901
  0
LINE
 8
Group#2
10
622.7716681835888
20
198.18466598715378
30
2.0000000000018514
11
620.232841287084
21
198.93338076586528
31
2.000000000001823
  0
LINE
 8
Group#2
10
589.1262335892825
20
193.4580996879168
30
2.000000000001863
11
589.0507906896365
21
193.00742926891195
31
2.0000000000018057
  0
LINE
 8
Group#2
10
630.2600896370096
20
193.89645521298442
30
2.0000000000018234
11
630.3890853396605
21
193.45809968791684
31
2.000000000001838
  0
LINE
 8
Group#2
10
590.612909481596
20
195.692878064574
30
2.0000000000018905
11
590.2584545394592
21
195.40450824705113
31
2.000000000001905
  0
LINE
 8
Group#2
10
590.2492418549633
20
179.31508779345708
30
2.000000000001915
11
590.1608664228943
21
179.57942908359905
31
2.0000000000019003
  0
LINE
 8
Group#2
10
616.1120946813746
20
170.93397407903424
30
2.000000000001812
11
615.8095314861102
21
170.84936064964182
31
2.000000000001827
  0
LINE
 8
Group#2
10
613.9116447160903
20
155.1542447067135
30
2.000000000001822
11
614.1796924804354
21
154.65948428042378
31
2.0000000000017937
  0
LINE
 8
Group#2
10
592.6306991491808
20
175.69780045086972
30
2.0000000000018874
11
592.4882988535925
21
175.84334182744126
31
2.000000000001902
  0
LINE
 8
Group#2
10
589.9955786294062
20
180.3980168476434
30
2.0000000000019282
11
589.9744612343829
21
180.6759387616674
31
2.0000000000019287
  0
LINE
 8
Group#2
10
628.2221255585384
20
177.68438667201025
30
2.0000000000019056
11
628.4130394711361
21
177.88745910403048
31
2.0000000000019202
  0
LINE
 8
Group#2
10
627.669469013448
20
196.27678158208502
30
2.0000000000018656
11
628.1029308069851
21
196.13219136386405
31
2.0000000000018514
  0
LINE
 8
Group#2
10
625.2576594644713
20
197.27578580713333
30
2.000000000001851
11
622.7716681835888
21
198.18466598715378
31
2.0000000000018514
  0
LINE
 8
Group#2
10
590.0889589168744
20
179.84871674623355
30
2.0000000000019145
11
590.033793002286
21
180.1219259271565
31
2.0000000000019003
  0
LINE
 8
Group#2
10
629.1615700548231
20
179.0566989051193
30
2.0000000000019194
11
629.2660770739798
21
179.31508779345708
31
2.0000000000019336
  0
LINE
 8
Group#2
10
622.9674908796195
20
148.51192955764986
30
2.000000000001809
11
624.4582606501552
21
148.04844629213804
31
2.000000000001795
  0
LINE
 8
Group#2
10
589.6656695715815
20
194.71113370672677
30
2.0000000000018767
11
589.4359122868177
21
194.3161564317391
31
2.000000000001892
  0
LINE
 8
Group#2
10
620.232841287084
20
198.93338076586528
30
2.000000000001823
11
617.6514861663954
21
199.5188904337359
31
2.0000000000018665
  0
LINE
 8
Group#2
10
590.2584545394592
20
195.40450824705113
30
2.000000000001905
11
589.9411784410331
21
195.07567495339046
31
2.0000000000018767
  0
LINE
 8
Group#2
10
591.2931933704047
20
177.68438667201025
30
2.000000000001901
11
592.0877864833934
21
176.6488527660699
31
2.000000000001901
  0
LINE
 8
Group#2
10
629.574140487912
20
195.07567495339057
30
2.000000000001852
11
629.8496493573634
21
194.7111337067268
31
2.000000000001852
  0
LINE
 8
Group#2
10
628.1029308069851
20
196.13219136386405
30
2.0000000000018514
11
628.5159017199743
21
195.93661405769916
31
2.0000000000018514
  0
LINE
 8
Group#2
10
617.0475052938057
20
170.91241936894883
30
2.000000000001812
11
616.737910477628
21
170.96585128224206
31
2.0000000000018265
  0
LINE
 8
Group#2
10
589.9411784410331
20
195.07567495339046
30
2.0000000000018767
11
589.6656695715815
21
194.71113370672677
31
2.0000000000018767
  0
LINE
 8
Group#2
10
614.3244364063518
20
168.62823206787817
30
2.000000000001814
11
614.4432582184727
21
169.24898845211476
31
2.0000000000018425
  0
LINE
 8
Group#2
10
590.7597844712872
20
178.32694478490444
30
2.0000000000019296
11
590.6095068637902
21
178.56168544043283
31
2.0000000000019154
  0
LINE
 8
Group#2
10
590.9994172089708
20
195.93661405769916
30
2.0000000000019194
11
590.612909481596
21
195.692878064574
31
2.0000000000018905
  0
LINE
 8
Group#2
10
615.0380828734333
20
199.9388178781895
30
2.0000000000019105
11
612.4032415725841
21
200.19145823444475
31
2.000000000001853
  0
LINE
 8
Group#2
10
615.1956857434818
20
153.31534216857645
30
2.000000000001794
11
615.5985558018275
21
152.9224895251068
31
2.0000000000017657
  0
LINE
 8
Group#2
10
625.9786102924332
20
147.69383634955557
30
2.000000000001809
11
626.3749457287305
21
147.644048144143
31
2.000000000001838
  0
LINE
 8
Group#2
10
629.7576594644715
20
152.49444689215173
30
2.000000000001834
11
629.4547488643165
21
150.1936124552363
31
2.000000000001836
  0
LINE
 8
Group#2
10
592.7935823674543
20
175.5756153712453
30
2.000000000001859
11
592.6306991491808
21
175.69780045086972
31
2.0000000000018874
  0
LINE
 8
Group#2
10
621.5140865464584
20
149.08186559836147
30
2.000000000001809
11
622.9674908796195
21
148.51192955764986
31
2.000000000001809
  0
LINE
 8
Group#2
10
614.1796924804354
20
154.65948428042378
30
2.0000000000017937
11
614.4842342672339
21
154.1863122361461
31
2.000000000001794
  0
LINE
 8
Group#2
10
627.9178776081411
20
147.98134336861875
30
2.0000000000018376
11
628.257284663407
21
148.19196980166763
31
2.000000000001823
  0
LINE
 8
Group#2
10
604.4772360555116
20
199.93881787818944
30
2.0000000000018843
11
601.8638327625478
21
199.5188904337359
31
2.0000000000018705
  0
LINE
 8
Group#2
10
590.1608664228943
20
179.57942908359905
30
2.0000000000019003
11
590.0889589168744
21
179.84871674623355
31
2.0000000000019145
  0
LINE
 8
Group#2
10
626.7743715107796
20
147.64848527132617
30
2.000000000001838
11
627.1695031053991
21
147.70706569806092
31
2.0000000000018234
  0
LINE
 8
Group#2
10
589.0641372129224
20
192.09529762182072
30
2.0000000000018208
11
589.656916002375
21
187.72977517030407
31
2.0000000000018665
  0
LINE
 8
Group#2
10
613.1394740023477
20
158.41232166226075
30
2.0000000000018203
11
613.1643837214868
21
157.8501677782708
31
2.0000000000017777
  0
LINE
 8
Group#2
10
601.8638327625478
20
199.5188904337359
30
2.0000000000018705
11
599.2824776418609
21
198.93338076586528
31
2.0000000000018714
  0
LINE
 8
Group#2
10
613.3405986530531
20
156.73944712952493
30
2.000000000001807
11
613.4909033147159
21
156.19718705163334
31
2.0000000000017786
  0
LINE
 8
Group#2
10
593.3653699248209
20
175.37453757285047
30
2.0000000000018585
11
593.1652433274669
21
175.41208063491882
31
2.000000000001873
  0
LINE
 8
Group#2
10
628.4130394711361
20
177.88745910403048
30
2.0000000000019202
11
628.5910682846898
21
178.10191720299548
31
2.0000000000018914
  0
LINE
 8
Group#2
10
628.564981621023
20
148.44669166122603
30
2.0000000000018514
11
628.8352798186764
21
148.7407996818723
31
2.000000000001851
  0
LINE
 8
Group#2
10
629.5197402995387
20
180.39801684764345
30
2.0000000000019473
11
629.5408576945601
21
180.6759387616674
31
2.000000000001947
  0
LINE
 8
Group#2
10
628.257284663407
20
148.19196980166763
30
2.000000000001823
11
628.564981621023
21
148.44669166122603
31
2.0000000000018514
  0
LINE
 8
Group#2
10
629.2444747908049
20
149.42479683954596
30
2.0000000000018363
11
629.3758064205521
21
149.80204032390458
31
2.0000000000018647
  0
LINE
 8
Group#2
10
619.7576594644715
20
169.81495496784044
30
2.0000000000018265
11
621.8319801346985
21
168.22327273585273
31
2.000000000001856
  0
LINE
 8
Group#2
10
613.68161295303
20
155.66778425862344
30
2.0000000000017932
11
613.9116447160903
21
155.1542447067135
31
2.000000000001822
  0
LINE
 8
Group#2
10
614.6504517013578
20
169.8403702472139
30
2.000000000001842
11
614.5249540161635
21
169.55235245163004
31
2.0000000000018425
  0
LINE
 8
Group#2
10
627.1695031053991
20
147.70706569806092
30
2.0000000000018234
11
627.5530353698008
21
147.81870639685
31
2.0000000000018234
  0
LINE
 8
Group#2
10
617.4527580844822
20
151.39794171927227
30
2.000000000001824
11
618.7495011061447
21
150.52864960385747
31
2.000000000001795
  0
LINE
 8
Group#2
10
613.8246836536592
20
139.56446850623863
30
2.000000000001817
11
613.4353729805438
21
142.783562782596
31
2.000000000001873
  0
LINE
 8
Group#2
10
613.1569646802483
20
146.0141385174464
30
2.0000000000018137
11
613.1650214590661
21
146.26389055535634
31
2.000000000001828
  0
LINE
 8
Group#2
10
621.2042289758061
20
136.28393064249718
30
2.0000000000018607
11
621.5200592288044
21
136.56397914003904
31
2.000000000001889
  0
LINE
 8
Group#2
10
615.522735598904
20
170.7210951490434
30
2.000000000001798
11
615.2579660444334
21
170.55197683960392
31
2.000000000001784
  0
LINE
 8
Group#2
10
614.8170124164095
20
134.88213763700514
30
2.0000000000018776
11
614.6504517013578
21
135.14852353708935
31
2.0000000000018776
  0
LINE
 8
Group#2
10
613.4353729805438
20
162.20533100170746
30
2.000000000001818
11
613.8246836536592
21
165.4244252780648
31
2.0000000000018163
  0
LINE
 8
Group#2
10
613.6636825455363
20
147.10079577738247
30
2.0000000000018128
11
613.8794924880012
21
147.22676029960326
31
2.0000000000018416
  0
LINE
 8
Group#2
10
621.2042289758061
20
136.28393064249718
30
2.0000000000018607
11
619.7576594644715
21
135.17393881646296
31
2.0000000000018763
  0
LINE
 8
Group#2
10
614.61327181507
20
147.3184042537815
30
2.000000000001827
11
614.8534335757537
21
147.24938743821934
31
2.000000000001856
  0
LINE
 8
Group#2
10
615.522735598904
20
134.2677986352599
30
2.000000000001878
11
615.2579660444334
21
134.43691694469925
31
2.0000000000018634
  0
LINE
 8
Group#2
10
622.0017714892939
20
140.08032300573038
30
2.000000000001844
11
621.7728927514681
21
140.43499247587928
31
2.000000000001829
  0
LINE
 8
Group#2
10
629.063182017583
20
149.06885643183597
30
2.000000000001851
11
629.2444747908049
21
149.42479683954596
31
2.0000000000018363
  0
LINE
 8
Group#2
10
614.4432582184727
20
135.7399053321886
30
2.0000000000018767
11
614.3244364063519
21
136.36066171642537
31
2.000000000001848
  0
LINE
 8
Group#2
10
604.9903649127797
20
135.43654133267336
30
2.0000000000018945
11
605.0720607104704
21
135.73990533218864
31
2.0000000000019083
  0
LINE
 8
Group#2
10
615.0748604740079
20
147.13358104437765
30
2.000000000001856
11
615.2685442957046
21
146.97569637337367
31
2.000000000001841
  0
LINE
 8
Group#2
10
622.1782116241058
20
139.6968588111674
30
2.0000000000018585
11
622.0017714892939
21
140.08032300573038
31
2.000000000001844
  0
LINE
 8
Group#2
10
624.4582606501552
20
148.04844629213804
30
2.000000000001795
11
625.9786102924332
21
147.69383634955557
31
2.000000000001809
  0
LINE
 8
Group#2
10
616.1120946813746
20
134.05491970526896
30
2.0000000000018634
11
615.8095314861102
21
134.13953313466152
31
2.0000000000018923
  0
LINE
 8
Group#2
10
614.3244364063519
20
136.36066171642537
30
2.000000000001848
11
613.8246836536592
21
139.56446850623863
31
2.000000000001817
  0
LINE
 8
Group#2
10
629.0413291810909
20
178.80524579426614
30
2.0000000000018905
11
629.1615700548231
21
179.0566989051193
31
2.0000000000019194
  0
LINE
 8
Group#2
10
629.0761759902529
20
157.67082779420213
30
2.0000000000018168
11
629.7576594644715
21
152.49444689215173
31
2.000000000001834
  0
LINE
 8
Group#2
10
617.3458499154967
20
170.81395919288664
30
2.0000000000018407
11
619.7576594644715
21
169.81495496784044
31
2.0000000000018265
  0
LINE
 8
Group#2
10
618.7495011061447
20
150.52864960385747
30
2.000000000001795
11
620.1056380747946
21
149.75527791546043
31
2.0000000000018097
  0
LINE
 8
Group#2
10
620.1056380747946
20
149.75527791546043
30
2.0000000000018097
11
621.5140865464584
21
149.08186559836147
31
2.000000000001809
  0
LINE
 8
Group#2
10
614.4842342672339
20
154.1863122361461
30
2.000000000001794
11
614.8235408841026
21
153.73741525114656
31
2.0000000000017795
  0
LINE
 8
Group#2
10
615.0210011453634
20
134.64319723016303
30
2.000000000001878
11
614.8170124164095
21
134.88213763700514
31
2.0000000000018776
  0
LINE
 8
Group#2
10
622.0179467778129
20
137.24312027709354
30
2.0000000000018745
11
622.1900032197179
21
137.62857129925234
31
2.0000000000018305
  0
LINE
 8
Group#2
10
615.5985558018275
20
152.9224895251068
30
2.0000000000017657
11
616.2221812680746
21
152.35861437167418
31
2.0000000000018088
  0
LINE
 8
Group#2
10
628.9058120651529
20
178.56168544043274
30
2.000000000001905
11
629.0413291810909
21
178.80524579426614
31
2.0000000000018905
  0
LINE
 8
Group#2
10
621.7931268267967
20
136.88586420743277
30
2.000000000001875
11
622.0179467778129
21
137.24312027709354
31
2.0000000000018745
  0
LINE
 8
Group#2
10
614.5249540161635
20
169.55235245163004
30
2.0000000000018425
11
614.4432582184727
21
169.24898845211476
31
2.0000000000018425
  0
LINE
 8
Group#2
10
613.1643837214868
20
157.8501677782708
30
2.0000000000017777
11
613.2315523999434
21
157.29148553224277
31
2.0000000000017923
  0
LINE
 8
Group#2
10
622.1900032197179
20
137.62857129925234
30
2.0000000000018305
11
622.3058401284018
21
138.03447488419692
31
2.0000000000018594
  0
LINE
 8
Group#2
10
627.5530353698008
20
147.81870639685
30
2.0000000000018234
11
627.9178776081411
21
147.98134336861875
31
2.0000000000018376
  0
LINE
 8
Group#2
10
615.8095314861102
20
170.84936064964182
30
2.000000000001827
11
615.522735598904
21
170.7210951490434
31
2.000000000001798
  0
LINE
 8
Group#2
10
613.1569646802483
20
158.974755266857
30
2.0000000000017915
11
613.1394740023477
21
158.41232166226075
31
2.0000000000018203
  0
LINE
 8
Group#2
10
616.2221812680746
20
152.35861437167418
30
2.0000000000018088
11
617.4527580844822
21
151.39794171927227
31
2.000000000001824
  0
LINE
 8
Group#2
10
613.1569646802483
20
158.974755266857
30
2.0000000000017915
11
613.4353729805438
21
162.20533100170746
31
2.000000000001818
  0
LINE
 8
Group#2
10
628.2221255585384
20
177.68438667201025
30
2.0000000000019056
11
627.4275324455497
21
176.6488527660699
31
2.000000000001921
  0
LINE
 8
Group#2
10
628.7555344576579
20
178.3269447849044
30
2.000000000001934
11
628.9058120651529
21
178.56168544043274
31
2.000000000001905
  0
LINE
 8
Group#2
10
614.6504517013578
20
135.14852353708935
30
2.0000000000018776
11
614.5249540161635
21
135.43654133267327
31
2.0000000000018487
  0
LINE
 8
Group#2
10
613.4775398639771
20
146.93408676674724
30
2.000000000001842
11
613.6636825455363
21
147.10079577738247
31
2.0000000000018128
  0
LINE
 8
Group#2
10
614.8235408841026
20
153.73741525114656
30
2.0000000000017795
11
615.1956857434818
21
153.31534216857645
31
2.000000000001794
  0
LINE
 8
Group#2
10
613.4909033147159
20
156.19718705163334
30
2.0000000000017786
11
613.68161295303
21
155.66778425862344
31
2.0000000000017932
  0
LINE
 8
Group#2
10
626.3749457287305
20
147.644048144143
30
2.000000000001838
11
626.7743715107796
21
147.64848527132617
31
2.000000000001838
  0
LINE
 8
Group#2
10
613.2315523999434
20
157.29148553224277
30
2.0000000000017923
11
613.3405986530531
21
156.73944712952493
31
2.000000000001807
  0
LINE
 8
Group#2
10
615.0210011453634
20
170.34569655414037
30
2.000000000001841
11
614.8170124164093
21
170.10675614729817
31
2.0000000000018274
  0
LINE
 8
Group#2
10
621.4961727998775
20
140.75374312776262
30
2.000000000001858
11
615.2685442957046
21
146.97569637337367
31
2.000000000001841
  0
LINE
 8
Group#2
10
614.3641455883386
20
147.33782370999552
30
2.0000000000018123
11
614.61327181507
21
147.3184042537815
31
2.000000000001827
  0
LINE
 8
Group#2
10
614.8534335757537
20
147.24938743821934
30
2.000000000001856
11
615.0748604740079
21
147.13358104437765
31
2.000000000001856
  0
LINE
 8
Group#2
10
617.0475052938057
20
134.07647441535445
30
2.0000000000018923
11
616.737910477628
21
134.02304250206132
31
2.0000000000018776
  0
LINE
 8
Group#2
10
617.3458499154967
20
170.81395919288664
30
2.0000000000018407
11
617.0475052938057
21
170.91241936894883
31
2.000000000001812
  0
LINE
 8
Group#2
10
638.143548992305
20
106.0340800502937
30
2.000000000001875
11
637.7576594644697
21
105.87423937429045
31
2.000000000001889
  0
LINE
 8
Group#2
10
638.3677874688523
20
213.03277410495915
30
2.0000000000000626
11
638.2079467928454
21
213.41866363280187
31
2.0000000000000773
  0
LINE
 8
Group#2
10
639.6890303143673
20
105.61996957813027
30
2.0000000000019034
11
639.3576594644694
21
105.87423937429045
31
2.0000000000018887
  0
LINE
 8
Group#2
10
637.1720188184136
20
103.6885987282402
30
2.000000000001905
11
637.4262886145701
21
103.35722787833306
31
2.0000000000018767
  0
LINE
 8
Group#2
10
586.5179135023178
20
112.08667493959055
30
2.000000000001971
11
586.5724321802553
21
112.50078541174689
31
2.000000000002014
  0
LINE
 8
Group#2
10
586.7322728562623
20
111.28667493958429
30
2.000000000001957
11
586.5724321802553
21
111.67256446742704
31
2.000000000001971
  0
LINE
 8
Group#2
10
639.3576594644694
20
103.10295808217275
30
2.0000000000018616
11
639.6890303143673
21
103.35722787833306
31
2.000000000001876
  0
LINE
 8
Group#2
10
587.3179135023167
20
113.47231558563453
30
2.000000000001941
11
587.7038030301521
21
113.63215626165277
31
2.00000000000197
  0
LINE
 8
Group#2
10
638.143548992305
20
102.94311740617685
30
2.0000000000018616
11
638.5576594644688
21
102.88859872824132
31
2.0000000000019056
  0
LINE
 8
Group#2
10
639.3576594644694
20
105.87423937429045
30
2.0000000000018887
11
638.9717699366322
21
106.0340800502937
31
2.0000000000018745
  0
LINE
 8
Group#2
10
588.1179135023174
20
110.4866749395855
30
2.000000000001986
11
587.703803030154
21
110.54119361752103
31
2.000000000001957
  0
LINE
 8
Group#2
10
588.5320239744809
20
113.63215626165277
30
2.0000000000019695
11
588.9179135023181
21
113.47231558563453
31
2.0000000000019407
  0
LINE
 8
Group#2
10
638.5576594644688
20
102.88859872824132
30
2.0000000000019056
11
638.9717699366322
21
102.94311740617685
31
2.000000000001862
  0
LINE
 8
Group#2
10
635.276824824728
20
212.2045531606394
30
2.0000000000018687
11
635.4366655007351
21
211.81866363279667
31
2.000000000001941
  0
LINE
 8
Group#2
10
587.3179135023184
20
110.70103429353908
30
2.000000000001943
11
586.9865426524207
21
110.95530408968463
31
2.0000000000020006
  0
LINE
 8
Group#2
10
586.5724321802553
20
112.50078541174689
30
2.000000000002014
11
586.7322728562623
21
112.88667493958955
31
2.000000000001956
  0
LINE
 8
Group#2
10
639.1974054266296
20
122.82538994651699
30
2.000000000001951
11
639.5287762765275
21
123.07965974267731
31
2.0000000000019362
  0
LINE
 8
Group#2
10
632.1974054266262
20
113.47231558563472
30
2.0000000000019296
11
631.811515898791
21
113.63215626165285
31
2.000000000001886
  0
LINE
 8
Group#2
10
629.8519241045634
20
111.67256446742704
30
2.000000000001859
11
630.0117647805704
21
111.28667493958429
31
2.0000000000018883
  0
LINE
 8
Group#2
10
637.9832949544654
20
122.66554927051367
30
2.00000000000198
11
638.3974054266289
21
122.6110305925632
31
2.0000000000019225
  0
LINE
 8
Group#2
10
632.1974054266262
20
110.70103429353908
30
2.000000000001902
11
632.528776276524
21
110.95530408968469
31
2.000000000001902
  0
LINE
 8
Group#2
10
636.8223061467902
20
211.01866363279777
30
2.000000000001927
11
637.2364166189537
21
211.07318231073342
31
2.0000000000019122
  0
LINE
 8
Group#2
10
636.7974054266275
20
124.21103059256838
30
2.0000000000019362
11
636.8519241045668
21
123.79692012040496
31
2.0000000000020086
  0
LINE
 8
Group#2
10
581.8930127821537
20
211.23302298673661
30
2.0000000000018834
11
581.561641932254
21
211.4872927828969
31
2.000000000001941
  0
LINE
 8
Group#2
10
630.2660345767268
20
110.95530408968469
30
2.0000000000019025
11
630.5974054266248
21
110.70103429353908
31
2.0000000000019025
  0
LINE
 8
Group#2
10
637.9536769966887
20
213.7500344826868
30
2.000000000000048
11
637.622306146791
21
214.00430427884703
31
2.000000000000077
  0
LINE
 8
Group#2
10
581.1475314600906
20
212.20455316063934
30
2.000000000001912
11
581.093012782153
21
212.6186636327955
31
2.000000000001897
  0
LINE
 8
Group#2
10
588.1179135023174
20
113.68667493958843
30
2.000000000001984
11
588.5320239744809
21
113.63215626165277
31
2.0000000000019695
  0
LINE
 8
Group#2
10
637.2364166189537
20
211.07318231073342
30
2.0000000000019122
11
637.622306146791
21
211.23302298673667
31
2.0000000000018834
  0
LINE
 8
Group#2
10
584.078653428208
20
213.4186636328018
30
2.000000000001867
11
584.2384941042169
21
213.03277410495915
31
2.000000000001896
  0
LINE
 8
Group#2
10
581.3073721360994
20
213.4186636328018
30
2.000000000001911
11
581.561641932254
21
213.75003448268671
31
2.0000000000018674
  0
LINE
 8
Group#2
10
632.7830460726824
20
112.88667493958938
30
2.000000000001872
11
632.528776276524
21
113.21804578948915
31
2.0000000000019007
  0
LINE
 8
Group#2
10
638.9717699366322
20
106.0340800502937
30
2.0000000000018745
11
638.5576594644688
21
106.0885987282368
31
2.0000000000018456
  0
LINE
 8
Group#2
10
631.3974054266272
20
110.48667493958541
30
2.0000000000018883
11
631.811515898789
21
110.54119361752103
31
2.0000000000018883
  0
LINE
 8
Group#2
10
632.9974054266269
20
112.08667493959064
30
2.0000000000018723
11
632.9428867486877
21
112.50078541174676
31
2.0000000000018865
  0
LINE
 8
Group#2
10
582.6930127821527
20
214.21866363280063
30
2.0000000000018665
11
583.1071232543164
21
214.16414495486512
31
2.0000000000018807
  0
LINE
 8
Group#2
10
631.811515898791
20
113.63215626165285
30
2.000000000001886
11
631.3974054266272
21
113.68667493958829
31
2.0000000000018865
  0
LINE
 8
Group#2
10
586.5724321802553
20
111.67256446742704
30
2.000000000001971
11
586.5179135023178
21
112.08667493959055
31
2.000000000001971
  0
LINE
 8
Group#2
10
589.5035541483726
20
112.88667493958955
30
2.0000000000019553
11
589.6633948243796
21
112.50078541174689
31
2.0000000000020135
  0
LINE
 8
Group#2
10
589.7179135023171
20
112.08667493959055
30
2.0000000000019704
11
589.6633948243796
21
111.67256446742704
31
2.000000000001971
  0
LINE
 8
Group#2
10
635.6909352968936
20
211.4872927828969
30
2.0000000000018834
11
636.0223061467913
21
211.23302298673667
31
2.0000000000018834
  0
LINE
 8
Group#2
10
638.5576594644688
20
106.0885987282368
30
2.0000000000018456
11
638.143548992305
21
106.0340800502937
31
2.000000000001875
  0
LINE
 8
Group#2
10
586.9865426524207
20
110.95530408968463
30
2.0000000000020006
11
586.7322728562623
21
111.28667493958429
31
2.000000000001957
  0
LINE
 8
Group#2
10
635.4366655007351
20
213.4186636328018
30
2.0000000000019114
11
635.276824824728
21
213.03277410495915
31
2.000000000001955
  0
LINE
 8
Group#2
10
638.2079467928454
20
211.81866363279667
30
2.0000000000019402
11
638.3677874688523
21
212.2045531606394
31
2.0000000000018683
  0
LINE
 8
Group#2
10
638.9717699366322
20
102.94311740617685
30
2.000000000001862
11
639.3576594644694
21
103.10295808217275
31
2.0000000000018616
  0
LINE
 8
Group#2
10
639.5287762765275
20
123.07965974267731
30
2.0000000000019362
11
639.783046072684
21
123.41103059256216
31
2.000000000001921
  0
LINE
 8
Group#2
10
635.6909352968936
20
213.7500344826868
30
2.0000000000000484
11
635.4366655007351
21
213.4186636328018
31
2.0000000000019114
  0
LINE
 8
Group#2
10
637.5974054266281
20
122.82538994651699
30
2.000000000001951
11
637.9832949544654
21
122.66554927051367
31
2.00000000000198
  0
LINE
 8
Group#2
10
636.4081956746267
20
211.07318231073342
30
2.0000000000019127
11
636.8223061467902
21
211.01866363279777
31
2.000000000001927
  0
LINE
 8
Group#2
10
582.2789023099892
20
211.0731823107334
30
2.0000000000018976
11
581.8930127821537
21
211.23302298673661
31
2.0000000000018834
  0
LINE
 8
Group#2
10
632.7830460726806
20
111.28667493958429
30
2.0000000000018874
11
632.9428867486877
21
111.67256446742704
31
2.000000000001858
  0
LINE
 8
Group#2
10
637.7576594644697
20
103.10295808217275
30
2.0000000000018616
11
638.143548992305
21
102.94311740617685
31
2.0000000000018616
  0
LINE
 8
Group#2
10
639.9433001105239
20
103.6885987282402
30
2.0000000000019043
11
640.1031407865307
21
104.0744882560607
31
2.00000000000189
  0
LINE
 8
Group#2
10
629.7974054266276
20
112.08667493959064
30
2.000000000001873
11
629.8519241045634
21
111.67256446742704
31
2.000000000001859
  0
LINE
 8
Group#2
10
636.0223061467913
20
211.23302298673667
30
2.0000000000018834
11
636.4081956746267
21
211.07318231073342
31
2.0000000000019127
  0
LINE
 8
Group#2
10
635.2223061467905
20
212.6186636327956
30
2.000000000001926
11
635.276824824728
21
212.2045531606394
31
2.0000000000018687
  0
LINE
 8
Group#2
10
638.8115158987943
20
122.66554927051367
30
2.0000000000019797
11
639.1974054266296
21
122.82538994651699
31
2.000000000001951
  0
LINE
 8
Group#2
10
639.6890303143673
20
103.35722787833306
30
2.000000000001876
11
639.9433001105239
21
103.6885987282402
31
2.0000000000019043
  0
LINE
 8
Group#2
10
637.0117647805737
20
123.41103059256216
30
2.0000000000019225
11
637.2660345767301
21
123.07965974267731
31
2.0000000000019513
  0
LINE
 8
Group#2
10
632.528776276524
20
113.21804578948915
30
2.0000000000019007
11
632.1974054266262
21
113.47231558563472
31
2.0000000000019296
  0
LINE
 8
Group#2
10
583.8243836320515
20
213.75003448268671
30
2.0000000000018954
11
584.078653428208
21
213.4186636328018
31
2.000000000001867
  0
LINE
 8
Group#2
10
581.561641932254
20
213.75003448268671
30
2.0000000000018674
11
581.8930127821537
21
214.00430427884692
31
2.0000000000018816
  0
LINE
 8
Group#2
10
640.1031407865307
20
104.0744882560607
30
2.00000000000189
11
640.1576594644683
21
104.48859872823897
31
2.0000000000019185
  0
LINE
 8
Group#2
10
630.5974054266266
20
113.47231558563472
30
2.0000000000019296
11
630.2660345767287
21
113.21804578948915
31
2.000000000001901
  0
LINE
 8
Group#2
10
631.811515898789
20
110.54119361752103
30
2.0000000000018883
11
632.1974054266262
21
110.70103429353908
31
2.000000000001902
  0
LINE
 8
Group#2
10
581.3073721360994
20
211.81866363279667
30
2.0000000000019407
11
581.1475314600906
21
212.20455316063934
31
2.000000000001912
  0
LINE
 8
Group#2
10
637.2660345767249
20
222.95530408969296
30
2.000000000001847
11
637.5974054266226
21
222.70103429353273
31
2.0000000000018323
  0
LINE
 8
Group#2
10
630.2660345767287
20
113.21804578948915
30
2.000000000001901
11
630.0117647805704
21
112.88667493958938
31
2.0000000000018727
  0
LINE
 8
Group#2
10
584.2384941042169
20
212.20455316063934
30
2.000000000001911
11
584.078653428208
21
211.81866363279667
31
2.00000000000194
  0
LINE
 8
Group#2
10
583.1071232543164
20
211.0731823107334
30
2.000000000001897
11
582.6930127821546
21
211.01866363279777
31
2.0000000000018976
  0
LINE
 8
Group#2
10
584.2930127821544
20
212.6186636327955
30
2.0000000000018963
11
584.2384941042169
21
212.20455316063934
31
2.000000000001911
  0
LINE
 8
Group#2
10
583.8243836320515
20
211.4872927828969
30
2.0000000000019402
11
583.4930127821536
21
211.23302298673661
31
2.000000000001883
  0
LINE
 8
Group#2
10
584.078653428208
20
211.81866363279667
30
2.00000000000194
11
583.8243836320515
21
211.4872927828969
31
2.0000000000019402
  0
LINE
 8
Group#2
10
637.9536769966887
20
211.4872927828969
30
2.0000000000018825
11
638.2079467928454
21
211.81866363279667
31
2.0000000000019402
  0
LINE
 8
Group#2
10
637.2660345767301
20
123.07965974267731
30
2.0000000000019513
11
637.5974054266281
21
122.82538994651699
31
2.000000000001951
  0
LINE
 8
Group#2
10
637.0117647805737
20
125.01103059256725
30
2.0000000000019504
11
636.8519241045668
21
124.62514106472449
31
2.0000000000019504
  0
LINE
 8
Group#2
10
632.5287762765279
20
235.0796597426708
30
2.000000000001913
11
632.7830460726826
21
235.41103059257787
31
2.000000000001913
  0
LINE
 8
Group#2
10
638.8115158987943
20
125.75651191463068
30
2.000000000001978
11
638.3974054266289
21
125.81103059256621
31
2.000000000001935
  0
LINE
 8
Group#2
10
630.0117647805741
20
237.01103059257554
30
2.0000000000018985
11
629.8519241045655
21
236.62514106474032
31
2.000000000001913
  0
LINE
 8
Group#2
10
637.0117647805683
20
223.28667493958517
30
2.0000000000018474
11
637.2660345767249
21
222.95530408969296
31
2.000000000001847
  0
LINE
 8
Group#2
10
630.5974054266305
20
237.59667123862812
30
2.0000000000019122
11
630.2660345767307
21
237.3424014424753
31
2.000000000001898
  0
LINE
 8
Group#2
10
631.3974054266293
20
237.81103059257444
30
2.0000000000019265
11
630.9832949544658
21
237.75651191463882
31
2.0000000000019122
  0
LINE
 8
Group#2
10
639.7830460726785
20
224.88667493958303
30
2.0000000000019034
11
639.528776276522
21
225.21804578949005
31
2.000000000001845
  0
LINE
 8
Group#2
10
583.4930127821536
20
211.23302298673661
30
2.000000000001883
11
583.1071232543164
21
211.0731823107334
31
2.000000000001897
  0
LINE
 8
Group#2
10
630.5974054266248
20
110.70103429353908
30
2.0000000000019025
11
630.983294954462
21
110.54119361752103
31
2.0000000000018883
  0
LINE
 8
Group#2
10
637.622306146791
20
211.23302298673667
30
2.0000000000018834
11
637.9536769966887
21
211.4872927828969
31
2.0000000000018825
  0
LINE
 8
Group#2
10
639.1974054266296
20
125.5966712386273
30
2.0000000000019056
11
638.8115158987943
21
125.75651191463068
31
2.000000000001978
  0
LINE
 8
Group#2
10
631.3974054266272
20
113.68667493958829
30
2.0000000000018865
11
630.983294954462
21
113.63215626165277
31
2.0000000000019154
  0
LINE
 8
Group#2
10
637.2660345767322
20
125.34240144246708
30
2.000000000001964
11
637.0117647805737
21
125.01103059256725
31
2.0000000000019504
  0
LINE
 8
Group#2
10
630.0117647805741
20
235.41103059257787
30
2.000000000001914
11
630.2660345767307
21
235.0796597426708
31
2.000000000001914
  0
LINE
 8
Group#2
10
629.8519241045652
20
112.50078541174676
30
2.000000000001902
11
629.7974054266276
21
112.08667493959064
31
2.000000000001873
  0
LINE
 8
Group#2
10
639.942886748691
20
124.62514106472449
30
2.0000000000019496
11
639.783046072684
21
125.01103059256717
31
2.000000000001906
  0
LINE
 8
Group#2
10
629.8519241045655
20
235.79692012041323
30
2.000000000001899
11
630.0117647805741
21
235.41103059257787
31
2.000000000001914
  0
LINE
 8
Group#2
10
637.0117647805683
20
224.886674939583
30
2.000000000001846
11
636.8519241045593
21
224.50078541174767
31
2.0000000000018465
  0
LINE
 8
Group#2
10
639.1974054266241
20
225.47231558565034
30
2.0000000000018594
11
638.8115158987869
21
225.63215626165368
31
2.000000000001917
  0
LINE
 8
Group#2
10
636.8519241045668
20
124.62514106472449
30
2.0000000000019504
11
636.7974054266275
21
124.21103059256838
31
2.0000000000019362
  0
LINE
 8
Group#2
10
581.1475314600906
20
213.03277410495915
30
2.0000000000019256
11
581.3073721360994
21
213.4186636328018
31
2.000000000001911
  0
LINE
 8
Group#2
10
632.9428867486877
20
112.50078541174676
30
2.0000000000018865
11
632.7830460726824
21
112.88667493958938
31
2.000000000001872
  0
LINE
 8
Group#2
10
638.3974054266289
20
125.81103059256621
30
2.000000000001935
11
637.9832949544654
21
125.75651191463068
31
2.0000000000019784
  0
LINE
 8
Group#2
10
637.5974054266245
20
225.47231558565034
30
2.00000000000186
11
637.2660345767249
21
225.21804578949013
31
2.0000000000018456
  0
LINE
 8
Group#2
10
636.8519241045668
20
123.79692012040496
30
2.0000000000020086
11
637.0117647805737
21
123.41103059256216
31
2.0000000000019225
  0
LINE
 8
Group#2
10
581.561641932254
20
211.4872927828969
30
2.000000000001941
11
581.3073721360994
21
211.81866363279667
31
2.0000000000019407
  0
LINE
 8
Group#2
10
582.2789023099892
20
214.16414495486512
30
2.0000000000018816
11
582.6930127821527
21
214.21866363280063
31
2.0000000000018665
  0
LINE
 8
Group#2
10
583.1071232543164
20
214.16414495486512
30
2.0000000000018807
11
583.4930127821536
21
214.00430427884692
31
2.0000000000018523
  0
LINE
 8
Group#2
10
582.6930127821546
20
211.01866363279777
30
2.0000000000018976
11
582.2789023099892
21
211.0731823107334
31
2.0000000000018976
  0
LINE
 8
Group#2
10
584.2384941042169
20
213.03277410495915
30
2.000000000001896
11
584.2930127821544
21
212.6186636327955
31
2.0000000000018963
  0
LINE
 8
Group#2
10
637.5974054266226
20
222.70103429353273
30
2.0000000000018323
11
637.983294954458
21
222.54119361752197
31
2.000000000001847
  0
LINE
 8
Group#2
10
637.9832949544598
20
225.63215626165368
30
2.0000000000019176
11
637.5974054266245
21
225.47231558565034
31
2.00000000000186
  0
LINE
 8
Group#2
10
639.9428867486855
20
224.50078541174767
30
2.0000000000018887
11
639.7830460726785
21
224.88667493958303
31
2.0000000000019034
  0
LINE
 8
Group#2
10
636.8519241045593
20
223.67256446742056
30
2.000000000001847
11
637.0117647805683
21
223.28667493958517
31
2.0000000000018474
  0
LINE
 8
Group#2
10
637.2660345767249
20
225.21804578949013
30
2.0000000000018456
11
637.0117647805683
21
224.886674939583
31
2.000000000001846
  0
LINE
 8
Group#2
10
639.9428867486855
20
223.67256446742056
30
2.000000000001846
11
639.9974054266231
21
224.08667493958416
31
2.000000000001904
  0
LINE
 8
Group#2
10
583.4930127821536
20
214.00430427884692
30
2.0000000000018523
11
583.8243836320515
21
213.75003448268671
31
2.0000000000018954
  0
LINE
 8
Group#2
10
631.811515898793
20
237.75651191463882
30
2.000000000001912
11
631.3974054266293
21
237.81103059257444
31
2.0000000000019265
  0
LINE
 8
Group#2
10
630.2660345767307
20
235.0796597426708
30
2.000000000001914
11
630.5974054266286
21
234.82538994652538
31
2.0000000000018994
  0
LINE
 8
Group#2
10
630.0117647805704
20
111.28667493958429
30
2.0000000000018883
11
630.2660345767268
21
110.95530408968469
31
2.0000000000019025
  0
LINE
 8
Group#2
10
632.528776276524
20
110.95530408968469
30
2.000000000001902
11
632.7830460726806
21
111.28667493958429
31
2.0000000000018874
  0
LINE
 8
Group#2
10
581.8930127821537
20
214.00430427884692
30
2.0000000000018816
11
582.2789023099892
21
214.16414495486512
31
2.0000000000018816
  0
LINE
 8
Group#2
10
630.983294954462
20
113.63215626165277
30
2.0000000000019154
11
630.5974054266266
21
113.47231558563472
31
2.0000000000019296
  0
LINE
 8
Group#2
10
638.3974054266289
20
122.6110305925632
30
2.0000000000019225
11
638.8115158987943
21
122.66554927051367
31
2.0000000000019797
  0
LINE
 8
Group#2
10
581.093012782153
20
212.6186636327955
30
2.000000000001897
11
581.1475314600906
21
213.03277410495915
31
2.0000000000019256
  0
LINE
 8
Group#2
10
639.7830460726766
20
223.28667493958517
30
2.000000000001846
11
639.9428867486855
21
223.67256446742056
31
2.000000000001846
  0
LINE
 8
Group#2
10
636.797405426622
20
224.08667493958413
30
2.000000000001861
11
636.8519241045593
21
223.67256446742056
31
2.000000000001847
  0
LINE
 8
Group#2
10
637.59740542663
20
125.5966712386273
30
2.0000000000019207
11
637.2660345767322
21
125.34240144246708
31
2.000000000001964
  0
LINE
 8
Group#2
10
632.9428867486877
20
111.67256446742704
30
2.000000000001858
11
632.9974054266269
21
112.08667493959064
31
2.0000000000018723
  0
LINE
 8
Group#2
10
630.0117647805704
20
112.88667493958938
30
2.0000000000018727
11
629.8519241045652
21
112.50078541174676
31
2.000000000001902
  0
LINE
 8
Group#2
10
630.983294954462
20
110.54119361752103
30
2.0000000000018883
11
631.3974054266272
21
110.48667493958541
31
2.0000000000018883
  0
LINE
 8
Group#2
10
640.1031407865399
20
243.3949963317573
30
2.000000000001834
11
640.1576594644775
21
243.80910680392088
31
2.0000000000018194
  0
LINE
 8
Group#2
10
637.9832949544654
20
125.75651191463068
30
2.0000000000019784
11
637.59740542663
21
125.5966712386273
31
2.0000000000019207
  0
LINE
 8
Group#2
10
637.983294954458
20
222.54119361752197
30
2.000000000001847
11
638.3974054266216
21
222.48667493958632
31
2.000000000001847
  0
LINE
 8
Group#2
10
639.9433001105313
20
243.00910680392195
30
2.0000000000018052
11
640.1031407865399
21
243.3949963317573
31
2.000000000001834
  0
LINE
 8
Group#2
10
630.9832949544658
20
237.75651191463882
30
2.0000000000019122
11
630.5974054266305
21
237.59667123862812
31
2.0000000000019122
  0
LINE
 8
Group#2
10
639.783046072684
20
123.41103059256216
30
2.000000000001921
11
639.942886748691
21
123.79692012040496
31
2.0000000000019793
  0
LINE
 8
Group#2
10
639.9974054266286
20
124.21103059256838
30
2.0000000000019353
11
639.942886748691
21
124.62514106472449
31
2.0000000000019496
  0
LINE
 8
Group#2
10
638.3974054266216
20
222.48667493958632
30
2.000000000001847
11
638.8115158987869
21
222.54119361752197
31
2.000000000001847
  0
LINE
 8
Group#2
10
632.7830460726844
20
237.01103059257554
30
2.0000000000018976
11
632.5287762765279
21
237.34240144246792
31
2.000000000001897
  0
LINE
 8
Group#2
10
632.1974054266282
20
234.82538994651057
30
2.000000000001899
11
632.5287762765279
21
235.0796597426708
31
2.000000000001913
  0
LINE
 8
Group#2
10
630.2660345767307
20
237.3424014424753
30
2.000000000001898
11
630.0117647805741
21
237.01103059257554
31
2.0000000000018985
  0
LINE
 8
Group#2
10
632.1974054266302
20
237.59667123862812
30
2.000000000001912
11
631.811515898793
21
237.75651191463882
31
2.000000000001912
  0
LINE
 8
Group#2
10
632.7830460726826
20
235.41103059257787
30
2.000000000001913
11
632.9428867486916
21
235.79692012041323
31
2.0000000000018985
  0
LINE
 8
Group#2
10
639.9974054266231
20
224.08667493958416
30
2.000000000001904
11
639.9428867486855
21
224.50078541174767
31
2.0000000000018887
  0
LINE
 8
Group#2
10
630.9832949544641
20
234.66554927050723
30
2.000000000001914
11
631.3974054266275
21
234.61103059257155
31
2.0000000000018994
  0
LINE
 8
Group#2
10
629.7974054266278
20
236.2110305925768
30
2.000000000001913
11
629.8519241045655
21
235.79692012041323
31
2.000000000001899
  0
LINE
 8
Group#2
10
636.8519241045593
20
224.50078541174767
30
2.0000000000018465
11
636.797405426622
21
224.08667493958413
31
2.000000000001861
  0
LINE
 8
Group#2
10
608.9576594644726
20
255.95270034337423
30
2.0000000000018994
11
609.3435489923079
21
255.79285966735614
31
2.000000000001914
  0
LINE
 8
Group#2
10
610.1717699366368
20
255.79285966735614
30
2.000000000001914
11
610.5576594644722
21
255.95270034337426
31
2.00000000000187
  0
LINE
 8
Group#2
10
638.8115158987869
20
225.63215626165368
30
2.000000000001917
11
638.3974054266234
21
225.6866749395819
31
2.000000000001903
  0
LINE
 8
Group#2
10
631.3974054266275
20
234.61103059257155
30
2.0000000000018994
11
631.811515898793
21
234.66554927050723
31
2.000000000001914
  0
LINE
 8
Group#2
10
632.9974054266289
20
236.2110305925768
30
2.0000000000019127
11
632.9428867486916
21
236.62514106474032
31
2.0000000000019122
  0
LINE
 8
Group#2
10
632.9428867486916
20
236.62514106474032
30
2.0000000000019122
11
632.7830460726844
21
237.01103059257554
31
2.0000000000018976
  0
LINE
 8
Group#2
10
629.8519241045655
20
236.62514106474032
30
2.000000000001913
11
629.7974054266278
21
236.2110305925768
31
2.000000000001913
  0
LINE
 8
Group#2
10
637.7576594644753
20
242.42346615786937
30
2.000000000001835
11
638.1435489923125
21
242.26362548185867
31
2.000000000001835
  0
LINE
 8
Group#2
10
632.9428867486916
20
235.79692012041323
30
2.0000000000018985
11
632.9974054266289
21
236.2110305925768
31
2.0000000000019127
  0
LINE
 8
Group#2
10
638.3974054266234
20
225.6866749395819
30
2.000000000001903
11
637.9832949544598
21
225.63215626165368
31
2.0000000000019176
  0
LINE
 8
Group#2
10
637.4262886145792
20
244.9404776538269
30
2.0000000000018483
11
637.1720188184228
21
244.6091068039197
31
2.0000000000018052
  0
LINE
 8
Group#2
10
611.3576594644712
20
257.33834098942566
30
2.000000000001833
11
611.3031407865336
21
257.75245146158915
31
2.0000000000018185
  0
LINE
 8
Group#2
10
639.3576594644768
20
245.19474744997225
30
2.0000000000018185
11
638.9717699366414
21
245.3545881259904
31
2.000000000001833
  0
LINE
 8
Group#2
10
640.1576594644775
20
243.80910680392088
30
2.0000000000018194
11
640.1031407865399
21
244.2232172760844
31
2.0000000000018336
  0
LINE
 8
Group#2
10
608.9576594644726
20
248.72398163547982
30
2.0000000000019185
11
608.626288614573
21
248.4697118393196
31
2.0000000000019114
  0
LINE
 8
Group#2
10
637.0121781424158
20
244.2232172760844
30
2.000000000001834
11
636.9576594644782
21
243.80910680392088
31
2.0000000000018203
  0
LINE
 8
Group#2
10
638.1435489923125
20
245.3545881259904
30
2.0000000000018336
11
637.7576594644771
21
245.19474744997225
31
2.000000000001819
  0
LINE
 8
Group#2
10
608.626288614573
20
248.4697118393196
30
2.0000000000019114
11
608.3720188184164
21
248.1383409894272
31
2.000000000001919
  0
LINE
 8
Group#2
10
637.7576594644771
20
245.19474744997225
30
2.000000000001819
11
637.4262886145792
21
244.9404776538269
31
2.0000000000018483
  0
LINE
 8
Group#2
10
608.157659464472
20
247.33834098942833
30
2.000000000001941
11
608.2121781424092
21
246.92423051726487
31
2.000000000001927
  0
LINE
 8
Group#2
10
639.5287762765275
20
125.34240144246708
30
2.000000000001949
11
639.1974054266296
21
125.5966712386273
31
2.0000000000019056
  0
LINE
 8
Group#2
10
608.626288614573
20
258.46971183932425
30
2.0000000000018185
11
608.3720188184164
21
258.1383409894246
31
2.000000000001826
  0
LINE
 8
Group#2
10
632.5287762765279
20
237.34240144246792
30
2.000000000001897
11
632.1974054266302
21
237.59667123862812
31
2.000000000001912
  0
LINE
 8
Group#2
10
611.1433001105286
20
246.53834098942946
30
2.0000000000019265
11
611.3031407865336
21
246.92423051726487
31
2.0000000000019265
  0
LINE
 8
Group#2
10
631.811515898793
20
234.66554927050723
30
2.000000000001914
11
632.1974054266282
21
234.82538994651057
31
2.000000000001899
  0
LINE
 8
Group#2
10
640.1031407865399
20
244.2232172760844
30
2.0000000000018336
11
639.943300110533
21
244.6091068039197
31
2.000000000001805
  0
LINE
 8
Group#2
10
638.1435489923125
20
242.26362548185867
30
2.000000000001835
11
638.5576594644762
21
242.20910680392305
31
2.0000000000018496
  0
LINE
 8
Group#2
10
610.1717699366368
20
248.8838223114905
30
2.0000000000018963
11
609.7576594644715
21
248.93834098942614
31
2.0000000000018963
  0
LINE
 8
Group#2
10
638.9717699366396
20
242.26362548185867
30
2.0000000000018203
11
639.3576594644768
21
242.42346615786937
31
2.000000000001806
  0
LINE
 8
Group#2
10
611.1433001105286
20
256.53834098942673
30
2.000000000001819
11
611.3031407865336
21
256.9242305172621
31
2.000000000001812
  0
LINE
 8
Group#2
10
639.942886748691
20
123.79692012040496
30
2.0000000000019793
11
639.9974054266286
21
124.21103059256838
31
2.0000000000019353
  0
LINE
 8
Group#2
10
611.1433001105286
20
248.1383409894272
30
2.000000000001918
11
610.8890303143702
21
248.4697118393196
31
2.000000000001911
  0
LINE
 8
Group#2
10
610.1717699366368
20
245.7928596673588
30
2.000000000001927
11
610.5576594644722
21
245.95270034336215
31
2.0000000000018976
  0
LINE
 8
Group#2
10
611.3031407865336
20
247.7524514615919
30
2.00000000000194
11
611.1433001105286
21
248.1383409894272
31
2.000000000001918
  0
LINE
 8
Group#2
10
608.3720188184164
20
246.53834098942946
30
2.000000000001927
11
608.626288614573
21
246.20697013952238
31
2.0000000000019416
  0
LINE
 8
Group#2
10
638.8115158987869
20
222.54119361752197
30
2.000000000001847
11
639.1974054266224
21
222.70103429353273
31
2.0000000000018323
  0
LINE
 8
Group#2
10
639.943300110533
20
244.6091068039197
30
2.000000000001805
11
639.6890303143765
21
244.9404776538269
31
2.000000000001848
  0
LINE
 8
Group#2
10
630.5974054266286
20
234.82538994652538
30
2.0000000000018994
11
630.9832949544641
21
234.66554927050723
31
2.000000000001914
  0
LINE
 8
Group#2
10
639.528776276522
20
222.95530408968557
30
2.0000000000018323
11
639.7830460726766
21
223.28667493958517
31
2.000000000001846
  0
LINE
 8
Group#2
10
639.783046072684
20
125.01103059256717
30
2.000000000001906
11
639.5287762765275
21
125.34240144246708
31
2.000000000001949
  0
LINE
 8
Group#2
10
639.6890303143748
20
242.67773595402218
30
2.0000000000018345
11
639.9433001105313
21
243.00910680392195
31
2.0000000000018052
  0
LINE
 8
Group#2
10
608.3720188184164
20
258.1383409894246
30
2.000000000001826
11
608.2121781424092
21
257.75245146158915
31
2.0000000000018194
  0
LINE
 8
Group#2
10
608.626288614573
20
256.2069701395196
30
2.000000000001878
11
608.9576594644726
21
255.95270034337423
31
2.0000000000018994
  0
LINE
 8
Group#2
10
637.0121781424139
20
243.3949963317573
30
2.000000000001835
11
637.1720188184228
21
243.00910680392195
31
2.000000000001835
  0
LINE
 8
Group#2
10
637.1720188184228
20
243.00910680392195
30
2.000000000001835
11
637.4262886145775
21
242.67773595402218
31
2.0000000000018354
  0
LINE
 8
Group#2
10
639.528776276522
20
225.21804578949005
30
2.000000000001845
11
639.1974054266241
21
225.47231558565034
31
2.0000000000018594
  0
LINE
 8
Group#2
10
639.1974054266224
20
222.70103429353273
30
2.0000000000018323
11
639.528776276522
21
222.95530408968557
31
2.0000000000018323
  0
LINE
 8
Group#2
10
638.5576594644779
20
245.40910680392602
30
2.000000000001833
11
638.1435489923125
21
245.3545881259904
31
2.0000000000018336
  0
LINE
 8
Group#2
10
607.7576594644725
20
100.1296145698996
30
2.000000000003821
11
608.4966505695708
21
99.82351443170101
31
2.00000000000385
  0
LINE
 8
Group#2
10
629.0929737615111
20
251.28270606326993
30
2.0000000000018394
11
628.0076594644726
21
250.8331541620074
31
2.000000000001811
  0
LINE
 8
Group#2
10
610.7929356448842
20
99.73001287988745
30
2.0000000000038205
11
611.018668359376
21
99.82351443170101
31
2.000000000003849
  0
LINE
 8
Group#2
10
609.7576594644715
20
248.93834098942614
30
2.0000000000018963
11
609.3435489923079
21
248.8838223114905
31
2.0000000000018967
  0
LINE
 8
Group#2
10
609.3435489923079
20
255.79285966735614
30
2.000000000001914
11
609.7576594644715
21
255.7383409894279
31
2.0000000000018923
  0
LINE
 8
Group#2
10
608.3720188184164
20
248.1383409894272
30
2.000000000001919
11
608.2121781424092
21
247.7524514615919
31
2.0000000000019407
  0
LINE
 8
Group#2
10
610.5576594644722
20
245.95270034336215
30
2.0000000000018976
11
610.8890303143702
21
246.20697013952238
31
2.0000000000019407
  0
LINE
 8
Group#2
10
609.7576594644715
20
245.7383409894231
30
2.0000000000019127
11
610.1717699366368
21
245.7928596673588
31
2.000000000001927
  0
LINE
 8
Group#2
10
638.9717699366414
20
245.3545881259904
30
2.000000000001833
11
638.5576594644779
21
245.40910680392602
31
2.000000000001833
  0
LINE
 8
Group#2
10
609.3435489923079
20
248.8838223114905
30
2.0000000000018967
11
608.9576594644726
21
248.72398163547982
31
2.0000000000019185
  0
LINE
 8
Group#2
10
638.5576594644762
20
242.20910680392305
30
2.0000000000018496
11
638.9717699366396
21
242.26362548185867
31
2.0000000000018203
  0
LINE
 8
Group#2
10
606.929232339725
20
106.42214330978936
30
2.0000000000001212
11
606.2935578493336
21
105.59371618504758
31
2.0000000000001505
  0
LINE
 8
Group#2
10
612.5860865892163
20
106.42214330978936
30
2.0000000000019966
11
611.7576594644706
21
107.057817800179
31
2.0000000000001625
  0
LINE
 8
Group#2
10
613.6213627696269
20
104.62899236545542
30
2.0000000000019686
11
613.2217610796093
21
105.59371618504758
31
2.0000000000020117
  0
LINE
 8
Group#2
10
612.5860865892182
20
100.76528906030373
30
2.000000000003834
11
613.2217610796093
21
101.59371618504574
31
2.000000000003862
  0
LINE
 8
Group#2
10
631.4223451674346
20
251.28270606326993
30
2.000000000001839
11
630.2576594644719
21
251.43603984497088
31
2.000000000001832
  0
LINE
 8
Group#2
10
613.7576594644715
20
103.59371618504667
30
2.000000000001998
11
613.6213627696269
21
104.62899236545542
31
2.0000000000019686
  0
LINE
 8
Group#2
10
632.5076594644711
20
250.8331541620074
30
2.00000000000181
11
631.4223451674346
21
251.28270606326993
31
2.000000000001839
  0
LINE
 8
Group#2
10
608.9576594644726
20
258.72398163547706
30
2.000000000001804
11
608.626288614573
21
258.46971183932425
31
2.0000000000018185
  0
LINE
 8
Group#2
10
608.157659464472
20
257.33834098942566
30
2.0000000000018767
11
608.2121781424092
21
256.9242305172621
31
2.0000000000018923
  0
LINE
 8
Group#2
10
613.6213627696288
20
102.55844000463763
30
2.000000000001984
11
613.7576594644715
21
103.59371618504667
31
2.000000000001998
  0
LINE
 8
Group#2
10
607.7576594644707
20
107.057817800179
30
2.000000000000164
11
606.929232339725
21
106.42214330978936
31
2.0000000000001212
  0
LINE
 8
Group#2
10
626.3605451474406
20
244.68603984496772
30
2.0000000000018656
11
627.0756789491315
21
243.75405932962664
31
2.000000000001924
  0
LINE
 8
Group#2
10
606.9292323397269
20
100.76528906028902
30
2.0000000000020304
11
607.7576594644725
21
100.1296145698996
31
2.000000000003821
  0
LINE
 8
Group#2
10
613.2217610796093
20
101.59371618504574
30
2.000000000003862
11
613.6213627696288
21
102.55844000463763
31
2.000000000001984
  0
LINE
 8
Group#2
10
609.7576594644715
20
258.93834098942347
30
2.0000000000018034
11
609.3435489923079
21
258.88382231148785
31
2.00000000000184
  0
LINE
 8
Group#2
10
608.2121781424092
20
246.92423051726487
30
2.000000000001927
11
608.3720188184164
21
246.53834098942946
31
2.000000000001927
  0
LINE
 8
Group#2
10
611.1433001105286
20
258.1383409894246
30
2.0000000000018257
11
610.8890303143702
21
258.46971183932425
31
2.000000000001818
  0
LINE
 8
Group#2
10
611.3576594644712
20
247.33834098942833
30
2.0000000000019402
11
611.3031407865336
21
247.7524514615919
31
2.00000000000194
  0
LINE
 8
Group#2
10
606.2935578493355
20
101.59371618504565
30
2.0000000000020157
11
606.9292323397269
21
100.76528906028902
31
2.0000000000020304
  0
LINE
 8
Group#2
10
639.6890303143765
20
244.9404776538269
30
2.000000000001848
11
639.3576594644768
21
245.19474744997225
31
2.0000000000018185
  0
LINE
 8
Group#2
10
639.3576594644768
20
242.42346615786937
30
2.000000000001806
11
639.6890303143748
21
242.67773595402218
31
2.0000000000018345
  0
LINE
 8
Group#2
10
610.8890303143702
20
248.4697118393196
30
2.000000000001911
11
610.5576594644722
21
248.72398163547982
31
2.000000000001918
  0
LINE
 8
Group#2
10
608.2121781424092
20
247.7524514615919
30
2.0000000000019407
11
608.157659464472
21
247.33834098942833
31
2.000000000001941
  0
LINE
 8
Group#2
10
610.1717699366368
20
258.88382231148785
30
2.00000000000184
11
609.7576594644715
21
258.93834098942347
31
2.0000000000018034
  0
LINE
 8
Group#2
10
629.0929737615111
20
242.58937362667498
30
2.0000000000018807
11
630.2576594644719
21
242.43603984497412
31
2.000000000001909
  0
LINE
 8
Group#2
10
608.626288614573
20
246.20697013952238
30
2.0000000000019416
11
608.9576594644726
21
245.95270034336215
31
2.0000000000018985
  0
LINE
 8
Group#2
10
565.3538118871794
20
101.05115391051605
30
2.000000000001998
11
565.4151453998579
21
100.58527962934886
31
2.000000000001998
  0
LINE
 8
Group#2
10
610.5576594644722
20
258.72398163547706
30
2.0000000000018034
11
610.1717699366368
21
258.88382231148785
31
2.00000000000184
  0
LINE
 8
Group#2
10
608.9576594644726
20
245.95270034336215
30
2.0000000000018985
11
609.3435489923079
21
245.7928596673588
31
2.0000000000019273
  0
LINE
 8
Group#2
10
609.3435489923079
20
258.88382231148785
30
2.00000000000184
11
608.9576594644726
21
258.72398163547706
31
2.000000000001804
  0
LINE
 8
Group#2
10
609.3435489923079
20
245.7928596673588
30
2.0000000000019273
11
609.7576594644715
21
245.7383409894231
31
2.0000000000019127
  0
LINE
 8
Group#2
10
637.1720188184228
20
244.6091068039197
30
2.0000000000018052
11
637.0121781424158
21
244.2232172760844
31
2.000000000001834
  0
LINE
 8
Group#2
10
609.7576594644715
20
255.7383409894279
30
2.0000000000018923
11
610.1717699366368
21
255.79285966735614
31
2.000000000001914
  0
LINE
 8
Group#2
10
610.5576594644722
20
248.72398163547982
30
2.000000000001918
11
610.1717699366368
21
248.8838223114905
31
2.0000000000018963
  0
LINE
 8
Group#2
10
610.8890303143702
20
258.46971183932425
30
2.000000000001818
11
610.5576594644722
21
258.72398163547706
31
2.0000000000018034
  0
LINE
 8
Group#2
10
608.3720188184164
20
256.53834098942673
30
2.000000000001921
11
608.626288614573
21
256.2069701395196
31
2.000000000001878
  0
LINE
 8
Group#2
10
611.3031407865336
20
246.92423051726487
30
2.0000000000019265
11
611.3576594644712
21
247.33834098942833
31
2.0000000000019402
  0
LINE
 8
Group#2
10
608.2121781424092
20
256.9242305172621
30
2.0000000000018923
11
608.3720188184164
21
256.53834098942673
31
2.000000000001921
  0
LINE
 8
Group#2
10
611.3031407865336
20
257.75245146158915
30
2.0000000000018185
11
611.1433001105286
21
258.1383409894246
31
2.0000000000018257
  0
LINE
 8
Group#2
10
611.3031407865336
20
256.9242305172621
30
2.000000000001812
11
611.3576594644712
21
257.33834098942566
31
2.000000000001833
  0
LINE
 8
Group#2
10
611.7576594644706
20
107.057817800179
30
2.0000000000001625
11
611.0186683593723
21
107.3639179383848
31
2.0000000000001483
  0
LINE
 8
Group#2
10
628.0076594644726
20
243.03892552793752
30
2.0000000000018954
11
629.0929737615111
21
242.58937362667498
31
2.0000000000018807
  0
LINE
 8
Group#2
10
610.8890303143702
20
246.20697013952238
30
2.0000000000019407
11
611.1433001105286
21
246.53834098942946
31
2.0000000000019265
  0
LINE
 8
Group#2
10
637.4262886145775
20
242.67773595402218
30
2.0000000000018354
11
637.7576594644753
21
242.42346615786937
31
2.000000000001835
  0
LINE
 8
Group#2
10
610.7929356448805
20
107.45741949019836
30
2.0000000000001625
11
609.7576594644715
21
107.59371618504848
31
2.0000000000001776
  0
LINE
 8
Group#2
10
625.9109932461727
20
248.1007255479352
30
2.000000000001864
11
625.7576594644717
21
246.93603984496886
31
2.000000000001908
  0
LINE
 8
Group#2
10
636.9576594644782
20
243.80910680392088
30
2.0000000000018203
11
637.0121781424139
21
243.3949963317573
31
2.000000000001835
  0
LINE
 8
Group#2
10
625.9109932461727
20
245.77135414200978
30
2.0000000000019087
11
626.3605451474406
21
244.68603984496772
31
2.0000000000018656
  0
LINE
 8
Group#2
10
627.0756789491315
20
250.11802036031835
30
2.000000000001826
11
626.3605451474406
21
249.1860398449772
31
2.000000000001834
  0
LINE
 8
Group#2
10
609.7576594644715
20
107.59371618504848
30
2.0000000000001776
11
608.7223832840609
21
107.45741949019836
31
2.0000000000001634
  0
LINE
 8
Group#2
10
608.2121781424092
20
257.75245146158915
30
2.0000000000018194
11
608.157659464472
21
257.33834098942566
31
2.0000000000018767
  0
LINE
 8
Group#2
10
579.7322728562663
20
224.886674939583
30
2.0000000000018323
11
579.9865426524209
21
225.21804578949013
31
2.0000000000018323
  0
LINE
 8
Group#2
10
579.9865426524154
20
125.34240144246698
30
2.0000000000019793
11
580.3179135023133
21
125.59667123862721
31
2.000000000001936
  0
LINE
 8
Group#2
10
581.1179135023158
20
122.61103059256328
30
2.000000000002009
11
580.7038030301505
21
122.66554927051367
31
2.0000000000019806
  0
LINE
 8
Group#2
10
582.2492843522125
20
123.07965974267731
30
2.0000000000019513
11
581.9179135023147
21
122.82538994651699
31
2.0000000000019513
  0
LINE
 8
Group#2
10
651.8956327605821
20
99.31248742320462
30
2.0000000000019043
11
652.3615070417662
21
99.25115391052412
31
2.0000000000018896
  0
LINE
 8
Group#2
10
579.9865426524228
20
222.95530408968548
30
2.0000000000018767
11
579.7322728562663
21
223.28667493958517
31
2.000000000001862
  0
LINE
 8
Group#2
10
579.5724321802593
20
223.67256446742056
30
2.0000000000018616
11
579.5179135023218
21
224.08667493958413
31
2.0000000000018616
  0
LINE
 8
Group#2
10
580.3179135023207
20
225.4723155856503
30
2.000000000001846
11
580.703803030156
21
225.63215626165368
31
2.000000000001846
  0
LINE
 8
Group#2
10
651.0887148356311
20
99.778361704394
30
2.0000000000018896
11
651.4615070417645
21
99.49230818371099
31
2.0000000000018896
  0
LINE
 8
Group#2
10
653.2615070417659
20
99.49230818371099
30
2.000000000001889
11
653.6342992479013
21
99.778361704394
31
2.0000000000018887
  0
LINE
 8
Group#2
10
579.7322728562606
20
125.01103059256738
30
2.0000000000019647
11
579.9865426524154
21
125.34240144246698
31
2.0000000000019793
  0
LINE
 8
Group#2
10
582.6633948243834
20
223.67256446742056
30
2.0000000000018607
11
582.5035541483766
21
223.28667493958517
31
2.000000000001861
  0
LINE
 8
Group#2
10
650.561507041765
20
101.05115391053089
30
2.00000000000186
11
650.6228405544452
21
100.58527962934876
31
2.000000000001889
  0
LINE
 8
Group#2
10
582.24928435222
20
222.95530408969287
30
2.0000000000018616
11
581.9179135023204
21
222.70103429353264
31
2.0000000000018474
  0
LINE
 8
Group#2
10
650.6228405544452
20
101.51702819170562
30
2.00000000000186
11
650.561507041765
21
101.05115391053089
31
2.00000000000186
  0
LINE
 8
Group#2
10
581.5320239744794
20
122.66554927051367
30
2.0000000000019806
11
581.1179135023158
21
122.61103059256328
31
2.000000000002009
  0
LINE
 8
Group#2
10
582.5035541483766
20
223.28667493958517
30
2.000000000001861
11
582.24928435222
21
222.95530408969287
31
2.0000000000018616
  0
LINE
 8
Group#2
10
579.5179135023218
20
224.08667493958413
30
2.0000000000018616
11
579.5724321802574
21
224.50078541174767
31
2.000000000001861
  0
LINE
 8
Group#2
10
652.3615070417662
20
99.25115391052412
30
2.0000000000018896
11
652.82738132295
21
99.31248742320462
31
2.000000000001904
  0
LINE
 8
Group#2
10
653.6342992479013
20
99.778361704394
30
2.0000000000018887
11
653.9203527685787
21
100.15115391052008
31
2.000000000001845
  0
LINE
 8
Group#2
10
582.2492843522181
20
225.21804578949005
30
2.000000000001875
11
582.5035541483746
21
224.886674939583
31
2.0000000000018314
  0
LINE
 8
Group#2
10
581.5320239744775
20
125.7565119146306
30
2.0000000000019638
11
581.1179135023141
21
125.81103059256621
31
2.0000000000019353
  0
LINE
 8
Group#2
10
582.717913502321
20
224.08667493958413
30
2.0000000000018607
11
582.6633948243834
21
223.67256446742056
31
2.0000000000018607
  0
LINE
 8
Group#2
10
654.1001735290871
20
101.51702819170562
30
2.000000000001859
11
653.9203527685787
21
101.95115391052698
31
2.0000000000019162
  0
LINE
 8
Group#2
10
652.82738132295
20
102.78982039784246
30
2.0000000000018585
11
652.3615070417662
21
102.85115391052294
31
2.000000000001873
  0
LINE
 8
Group#2
10
581.9179135023147
20
125.59667123862721
30
2.0000000000019353
11
581.5320239744775
21
125.7565119146306
31
2.0000000000019638
  0
LINE
 8
Group#2
10
581.5320239744849
20
222.54119361752197
30
2.000000000001862
11
581.1179135023215
21
222.48667493958632
31
2.000000000001848
  0
LINE
 8
Group#2
10
580.7038030301579
20
222.54119361752197
30
2.0000000000018625
11
580.3179135023207
21
222.70103429353264
31
2.000000000001848
  0
LINE
 8
Group#2
10
582.5035541483746
20
224.886674939583
30
2.0000000000018314
11
582.6633948243834
21
224.50078541174767
31
2.0000000000018607
  0
LINE
 8
Group#2
10
581.5320239744832
20
225.63215626165368
30
2.0000000000019176
11
581.9179135023204
21
225.4723155856503
31
2.0000000000019322
  0
LINE
 8
Group#2
10
582.0890303143656
20
244.94047765382683
30
2.000000000001863
11
582.3433001105221
21
244.6091068039197
31
2.000000000001834
  0
LINE
 8
Group#2
10
582.3433001105221
20
243.00910680392195
30
2.0000000000018203
11
582.0890303143656
21
242.67773595402227
31
2.0000000000019074
  0
LINE
 8
Group#2
10
579.4121781424046
20
244.2232172760844
30
2.0000000000018785
11
579.5720188184098
21
244.6091068039197
31
2.0000000000018345
  0
LINE
 8
Group#2
10
581.9179135023204
20
222.70103429353264
30
2.0000000000018474
11
581.5320239744849
21
222.54119361752197
31
2.000000000001862
  0
LINE
 8
Group#2
10
581.1179135023215
20
222.48667493958632
30
2.000000000001848
11
580.7038030301579
21
222.54119361752197
31
2.0000000000018625
  0
LINE
 8
Group#2
10
639.4887148356305
20
82.23215674885901
30
2.0000000000018456
11
639.202661314955
21
81.85936454272553
31
2.000000000001889
  0
LINE
 8
Group#2
10
579.5724321802574
20
224.50078541174767
30
2.000000000001861
11
579.7322728562663
21
224.886674939583
31
2.0000000000018323
  0
LINE
 8
Group#2
10
589.7179135023152
20
236.2110305925768
30
2.000000000001895
11
589.6633948243777
21
235.79692012041323
31
2.0000000000018807
  0
LINE
 8
Group#2
10
582.6633948243834
20
224.50078541174767
30
2.0000000000018607
11
582.717913502321
21
224.08667493958413
31
2.0000000000018607
  0
LINE
 8
Group#2
10
580.317913502315
20
122.82538994651699
30
2.0000000000019518
11
579.9865426524171
21
123.07965974267731
31
2.0000000000019518
  0
LINE
 8
Group#2
10
581.9179135023147
20
122.82538994651699
30
2.0000000000019513
11
581.5320239744794
21
122.66554927051367
31
2.0000000000019806
  0
LINE
 8
Group#2
10
642.0342992479024
20
79.68657233658529
30
2.0000000000019043
11
642.3203527685781
21
80.05936454273352
31
2.000000000001875
  0
LINE
 8
Group#2
10
639.8615070417658
20
79.40051881591712
30
2.0000000000019047
11
640.2956327605817
21
79.2206980554031
31
2.0000000000019047
  0
LINE
 8
Group#2
10
650.8026613149538
20
100.15115391052008
30
2.000000000001846
11
651.0887148356311
21
99.778361704394
31
2.0000000000018896
  0
LINE
 8
Group#2
10
579.9865426524171
20
123.07965974267731
30
2.0000000000019518
11
579.7322728562606
21
123.41103059256224
31
2.000000000001995
  0
LINE
 8
Group#2
10
642.5001735290863
20
80.49349026153996
30
2.000000000001889
11
642.5615070417649
21
80.95936454272962
31
2.0000000000018887
  0
LINE
 8
Group#2
10
653.6342992479013
20
102.32394611666034
30
2.000000000001902
11
653.2615070417659
21
102.60999963734338
31
2.0000000000018585
  0
LINE
 8
Group#2
10
654.1001735290871
20
100.58527962934876
30
2.0000000000018883
11
654.1615070417655
21
101.05115391053089
31
2.0000000000018594
  0
LINE
 8
Group#2
10
581.1179135023194
20
225.6866749395819
30
2.000000000001918
11
581.5320239744832
21
225.63215626165368
31
2.0000000000019176
  0
LINE
 8
Group#2
10
581.9179135023204
20
225.4723155856503
30
2.0000000000019322
11
582.2492843522181
21
225.21804578949005
31
2.000000000001875
  0
LINE
 8
Group#2
10
652.82738132295
20
99.31248742320462
30
2.000000000001904
11
653.2615070417659
21
99.49230818371099
31
2.000000000001889
  0
LINE
 8
Group#2
10
579.8262886145701
20
242.67773595402227
30
2.000000000001908
11
579.5720188184116
21
243.00910680392195
31
2.000000000001908
  0
LINE
 8
Group#2
10
652.3615070417662
20
102.85115391052294
30
2.000000000001873
11
651.8956327605804
21
102.78982039784246
31
2.0000000000018585
  0
LINE
 8
Group#2
10
639.202661314955
20
81.85936454272553
30
2.000000000001889
11
639.0228405544466
21
81.4252388239116
31
2.000000000001904
  0
LINE
 8
Group#2
10
651.4615070417645
20
99.49230818371099
30
2.0000000000018896
11
651.8956327605821
21
99.31248742320462
31
2.0000000000019043
  0
LINE
 8
Group#2
10
582.5031407865291
20
244.2232172760844
30
2.0000000000018487
11
582.5576594644666
21
243.80910680392088
31
2.0000000000018487
  0
LINE
 8
Group#2
10
584.078653428208
20
134.87904189935077
30
2.0000000000019003
11
583.8243836320515
21
134.54767104945836
31
2.000000000001857
  0
LINE
 8
Group#2
10
589.5035541483688
20
237.01103059257554
30
2.0000000000018945
11
589.6633948243777
21
236.62514106474032
31
2.0000000000018945
  0
LINE
 8
Group#2
10
580.3179135023133
20
125.59667123862721
30
2.000000000001936
11
580.7038030301505
21
125.7565119146306
31
2.0000000000019638
  0
LINE
 8
Group#2
10
653.9203527685787
20
101.95115391052698
30
2.0000000000019162
11
653.6342992479013
21
102.32394611666034
31
2.000000000001902
  0
LINE
 8
Group#2
10
581.1179135023141
20
125.81103059256621
30
2.0000000000019353
11
580.7038030301505
21
125.7565119146306
31
2.0000000000019638
  0
LINE
 8
Group#2
10
640.7615070417656
20
79.15936454272286
30
2.000000000001933
11
641.2273813229497
21
79.2206980554031
31
2.0000000000019047
  0
LINE
 8
Group#2
10
580.5435489923016
20
245.3545881259904
30
2.0000000000018483
11
580.957659464465
21
245.40910680392602
31
2.000000000001834
  0
LINE
 8
Group#2
10
651.8956327605804
20
102.78982039784246
30
2.0000000000018585
11
651.4615070417645
21
102.60999963734338
31
2.000000000001859
  0
LINE
 8
Group#2
10
640.2956327605817
20
82.69803103004114
30
2.000000000001946
11
639.8615070417658
21
82.51821026953453
31
2.0000000000018883
  0
LINE
 8
Group#2
10
582.2492843522125
20
125.34240144246698
30
2.000000000001979
11
581.9179135023147
21
125.59667123862721
31
2.0000000000019353
  0
LINE
 8
Group#2
10
579.5724321802519
20
123.79692012040496
30
2.00000000000198
11
579.5179135023144
21
124.21103059256848
31
2.0000000000019513
  0
LINE
 8
Group#2
10
579.7322728562663
20
223.28667493958517
30
2.000000000001862
11
579.5724321802593
21
223.67256446742056
31
2.0000000000018616
  0
LINE
 8
Group#2
10
580.9576594644669
20
242.20910680392296
30
2.0000000000018647
11
580.5435489923034
21
242.26362548185867
31
2.000000000001908
  0
LINE
 8
Group#2
10
650.6228405544452
20
100.58527962934876
30
2.000000000001889
11
650.8026613149538
21
100.15115391052008
31
2.000000000001846
  0
LINE
 8
Group#2
10
653.9203527685787
20
100.15115391052008
30
2.000000000001845
11
654.1001735290871
21
100.58527962934876
31
2.0000000000018883
  0
LINE
 8
Group#2
10
580.3179135023207
20
222.70103429353264
30
2.000000000001848
11
579.9865426524228
21
222.95530408968548
31
2.0000000000018767
  0
LINE
 8
Group#2
10
580.7038030301505
20
122.66554927051367
30
2.0000000000019806
11
580.317913502315
21
122.82538994651699
31
2.0000000000019518
  0
LINE
 8
Group#2
10
589.6633948243777
20
236.62514106474032
30
2.0000000000018945
11
589.7179135023152
21
236.2110305925768
31
2.000000000001895
  0
LINE
 8
Group#2
10
651.4615070417645
20
102.60999963734338
30
2.000000000001859
11
651.0887148356311
21
102.32394611666034
31
2.0000000000019025
  0
LINE
 8
Group#2
10
653.2615070417659
20
102.60999963734338
30
2.0000000000018585
11
652.82738132295
21
102.78982039784246
31
2.0000000000018585
  0
LINE
 8
Group#2
10
579.5724321802519
20
124.62514106472449
30
2.000000000001951
11
579.7322728562606
21
125.01103059256738
31
2.0000000000019647
  0
LINE
 8
Group#2
10
580.703803030156
20
225.63215626165368
30
2.000000000001846
11
581.1179135023194
21
225.6866749395819
31
2.000000000001918
  0
LINE
 8
Group#2
10
642.5615070417649
20
80.95936454272962
30
2.0000000000018887
11
642.5001735290863
21
81.4252388239116
31
2.0000000000019464
  0
LINE
 8
Group#2
10
580.5435489923034
20
242.26362548185867
30
2.000000000001908
11
580.157659464468
21
242.42346615786937
31
2.0000000000019083
  0
LINE
 8
Group#2
10
579.5720188184116
20
243.00910680392195
30
2.000000000001908
11
579.4121781424046
21
243.3949963317573
31
2.0000000000019367
  0
LINE
 8
Group#2
10
582.3433001105221
20
244.6091068039197
30
2.000000000001834
11
582.5031407865291
21
244.2232172760844
31
2.0000000000018487
  0
LINE
 8
Group#2
10
582.5576594644666
20
243.80910680392088
30
2.0000000000018487
11
582.5031407865291
21
243.39499633175728
31
2.000000000001849
  0
LINE
 8
Group#2
10
654.1615070417655
20
101.05115391053089
30
2.0000000000018594
11
654.1001735290871
21
101.51702819170562
31
2.000000000001859
  0
LINE
 8
Group#2
10
579.7322728562606
20
123.41103059256224
30
2.000000000001995
11
579.5724321802519
21
123.79692012040496
31
2.00000000000198
  0
LINE
 8
Group#2
10
651.0887148356311
20
102.32394611666034
30
2.0000000000019025
11
650.8026613149538
21
101.95115391052698
31
2.000000000001917
  0
LINE
 8
Group#2
10
579.9865426524209
20
225.21804578949013
30
2.0000000000018323
11
580.3179135023207
21
225.4723155856503
31
2.000000000001846
  0
LINE
 8
Group#2
10
650.8026613149538
20
101.95115391052698
30
2.000000000001917
11
650.6228405544452
21
101.51702819170562
31
2.00000000000186
  0
LINE
 8
Group#2
10
582.5031407865291
20
243.39499633175728
30
2.000000000001849
11
582.3433001105221
21
243.00910680392195
31
2.0000000000018203
  0
LINE
 8
Group#2
10
640.7615070417656
20
82.75936454272158
30
2.0000000000019607
11
640.2956327605817
21
82.69803103004114
31
2.000000000001946
  0
LINE
 8
Group#2
10
641.6615070417652
20
82.51821026953466
30
2.00000000000196
11
641.2273813229497
21
82.69803103004114
31
2.000000000001946
  0
LINE
 8
Group#2
10
579.5179135023144
20
124.21103059256848
30
2.0000000000019513
11
579.5724321802519
21
124.62514106472449
31
2.000000000001951
  0
LINE
 8
Group#2
10
587.7038030301502
20
237.75651191463882
30
2.0000000000018945
11
588.1179135023137
21
237.8110305925745
31
2.0000000000018945
  0
LINE
 8
Group#2
10
580.957659464465
20
245.40910680392602
30
2.000000000001834
11
581.3717699366305
21
245.3545881259904
31
2.0000000000018483
  0
LINE
 8
Group#2
10
640.2956327605817
20
79.2206980554031
30
2.0000000000019047
11
640.7615070417656
21
79.15936454272286
31
2.000000000001933
  0
LINE
 8
Group#2
10
638.9615070417661
20
80.95936454272962
30
2.0000000000018896
11
639.0228405544466
21
80.49349026153996
31
2.00000000000189
  0
LINE
 8
Group#2
10
641.2273813229497
20
82.69803103004114
30
2.000000000001946
11
640.7615070417656
21
82.75936454272158
31
2.0000000000019607
  0
LINE
 8
Group#2
10
581.7576594644677
20
242.42346615786937
30
2.0000000000019074
11
581.3717699366322
21
242.26362548185867
31
2.000000000001908
  0
LINE
 8
Group#2
10
589.2492843522142
20
235.0796597426708
30
2.0000000000018527
11
588.9179135023145
21
234.82538994652532
31
2.000000000001896
  0
LINE
 8
Group#2
10
641.2273813229497
20
79.2206980554031
30
2.0000000000019047
11
641.6615070417652
21
79.40051881591712
31
2.0000000000019043
  0
LINE
 8
Group#2
10
639.0228405544466
20
80.49349026153996
30
2.00000000000189
11
639.202661314955
21
80.05936454273352
31
2.000000000001876
  0
LINE
 8
Group#2
10
589.5035541483709
20
235.41103059257787
30
2.000000000001881
11
589.2492843522142
21
235.0796597426708
31
2.0000000000018527
  0
LINE
 8
Group#2
10
588.5320239744791
20
234.66554927050723
30
2.0000000000018963
11
588.1179135023156
21
234.61103059257155
31
2.000000000001882
  0
LINE
 8
Group#2
10
642.3203527685781
20
80.05936454273352
30
2.000000000001875
11
642.5001735290863
21
80.49349026153996
31
2.000000000001889
  0
LINE
 8
Group#2
10
639.8615070417658
20
82.51821026953453
30
2.0000000000018883
11
639.4887148356305
21
82.23215674885901
31
2.0000000000018456
  0
LINE
 8
Group#2
10
579.4121781424046
20
243.3949963317573
30
2.0000000000019367
11
579.3576594644653
21
243.80910680392083
31
2.000000000001922
  0
LINE
 8
Group#2
10
641.6615070417652
20
79.40051881591712
30
2.0000000000019043
11
642.0342992479024
21
79.68657233658529
31
2.0000000000019043
  0
LINE
 8
Group#2
10
586.5724321802534
20
235.79692012041323
30
2.0000000000018816
11
586.517913502316
21
236.2110305925768
31
2.000000000001896
  0
LINE
 8
Group#2
10
588.5320239744773
20
237.75651191463882
30
2.000000000001894
11
588.9179135023145
21
237.59667123862812
31
2.000000000001894
  0
LINE
 8
Group#2
10
581.3717699366322
20
242.26362548185867
30
2.000000000001908
11
580.9576594644669
21
242.20910680392296
31
2.0000000000018647
  0
LINE
 8
Group#2
10
570.9576594644752
20
224.88859872823204
30
2.0000000000018345
11
570.5435489923117
21
224.94311740616766
31
2.000000000001849
  0
LINE
 8
Group#2
10
579.8262886145684
20
244.94047765382683
30
2.0000000000018634
11
580.1576594644662
21
245.19474744997225
31
2.000000000001834
  0
LINE
 8
Group#2
10
580.157659464468
20
242.42346615786937
30
2.0000000000019083
11
579.8262886145701
21
242.67773595402227
31
2.000000000001908
  0
LINE
 8
Group#2
10
569.8262886145766
20
225.35722787833117
30
2.0000000000018203
11
569.57201881842
21
225.68859872822347
31
2.00000000000182
  0
LINE
 8
Group#2
10
580.0266040933143
20
82.23215674885901
30
2.000000000001846
11
579.653811887179
21
82.51821026953453
31
2.0000000000019473
  0
LINE
 8
Group#2
10
572.5576594644748
20
226.48859872823718
30
2.000000000001848
11
572.5031407865373
21
226.07448825605886
31
2.000000000001862
  0
LINE
 8
Group#2
10
586.7322728562605
20
237.01103059257554
30
2.0000000000018954
11
586.9865426524151
21
237.34240144246792
31
2.000000000001895
  0
LINE
 8
Group#2
10
581.3717699366305
20
245.3545881259904
30
2.0000000000018483
11
581.7576594644657
21
245.19474744997225
31
2.000000000001834
  0
LINE
 8
Group#2
10
588.1179135023156
20
234.61103059257155
30
2.000000000001882
11
587.7038030301521
21
234.66554927050723
31
2.0000000000018963
  0
LINE
 8
Group#2
10
577.4810196810424
20
82.23215674885901
30
2.000000000001847
11
577.1949661603668
21
81.85936454272549
31
2.0000000000019194
  0
LINE
 8
Group#2
10
642.3203527685781
20
81.85936454272549
30
2.000000000001946
11
642.0342992479024
21
82.23215674885905
31
2.0000000000019607
  0
LINE
 8
Group#2
10
572.3433001105303
20
225.68859872823094
30
2.0000000000018625
11
572.0890303143757
21
225.35722787833117
31
2.0000000000018194
  0
LINE
 8
Group#2
10
642.5001735290863
20
81.4252388239116
30
2.0000000000019464
11
642.3203527685781
21
81.85936454272549
31
2.000000000001946
  0
LINE
 8
Group#2
10
642.0342992479024
20
82.23215674885905
30
2.0000000000019607
11
641.6615070417652
21
82.51821026953466
31
2.00000000000196
  0
LINE
 8
Group#2
10
587.3179135023149
20
234.82538994651057
30
2.0000000000018963
11
586.986542652417
21
235.0796597426708
31
2.0000000000018527
  0
LINE
 8
Group#2
10
570.5435489923117
20
224.94311740616766
30
2.000000000001849
11
570.1576594644764
21
225.10295808217094
31
2.000000000001849
  0
LINE
 8
Group#2
10
577.8538118871796
20
82.51821026953453
30
2.000000000001948
11
577.4810196810424
21
82.23215674885901
31
2.000000000001847
  0
LINE
 8
Group#2
10
579.653811887179
20
79.40051881591712
30
2.0000000000019056
11
580.0266040933143
21
79.68657233658529
31
2.0000000000019056
  0
LINE
 8
Group#2
10
580.1576594644662
20
245.19474744997225
30
2.000000000001834
11
580.5435489923016
21
245.3545881259904
31
2.0000000000018483
  0
LINE
 8
Group#2
10
639.202661314955
20
80.05936454273352
30
2.000000000001876
11
639.4887148356305
21
79.68657233658529
31
2.0000000000019043
  0
LINE
 8
Group#2
10
581.7576594644657
20
245.19474744997225
30
2.000000000001834
11
582.0890303143656
21
244.94047765382683
31
2.000000000001863
  0
LINE
 8
Group#2
10
578.2879376059954
20
82.69803103004114
30
2.0000000000019478
11
577.8538118871796
21
82.51821026953453
31
2.000000000001948
  0
LINE
 8
Group#2
10
639.0228405544466
20
81.4252388239116
30
2.000000000001904
11
638.9615070417661
21
80.95936454272962
31
2.0000000000018896
  0
LINE
 8
Group#2
10
589.2492843522142
20
237.3424014424753
30
2.0000000000018945
11
589.5035541483688
21
237.01103059257554
31
2.0000000000018945
  0
LINE
 8
Group#2
10
577.4810196810424
20
79.68657233658529
30
2.0000000000019065
11
577.8538118871796
21
79.40051881591712
31
2.0000000000019065
  0
LINE
 8
Group#2
10
580.0266040933143
20
79.68657233658529
30
2.0000000000019056
11
580.3126576139898
21
80.05936454273352
31
2.0000000000018767
  0
LINE
 8
Group#2
10
589.6633948243777
20
235.79692012041323
30
2.0000000000018807
11
589.5035541483709
21
235.41103059257787
31
2.000000000001881
  0
LINE
 8
Group#2
10
586.7322728562605
20
235.41103059257787
30
2.000000000001882
11
586.5724321802534
21
235.79692012041323
31
2.0000000000018816
  0
LINE
 8
Group#2
10
579.2196861683632
20
82.69803103004114
30
2.0000000000019473
11
578.7538118871793
21
82.75936454272136
31
2.0000000000019043
  0
LINE
 8
Group#2
10
586.517913502316
20
236.2110305925768
30
2.000000000001896
11
586.5724321802516
21
236.62514106474032
31
2.0000000000018954
  0
LINE
 8
Group#2
10
579.5720188184098
20
244.6091068039197
30
2.0000000000018345
11
579.8262886145684
21
244.94047765382683
31
2.0000000000018634
  0
LINE
 8
Group#2
10
579.3576594644653
20
243.80910680392083
30
2.000000000001922
11
579.4121781424046
21
244.2232172760844
31
2.0000000000018785
  0
LINE
 8
Group#2
10
578.7538118871793
20
82.75936454272136
30
2.0000000000019043
11
578.2879376059954
21
82.69803103004114
31
2.0000000000019478
  0
LINE
 8
Group#2
10
579.653811887179
20
82.51821026953453
30
2.0000000000019473
11
579.2196861683632
21
82.69803103004114
31
2.0000000000019473
  0
LINE
 8
Group#2
10
580.3126576139898
20
81.85936454272549
30
2.000000000001919
11
580.0266040933143
21
82.23215674885901
31
2.000000000001846
  0
LINE
 8
Group#2
10
639.4887148356305
20
79.68657233658529
30
2.0000000000019043
11
639.8615070417658
21
79.40051881591712
31
2.0000000000019047
  0
LINE
 8
Group#2
10
569.8262886145766
20
227.61996957812843
30
2.000000000001862
11
570.1576594644745
21
227.8742393742887
31
2.0000000000018474
  0
LINE
 8
Group#2
10
582.0890303143656
20
242.67773595402227
30
2.0000000000019074
11
581.7576594644677
21
242.42346615786937
31
2.0000000000019074
  0
LINE
 8
Group#2
10
588.9179135023145
20
234.82538994652532
30
2.000000000001896
11
588.5320239744791
21
234.66554927050723
31
2.0000000000018963
  0
LINE
 8
Group#2
10
586.986542652417
20
235.0796597426708
30
2.0000000000018527
11
586.7322728562605
21
235.41103059257787
31
2.000000000001882
  0
LINE
 8
Group#2
10
587.7038030301521
20
234.66554927050723
30
2.0000000000018963
11
587.3179135023149
21
234.82538994651057
31
2.0000000000018963
  0
LINE
 8
Group#2
10
569.412178142413
20
226.07448825605886
30
2.000000000001863
11
569.3576594644755
21
226.48859872822237
31
2.0000000000018483
  0
LINE
 8
Group#2
10
580.4924783744982
20
81.4252388239116
30
2.0000000000019336
11
580.3126576139898
21
81.85936454272549
31
2.000000000001919
  0
LINE
 8
Group#2
10
577.0151453998584
20
80.49349026153996
30
2.0000000000019202
11
577.1949661603668
21
80.05936454271873
31
2.000000000001921
  0
LINE
 8
Group#2
10
569.3576594644755
20
226.48859872822237
30
2.0000000000018483
11
569.4121781424112
21
226.9027092003934
31
2.000000000001848
  0
LINE
 8
Group#2
10
586.9865426524151
20
237.34240144246792
30
2.000000000001895
11
587.3179135023149
21
237.59667123862812
31
2.000000000001895
  0
LINE
 8
Group#2
10
571.757659464476
20
225.10295808217094
30
2.0000000000018487
11
571.3717699366388
21
224.94311740616766
31
2.0000000000018487
  0
LINE
 8
Group#2
10
633.3031407865348
20
174.56296323823966
30
2.0000000000019353
11
633.1433001105275
21
174.94885276607502
31
2.000000000001935
  0
LINE
 8
Group#2
10
571.3717699366388
20
228.0340800502846
30
2.000000000001847
11
571.757659464476
21
227.8742393742887
31
2.000000000001847
  0
LINE
 8
Group#2
10
632.8890303143711
20
173.0174819161701
30
2.0000000000019074
11
633.1433001105275
21
173.34885276607724
31
2.0000000000019216
  0
LINE
 8
Group#2
10
577.8538118871796
20
79.40051881591712
30
2.0000000000019065
11
578.2879376059954
21
79.2206980554031
31
2.000000000001921
  0
LINE
 8
Group#2
10
630.3720188184157
20
174.94885276607502
30
2.0000000000019362
11
630.2121781424104
21
174.56296323823966
31
2.0000000000019362
  0
LINE
 8
Group#2
10
569.57201881842
20
225.68859872822347
30
2.00000000000182
11
569.412178142413
21
226.07448825605886
31
2.000000000001863
  0
LINE
 8
Group#2
10
569.57201881842
20
227.28859872823614
30
2.0000000000018336
11
569.8262886145766
21
227.61996957812843
31
2.000000000001862
  0
LINE
 8
Group#2
10
630.2121781424104
20
173.7347422939126
30
2.0000000000019367
11
630.3720188184157
21
173.34885276607724
31
2.0000000000019225
  0
LINE
 8
Group#2
10
580.5538118871787
20
80.95936454272966
30
2.0000000000019194
11
580.4924783744982
21
81.4252388239116
31
2.0000000000019336
  0
LINE
 8
Group#2
10
570.5435489923061
20
120.26362548186056
30
2.0000000000019846
11
570.1576594644707
21
120.42346615786386
31
2.0000000000019704
  0
LINE
 8
Group#2
10
577.0151453998584
20
81.4252388239116
30
2.0000000000019345
11
576.9538118871781
21
80.95936454272962
31
2.0000000000019202
  0
LINE
 8
Group#2
10
578.2879376059954
20
79.2206980554031
30
2.000000000001921
11
578.7538118871793
21
79.15936454272286
31
2.00000000000195
  0
LINE
 8
Group#2
10
630.3720188184157
20
173.34885276607724
30
2.0000000000019225
11
630.6262886145739
21
173.0174819161701
31
2.0000000000019083
  0
LINE
 8
Group#2
10
633.3576594644722
20
174.14885276607617
30
2.000000000001907
11
633.3031407865348
21
174.56296323823966
31
2.0000000000019353
  0
LINE
 8
Group#2
10
638.2079467928454
20
136.47904189934852
30
2.000000000001827
11
637.9536769966908
21
136.81041274925573
31
2.0000000000018705
  0
LINE
 8
Group#2
10
636.4081956746267
20
134.13356057728743
30
2.000000000001858
11
636.8223061467902
21
134.0790418993518
31
2.000000000001858
  0
LINE
 8
Group#2
10
636.8223061467902
20
134.0790418993518
30
2.000000000001858
11
637.2364166189537
21
134.13356057728743
31
2.0000000000018576
  0
LINE
 8
Group#2
10
630.6262886145739
20
175.28022361597473
30
2.000000000001907
11
630.3720188184157
21
174.94885276607502
31
2.0000000000019362
  0
LINE
 8
Group#2
10
572.3433001105285
20
227.28859872823614
30
2.0000000000018328
11
572.5031407865373
21
226.9027092003934
31
2.000000000001847
  0
LINE
 8
Group#2
10
631.7576594644727
20
172.5488527660784
30
2.000000000001894
11
632.171769936636
21
172.6033714440066
31
2.000000000001908
  0
LINE
 8
Group#2
10
632.171769936636
20
175.69433408813822
30
2.0000000000019202
11
631.7576594644727
21
175.74885276607392
31
2.000000000001906
  0
LINE
 8
Group#2
10
635.6909352968936
20
134.54767104945836
30
2.000000000001858
11
636.0223061467913
21
134.29340125329827
31
2.0000000000019016
  0
LINE
 8
Group#2
10
569.8262886145728
20
120.67773595402417
30
2.0000000000019993
11
569.5720188184164
21
121.00910680391655
31
2.0000000000020135
  0
LINE
 8
Group#2
10
569.4121781424094
20
122.22321727607888
30
2.000000000001998
11
569.5720188184164
21
122.60910680391429
31
2.0000000000020126
  0
LINE
 8
Group#2
10
580.4924783744982
20
80.49349026153996
30
2.0000000000019194
11
580.5538118871787
21
80.95936454272966
31
2.0000000000019194
  0
LINE
 8
Group#2
10
635.4366655007351
20
134.87904189935077
30
2.00000000000193
11
635.6909352968936
21
134.54767104945836
31
2.000000000001858
  0
LINE
 8
Group#2
10
577.1949661603668
20
81.85936454272549
30
2.0000000000019194
11
577.0151453998584
21
81.4252388239116
31
2.0000000000019345
  0
LINE
 8
Group#2
10
587.3179135023149
20
237.59667123862812
30
2.000000000001895
11
587.7038030301502
21
237.75651191463882
31
2.0000000000018945
  0
LINE
 8
Group#2
10
586.5724321802516
20
236.62514106474032
30
2.0000000000018954
11
586.7322728562605
21
237.01103059257554
31
2.0000000000018954
  0
LINE
 8
Group#2
10
570.1576594644745
20
227.8742393742887
30
2.0000000000018474
11
570.5435489923098
21
228.0340800502846
31
2.0000000000018474
  0
LINE
 8
Group#2
10
571.757659464476
20
227.8742393742887
30
2.000000000001847
11
572.0890303143738
21
227.61996957812843
31
2.000000000001861
  0
LINE
 8
Group#2
10
572.5031407865373
20
226.07448825605886
30
2.000000000001862
11
572.3433001105303
21
225.68859872823094
31
2.0000000000018625
  0
LINE
 8
Group#2
10
569.4121781424112
20
226.9027092003934
30
2.000000000001848
11
569.57201881842
21
227.28859872823614
31
2.0000000000018336
  0
LINE
 8
Group#2
10
570.1576594644764
20
225.10295808217094
30
2.000000000001849
11
569.8262886145766
21
225.35722787833117
31
2.0000000000018203
  0
LINE
 8
Group#2
10
588.9179135023145
20
237.59667123862812
30
2.000000000001894
11
589.2492843522142
21
237.3424014424753
31
2.0000000000018945
  0
LINE
 8
Group#2
10
569.5720188184164
20
121.00910680391655
30
2.0000000000020135
11
569.4121781424094
21
121.39499633175191
31
2.000000000001999
  0
LINE
 8
Group#2
10
638.4223061467898
20
135.67904189934956
30
2.0000000000018563
11
638.3677874688523
21
136.0931523715132
31
2.0000000000018563
  0
LINE
 8
Group#2
10
638.3677874688523
20
135.26493142718599
30
2.0000000000018425
11
638.4223061467898
21
135.67904189934956
31
2.0000000000018563
  0
LINE
 8
Group#2
10
637.9536769966887
20
134.54767104945836
30
2.000000000001843
11
638.2079467928454
21
134.87904189935077
31
2.0000000000019003
  0
LINE
 8
Group#2
10
571.3717699366388
20
224.94311740616766
30
2.0000000000018487
11
570.9576594644752
21
224.88859872823204
31
2.0000000000018345
  0
LINE
 8
Group#2
10
576.9538118871781
20
80.95936454272962
30
2.0000000000019202
11
577.0151453998584
21
80.49349026153996
31
2.0000000000019202
  0
LINE
 8
Group#2
10
578.7538118871793
20
79.15936454272286
30
2.00000000000195
11
579.2196861683632
21
79.2206980554031
31
2.000000000001921
  0
LINE
 8
Group#2
10
630.157659464473
20
174.14885276607617
30
2.0000000000019074
11
630.2121781424104
21
173.7347422939126
31
2.0000000000019367
  0
LINE
 8
Group#2
10
579.2196861683632
20
79.2206980554031
30
2.000000000001921
11
579.653811887179
21
79.40051881591712
31
2.0000000000019056
  0
LINE
 8
Group#2
10
588.1179135023137
20
237.8110305925745
30
2.0000000000018945
11
588.5320239744773
21
237.75651191463882
31
2.000000000001894
  0
LINE
 8
Group#2
10
580.3126576139898
20
80.05936454273352
30
2.0000000000018767
11
580.4924783744982
21
80.49349026153996
31
2.0000000000019194
  0
LINE
 8
Group#2
10
630.2121781424104
20
174.56296323823966
30
2.0000000000019362
11
630.157659464473
21
174.14885276607617
31
2.0000000000019074
  0
LINE
 8
Group#2
10
570.9576594644715
20
120.20910680391754
30
2.0000000000019846
11
570.5435489923061
21
120.26362548186056
31
2.0000000000019846
  0
LINE
 8
Group#2
10
572.5031407865373
20
226.9027092003934
30
2.000000000001847
11
572.5576594644748
21
226.48859872823718
31
2.000000000001848
  0
LINE
 8
Group#2
10
632.171769936636
20
172.6033714440066
30
2.000000000001908
11
632.5576594644714
21
172.7632121200247
31
2.0000000000019225
  0
LINE
 8
Group#2
10
632.5576594644714
20
175.53449341212763
30
2.0000000000019056
11
632.171769936636
21
175.69433408813822
31
2.0000000000019202
  0
LINE
 8
Group#2
10
570.9576594644734
20
228.088598728235
30
2.000000000001818
11
571.3717699366388
21
228.0340800502846
31
2.000000000001847
  0
LINE
 8
Group#2
10
631.3435489923072
20
175.69433408813822
30
2.000000000001921
11
630.9576594644717
21
175.53449341212763
31
2.0000000000019065
  0
LINE
 8
Group#2
10
633.3031407865348
20
173.7347422939126
30
2.000000000001936
11
633.3576594644722
21
174.14885276607617
31
2.000000000001907
  0
LINE
 8
Group#2
10
572.5031407865337
20
121.39499633175191
30
2.000000000001998
11
572.3433001105266
21
121.00910680391655
31
2.0000000000020126
  0
LINE
 8
Group#2
10
577.1949661603668
20
80.05936454271873
30
2.000000000001921
11
577.4810196810424
21
79.68657233658529
31
2.0000000000019065
  0
LINE
 8
Group#2
10
637.2364166189537
20
134.13356057728743
30
2.0000000000018576
11
637.622306146791
21
134.29340125329827
31
2.0000000000019007
  0
LINE
 8
Group#2
10
637.9536769966908
20
136.81041274925573
30
2.0000000000018705
11
637.622306146791
21
137.0646825454158
31
2.0000000000018416
  0
LINE
 8
Group#2
10
572.0890303143757
20
225.35722787833117
30
2.0000000000018194
11
571.757659464476
21
225.10295808217094
31
2.0000000000018487
  0
LINE
 8
Group#2
10
570.1576594644707
20
123.19474744998165
30
2.0000000000020117
11
570.5435489923061
21
123.35458812597759
31
2.0000000000019686
  0
LINE
 8
Group#2
10
633.1433001105275
20
174.94885276607502
30
2.000000000001935
11
632.8890303143711
21
175.28022361597473
31
2.000000000001906
  0
LINE
 8
Group#2
10
572.0890303143738
20
227.61996957812843
30
2.000000000001861
11
572.3433001105285
21
227.28859872823614
31
2.0000000000018328
  0
LINE
 8
Group#2
10
570.5435489923098
20
228.0340800502846
30
2.0000000000018474
11
570.9576594644734
21
228.088598728235
31
2.000000000001818
  0
LINE
 8
Group#2
10
637.622306146791
20
137.0646825454158
30
2.0000000000018416
11
637.2364166189537
21
137.22452322141916
31
2.0000000000018563
  0
LINE
 8
Group#2
10
630.9576594644717
20
172.7632121200247
30
2.000000000001923
11
631.3435489923072
21
172.6033714440066
31
2.0000000000019083
  0
LINE
 8
Group#2
10
569.5720188184164
20
122.60910680391429
30
2.0000000000020126
11
569.8262886145728
21
122.94047765382125
31
2.0000000000019833
  0
LINE
 8
Group#2
10
630.9576594644717
20
175.53449341212763
30
2.0000000000019065
11
630.6262886145739
21
175.28022361597473
31
2.000000000001907
  0
LINE
 8
Group#2
10
572.3433001105266
20
122.60910680391429
30
2.0000000000020117
11
572.5031407865337
21
122.22321727607888
31
2.0000000000019975
  0
LINE
 8
Group#2
10
646.9576594644715
20
121.80910680391533
30
2.0000000000019496
11
647.0121781424091
21
121.39499633175191
31
2.0000000000019638
  0
LINE
 8
Group#2
10
635.276824824728
20
135.26493142718599
30
2.0000000000019007
11
635.4366655007351
21
134.87904189935077
31
2.00000000000193
  0
LINE
 8
Group#2
10
588.8890303143711
20
173.01748191617017
30
2.0000000000019336
11
588.5576594644714
21
172.7632121200247
31
2.0000000000019047
  0
LINE
 8
Group#2
10
571.371769936635
20
123.35458812597759
30
2.0000000000019678
11
571.7576594644704
21
123.19474744998165
31
2.0000000000020117
  0
LINE
 8
Group#2
10
636.0223061467913
20
137.0646825454158
30
2.000000000001842
11
635.6909352968936
21
136.81041274925573
31
2.000000000001885
  0
LINE
 8
Group#2
10
570.5435489923061
20
123.35458812597759
30
2.0000000000019686
11
570.9576594644715
21
123.4091068039132
31
2.000000000001997
  0
LINE
 8
Group#2
10
569.8262886145728
20
122.94047765382125
30
2.0000000000019833
11
570.1576594644707
21
123.19474744998165
31
2.0000000000020117
  0
LINE
 8
Group#2
10
630.6262886145739
20
173.0174819161701
30
2.0000000000019083
11
630.9576594644717
21
172.7632121200247
31
2.000000000001923
  0
LINE
 8
Group#2
10
647.4262886145744
20
120.67773595402417
30
2.000000000001964
11
647.7576594644725
21
120.42346615786386
31
2.000000000001936
  0
LINE
 8
Group#2
10
587.3435489923071
20
172.6033714440066
30
2.000000000001891
11
586.9576594644717
21
172.7632121200247
31
2.0000000000019056
  0
LINE
 8
Group#2
10
572.0890303143683
20
122.94047765382125
30
2.000000000001983
11
572.3433001105266
21
122.60910680391429
31
2.0000000000020117
  0
LINE
 8
Group#2
10
588.171769936636
20
172.6033714440066
30
2.0000000000018905
11
587.7576594644725
21
172.5488527660784
31
2.0000000000018905
  0
LINE
 8
Group#2
10
648.5576594644712
20
120.20910680391763
30
2.0000000000019353
11
648.9717699366366
21
120.26362548186066
31
2.000000000001979
  0
LINE
 8
Group#2
10
572.5031407865337
20
122.22321727607888
30
2.0000000000019975
11
572.5576594644712
21
121.80910680391533
31
2.0000000000019833
  0
LINE
 8
Group#2
10
572.0890303143701
20
120.67773595402417
30
2.0000000000019984
11
571.7576594644704
21
120.42346615786386
31
2.00000000000197
  0
LINE
 8
Group#2
10
631.7576594644727
20
175.74885276607392
30
2.000000000001906
11
631.3435489923072
21
175.69433408813822
31
2.000000000001921
  0
LINE
 8
Group#2
10
570.1576594644707
20
120.42346615786386
30
2.0000000000019704
11
569.8262886145728
21
120.67773595402417
31
2.0000000000019993
  0
LINE
 8
Group#2
10
572.5576594644712
20
121.80910680391533
30
2.0000000000019833
11
572.5031407865337
21
121.39499633175191
31
2.000000000001998
  0
LINE
 8
Group#2
10
588.5576594644714
20
172.7632121200247
30
2.0000000000019047
11
588.171769936636
21
172.6033714440066
31
2.0000000000018905
  0
LINE
 8
Group#2
10
589.3031407865345
20
174.56296323823977
30
2.000000000001904
11
589.3576594644721
21
174.14885276607617
31
2.000000000001918
  0
LINE
 8
Group#2
10
589.1433001105275
20
174.94885276607513
30
2.0000000000019034
11
589.3031407865345
21
174.56296323823977
31
2.000000000001904
  0
LINE
 8
Group#2
10
632.5576594644714
20
172.7632121200247
30
2.0000000000019225
11
632.8890303143711
21
173.0174819161701
31
2.0000000000019074
  0
LINE
 8
Group#2
10
648.1435489923078
20
120.26362548186066
30
2.0000000000019793
11
648.5576594644712
21
120.20910680391763
31
2.0000000000019353
  0
LINE
 8
Group#2
10
571.371769936635
20
120.26362548186056
30
2.000000000001984
11
570.9576594644715
21
120.20910680391754
31
2.0000000000019846
  0
LINE
 8
Group#2
10
571.7576594644704
20
123.19474744998165
30
2.0000000000020117
11
572.0890303143683
21
122.94047765382125
31
2.000000000001983
  0
LINE
 8
Group#2
10
569.3576594644719
20
121.80910680391533
30
2.000000000001984
11
569.4121781424094
21
122.22321727607888
31
2.000000000001998
  0
LINE
 8
Group#2
10
636.8223061467902
20
137.2790418993473
30
2.0000000000018705
11
636.4081956746267
21
137.22452322141916
31
2.0000000000018563
  0
LINE
 8
Group#2
10
635.6909352968936
20
136.81041274925573
30
2.000000000001885
11
635.4366655007351
21
136.47904189934852
31
2.0000000000018425
  0
LINE
 8
Group#2
10
633.1433001105275
20
173.34885276607724
30
2.0000000000019216
11
633.3031407865348
21
173.7347422939126
31
2.000000000001936
  0
LINE
 8
Group#2
10
636.0223061467913
20
134.29340125329827
30
2.0000000000019016
11
636.4081956746267
21
134.13356057728743
31
2.000000000001858
  0
LINE
 8
Group#2
10
637.622306146791
20
134.29340125329827
30
2.0000000000019007
11
637.9536769966887
21
134.54767104945836
31
2.000000000001843
  0
LINE
 8
Group#2
10
632.8890303143711
20
175.28022361597473
30
2.000000000001906
11
632.5576594644714
21
175.53449341212763
31
2.0000000000019056
  0
LINE
 8
Group#2
10
581.561641932254
20
134.54767104945836
30
2.000000000001858
11
581.3073721360994
21
134.87904189935077
31
2.0000000000019007
  0
LINE
 8
Group#2
10
571.7576594644704
20
120.42346615786386
30
2.00000000000197
11
571.371769936635
21
120.26362548186056
31
2.000000000001984
  0
LINE
 8
Group#2
10
635.2223061467905
20
135.67904189934956
30
2.000000000001872
11
635.276824824728
21
135.26493142718599
31
2.0000000000019007
  0
LINE
 8
Group#2
10
569.4121781424094
20
121.39499633175191
30
2.000000000001999
11
569.3576594644719
21
121.80910680391533
31
2.000000000001984
  0
LINE
 8
Group#2
10
586.2121781424104
20
173.7347422939126
30
2.0000000000018905
11
586.1576594644728
21
174.14885276607617
31
2.0000000000019336
  0
LINE
 8
Group#2
10
584.2384941042169
20
135.26493142718599
30
2.0000000000019145
11
584.078653428208
21
134.87904189935077
31
2.0000000000019003
  0
LINE
 8
Group#2
10
581.3073721360994
20
134.87904189935077
30
2.0000000000019007
11
581.1475314600906
21
135.26493142718599
31
2.0000000000019154
  0
LINE
 8
Group#2
10
570.9576594644715
20
123.4091068039132
30
2.000000000001997
11
571.371769936635
21
123.35458812597759
31
2.0000000000019678
  0
LINE
 8
Group#2
10
582.6930127821527
20
134.0790418993518
30
2.000000000001858
11
582.2789023099892
21
134.13356057728754
31
2.000000000001887
  0
LINE
 8
Group#2
10
647.1720188184179
20
121.00910680391655
30
2.0000000000019638
11
647.4262886145744
21
120.67773595402417
31
2.000000000001964
  0
LINE
 8
Group#2
10
649.3576594644742
20
123.19474744998165
30
2.0000000000019624
11
648.971769936637
21
123.35458812597759
31
2.000000000001948
  0
LINE
 8
Group#2
10
631.3435489923072
20
172.6033714440066
30
2.0000000000019083
11
631.7576594644727
21
172.5488527660784
31
2.000000000001894
  0
LINE
 8
Group#2
10
588.8890303143711
20
175.28022361597473
30
2.0000000000018887
11
589.1433001105275
21
174.94885276607513
31
2.0000000000019034
  0
LINE
 8
Group#2
10
635.276824824728
20
136.0931523715132
30
2.0000000000018714
11
635.2223061467905
21
135.67904189934956
31
2.000000000001872
  0
LINE
 8
Group#2
10
638.2079467928454
20
134.87904189935077
30
2.0000000000019003
11
638.3677874688523
21
135.26493142718599
31
2.0000000000018425
  0
LINE
 8
Group#2
10
586.9576594644717
20
175.53449341212763
30
2.000000000001904
11
587.3435489923071
21
175.69433408813828
31
2.0000000000019176
  0
LINE
 8
Group#2
10
636.4081956746267
20
137.22452322141916
30
2.0000000000018563
11
636.0223061467913
21
137.0646825454158
31
2.000000000001842
  0
LINE
 8
Group#2
10
583.8243836320515
20
136.81041274925573
30
2.00000000000187
11
584.078653428208
21
136.47904189934852
31
2.000000000001827
  0
LINE
 8
Group#2
10
638.3677874688523
20
136.0931523715132
30
2.0000000000018563
11
638.2079467928454
21
136.47904189934852
31
2.000000000001827
  0
LINE
 8
Group#2
10
637.2364166189537
20
137.22452322141916
30
2.0000000000018563
11
636.8223061467902
21
137.2790418993473
31
2.0000000000018705
  0
LINE
 8
Group#2
10
635.4366655007351
20
136.47904189934852
30
2.0000000000018425
11
635.276824824728
21
136.0931523715132
31
2.0000000000018714
  0
LINE
 8
Group#2
10
582.2789023099892
20
134.13356057728754
30
2.000000000001887
11
581.8930127821537
21
134.29340125329827
31
2.000000000001901
  0
LINE
 8
Group#2
10
588.5576594644714
20
175.53449341212763
30
2.0000000000019034
11
588.8890303143711
21
175.28022361597473
31
2.0000000000018887
  0
LINE
 8
Group#2
10
648.971769936637
20
123.35458812597759
30
2.000000000001948
11
648.5576594644733
21
123.40910680391298
31
2.0000000000019194
  0
LINE
 8
Group#2
10
649.689030314372
20
122.94047765382142
30
2.0000000000019047
11
649.3576594644742
21
123.19474744998165
31
2.0000000000019624
  0
LINE
 8
Group#2
10
586.3720188184174
20
173.34885276607724
30
2.000000000001905
11
586.2121781424104
21
173.7347422939126
31
2.0000000000018905
  0
LINE
 8
Group#2
10
572.3433001105266
20
121.00910680391655
30
2.0000000000020126
11
572.0890303143701
21
120.67773595402417
31
2.0000000000019984
  0
LINE
 8
Group#2
10
649.9433001105228
20
225.68859872822355
30
2.000000000001828
11
650.1031407865318
21
226.0744882560589
31
2.000000000001885
  0
LINE
 8
Group#2
10
586.2121781424104
20
174.56296323823977
30
2.0000000000019043
11
586.3720188184174
21
174.94885276607513
31
2.0000000000019043
  0
LINE
 8
Group#2
10
583.1071232543164
20
137.22452322141916
30
2.0000000000018847
11
583.4930127821536
21
137.06468254541588
31
2.000000000001928
  0
LINE
 8
Group#2
10
637.7576594644697
20
105.87423937429045
30
2.000000000001889
11
637.42628861457
21
105.61996957813027
31
2.0000000000019043
  0
LINE
 8
Group#2
10
647.0121781424057
20
226.0744882560589
30
2.000000000001886
11
647.1720188184127
21
225.68859872823094
31
2.000000000001843
  0
LINE
 8
Group#2
10
586.3720188184174
20
174.94885276607513
30
2.0000000000019043
11
586.6262886145739
21
175.28022361597473
31
2.0000000000018896
  0
LINE
 8
Group#2
10
580.9576594644761
20
102.88859872824115
30
2.000000000001935
11
580.5435489923126
21
102.94311740617685
31
2.000000000001906
  0
LINE
 8
Group#2
10
581.093012782153
20
135.67904189934956
30
2.000000000001857
11
581.1475314600906
21
136.0931523715132
31
2.0000000000018567
  0
LINE
 8
Group#2
10
647.0121781424094
20
122.22321727607897
30
2.0000000000019638
11
646.9576594644715
21
121.80910680391533
31
2.0000000000019496
  0
LINE
 8
Group#2
10
647.7576594644745
20
123.19474744998165
30
2.0000000000019775
11
647.4262886145747
21
122.94047765382133
31
2.00000000000192
  0
LINE
 8
Group#2
10
580.1576594644754
20
105.87423937429045
30
2.00000000000189
11
580.5435489923107
21
106.03408005029388
31
2.0000000000019473
  0
LINE
 8
Group#2
10
581.3717699366379
20
106.03408005029388
30
2.0000000000019473
11
581.7576594644751
21
105.87423937429045
31
2.0000000000018896
  0
LINE
 8
Group#2
10
582.5031407865382
20
104.0744882560607
30
2.0000000000018905
11
582.3433001105295
21
103.6885987282402
31
2.0000000000019194
  0
LINE
 8
Group#2
10
581.7576594644751
20
105.87423937429045
30
2.0000000000018896
11
582.089030314373
21
105.61996957813022
31
2.000000000001933
  0
LINE
 8
Group#2
10
588.171769936636
20
175.69433408813828
30
2.0000000000019176
11
588.5576594644714
21
175.53449341212763
31
2.0000000000019034
  0
LINE
 8
Group#2
10
582.3433001105295
20
103.6885987282402
30
2.0000000000019194
11
582.0890303143747
21
103.35722787833306
31
2.0000000000018767
  0
LINE
 8
Group#2
10
648.5576594644677
20
224.88859872823213
30
2.0000000000018865
11
648.9717699366314
21
224.94311740616774
31
2.000000000001872
  0
LINE
 8
Group#2
10
649.9433001105249
20
227.28859872823605
30
2.000000000001827
11
649.6890303143683
21
227.61996957812852
31
2.00000000000187
  0
LINE
 8
Group#2
10
648.9717699366366
20
120.26362548186066
30
2.000000000001979
11
649.357659464472
21
120.42346615786386
31
2.000000000001935
  0
LINE
 8
Group#2
10
579.3576594644745
20
104.48859872823897
30
2.00000000000192
11
579.412178142412
21
104.90270920040258
31
2.0000000000019487
  0
LINE
 8
Group#2
10
637.0121781424065
20
104.0744882560607
30
2.0000000000018905
11
637.1720188184136
21
103.6885987282402
31
2.000000000001905
  0
LINE
 8
Group#2
10
648.5576594644733
20
123.40910680391298
30
2.0000000000019194
11
648.1435489923098
21
123.35458812597759
31
2.000000000001948
  0
LINE
 8
Group#2
10
648.1435489923042
20
224.94311740616774
30
2.000000000001872
11
648.5576594644677
21
224.88859872823213
31
2.0000000000018865
  0
LINE
 8
Group#2
10
650.1031407865354
20
121.39499633175191
30
2.0000000000019633
11
650.1576594644727
21
121.80910680391533
31
2.0000000000019487
  0
LINE
 8
Group#2
10
649.6890303143683
20
225.35722787833126
30
2.0000000000018856
11
649.9433001105228
21
225.68859872822355
31
2.000000000001828
  0
LINE
 8
Group#2
10
647.1720188184181
20
122.60910680391437
30
2.0000000000019633
11
647.0121781424094
21
122.22321727607897
31
2.0000000000019638
  0
LINE
 8
Group#2
10
580.1576594644754
20
103.10295808217283
30
2.0000000000019207
11
579.8262886145756
21
103.35722787833306
31
2.000000000001877
  0
LINE
 8
Group#2
10
650.1576594644694
20
226.4885987282225
30
2.000000000001885
11
650.1031407865318
21
226.90270920039342
31
2.0000000000018847
  0
LINE
 8
Group#2
10
582.5031407865382
20
104.90270920040258
30
2.000000000001933
11
582.5576594644758
21
104.48859872823897
31
2.0000000000019194
  0
LINE
 8
Group#2
10
649.9433001105284
20
122.60910680391437
30
2.0000000000019624
11
649.689030314372
21
122.94047765382142
31
2.0000000000019047
  0
LINE
 8
Group#2
10
589.3031407865345
20
173.7347422939126
30
2.0000000000018896
11
589.1433001105275
21
173.34885276607724
31
2.0000000000019043
  0
LINE
 8
Group#2
10
648.1435489923098
20
123.35458812597759
30
2.000000000001948
11
647.7576594644745
21
123.19474744998165
31
2.0000000000019775
  0
LINE
 8
Group#2
10
586.1576594644728
20
174.14885276607617
30
2.0000000000019336
11
586.2121781424104
21
174.56296323823977
31
2.0000000000019043
  0
LINE
 8
Group#2
10
649.6890303143716
20
120.67773595402417
30
2.0000000000019638
11
649.9433001105282
21
121.00910680391655
31
2.0000000000019638
  0
LINE
 8
Group#2
10
647.4262886145747
20
122.94047765382133
30
2.00000000000192
11
647.1720188184181
21
122.60910680391437
31
2.0000000000019633
  0
LINE
 8
Group#2
10
649.6890303143683
20
227.61996957812852
30
2.00000000000187
11
649.3576594644686
21
227.87423937428875
31
2.0000000000018843
  0
LINE
 8
Group#2
10
647.7576594644725
20
120.42346615786386
30
2.000000000001936
11
648.1435489923078
21
120.26362548186066
31
2.0000000000019793
  0
LINE
 8
Group#2
10
649.357659464472
20
120.42346615786386
30
2.000000000001935
11
649.6890303143716
21
120.67773595402417
31
2.0000000000019638
  0
LINE
 8
Group#2
10
586.6262886145739
20
173.01748191617017
30
2.000000000001934
11
586.3720188184174
21
173.34885276607724
31
2.000000000001905
  0
LINE
 8
Group#2
10
589.1433001105275
20
173.34885276607724
30
2.0000000000019043
11
588.8890303143711
21
173.01748191617017
31
2.0000000000019336
  0
LINE
 8
Group#2
10
586.9576594644717
20
172.7632121200247
30
2.0000000000019056
11
586.6262886145739
21
173.01748191617017
31
2.000000000001934
  0
LINE
 8
Group#2
10
650.1031407865355
20
122.22321727607897
30
2.000000000001963
11
649.9433001105284
21
122.60910680391437
31
2.0000000000019624
  0
LINE
 8
Group#2
10
581.8930127821537
20
134.29340125329827
30
2.000000000001901
11
581.561641932254
21
134.54767104945836
31
2.000000000001858
  0
LINE
 8
Group#2
10
584.2930127821544
20
135.67904189934956
30
2.0000000000018563
11
584.2384941042169
21
135.26493142718599
31
2.0000000000019145
  0
LINE
 8
Group#2
10
647.0121781424057
20
226.90270920039342
30
2.0000000000018856
11
646.9576594644681
21
226.48859872823718
31
2.0000000000018425
  0
LINE
 8
Group#2
10
580.5435489923107
20
106.03408005029388
30
2.0000000000019473
11
580.9576594644742
21
106.08859872823685
31
2.0000000000018896
  0
LINE
 8
Group#2
10
647.0121781424091
20
121.39499633175191
30
2.0000000000019638
11
647.1720188184179
21
121.00910680391655
31
2.0000000000019638
  0
LINE
 8
Group#2
10
650.1576594644727
20
121.80910680391533
30
2.0000000000019487
11
650.1031407865355
21
122.22321727607897
31
2.000000000001963
  0
LINE
 8
Group#2
10
649.9433001105282
20
121.00910680391655
30
2.0000000000019638
11
650.1031407865354
21
121.39499633175191
31
2.0000000000019633
  0
LINE
 8
Group#2
10
587.7576594644725
20
175.74885276607392
30
2.0000000000019034
11
588.171769936636
21
175.69433408813828
31
2.0000000000019176
  0
LINE
 8
Group#2
10
587.7576594644725
20
172.5488527660784
30
2.0000000000018905
11
587.3435489923071
21
172.6033714440066
31
2.000000000001891
  0
LINE
 8
Group#2
10
583.1071232543164
20
134.13356057728754
30
2.0000000000018865
11
582.6930127821527
21
134.0790418993518
31
2.000000000001858
  0
LINE
 8
Group#2
10
583.8243836320515
20
134.54767104945836
30
2.000000000001857
11
583.4930127821536
21
134.29340125329827
31
2.0000000000019007
  0
LINE
 8
Group#2
10
587.3435489923071
20
175.69433408813828
30
2.0000000000019176
11
587.7576594644725
21
175.74885276607392
31
2.0000000000019034
  0
LINE
 8
Group#2
10
582.5576594644758
20
104.48859872823897
30
2.0000000000019194
11
582.5031407865382
21
104.0744882560607
31
2.0000000000018905
  0
LINE
 8
Group#2
10
584.078653428208
20
136.47904189934852
30
2.000000000001827
11
584.2384941042169
21
136.0931523715132
31
2.0000000000018563
  0
LINE
 8
Group#2
10
584.2384941042169
20
136.0931523715132
30
2.0000000000018563
11
584.2930127821544
21
135.67904189934956
31
2.0000000000018563
  0
LINE
 8
Group#2
10
637.42628861457
20
105.61996957813027
30
2.0000000000019043
11
637.1720188184136
21
105.28859872823789
31
2.000000000001933
  0
LINE
 8
Group#2
10
579.8262886145756
20
103.35722787833306
30
2.000000000001877
11
579.572018818421
21
103.6885987282402
31
2.0000000000019202
  0
LINE
 8
Group#2
10
586.6262886145739
20
175.28022361597473
30
2.0000000000018896
11
586.9576594644717
21
175.53449341212763
31
2.000000000001904
  0
LINE
 8
Group#2
10
583.4930127821536
20
134.29340125329827
30
2.0000000000019007
11
583.1071232543164
21
134.13356057728754
31
2.0000000000018865
  0
LINE
 8
Group#2
10
647.1720188184144
20
227.28859872823605
30
2.0000000000018274
11
647.0121781424057
21
226.90270920039342
31
2.0000000000018856
  0
LINE
 8
Group#2
10
589.3576594644721
20
174.14885276607617
30
2.000000000001918
11
589.3031407865345
21
173.7347422939126
31
2.0000000000018896
  0
LINE
 8
Group#2
10
647.4262886145691
20
225.35722787833126
30
2.0000000000018865
11
647.757659464469
21
225.10295808217094
31
2.0000000000018576
  0
LINE
 8
Group#2
10
637.0121781424065
20
104.90270920040258
30
2.000000000001933
11
636.9576594644691
21
104.48859872823897
31
2.0000000000019194
  0
LINE
 8
Group#2
10
581.3717699366396
20
102.94311740617685
30
2.0000000000019056
11
580.9576594644761
21
102.88859872824115
31
2.000000000001935
  0
LINE
 8
Group#2
10
646.9576594644681
20
226.48859872823718
30
2.0000000000018425
11
647.0121781424057
21
226.0744882560589
31
2.000000000001886
  0
LINE
 8
Group#2
10
583.4930127821536
20
137.06468254541588
30
2.000000000001928
11
583.8243836320515
21
136.81041274925573
31
2.00000000000187
  0
LINE
 8
Group#2
10
650.1031407865318
20
226.90270920039342
30
2.0000000000018847
11
649.9433001105249
21
227.28859872823605
31
2.000000000001827
  0
LINE
 8
Group#2
10
636.9576594644691
20
104.48859872823897
30
2.0000000000019194
11
637.0121781424065
21
104.0744882560607
31
2.0000000000018905
  0
LINE
 8
Group#2
10
579.412178142412
20
104.90270920040258
30
2.0000000000019487
11
579.572018818419
21
105.28859872823789
31
2.0000000000019336
  0
LINE
 8
Group#2
10
580.5435489923126
20
102.94311740617685
30
2.000000000001906
11
580.1576594644754
21
103.10295808217283
31
2.0000000000019207
  0
LINE
 8
Group#2
10
581.1475314600906
20
135.26493142718599
30
2.0000000000019154
11
581.093012782153
21
135.67904189934956
31
2.000000000001857
  0
LINE
 8
Group#2
10
579.572018818419
20
105.28859872823789
30
2.0000000000019336
11
579.8262886145756
21
105.61996957813022
31
2.0000000000019336
  0
LINE
 8
Group#2
10
650.1031407865318
20
226.0744882560589
30
2.000000000001885
11
650.1576594644694
21
226.4885987282225
31
2.000000000001885
  0
LINE
 8
Group#2
10
647.4262886145711
20
227.61996957812852
30
2.0000000000018705
11
647.1720188184144
21
227.28859872823605
31
2.0000000000018274
  0
LINE
 8
Group#2
10
581.1475314600906
20
136.0931523715132
30
2.0000000000018567
11
581.3073721360994
21
136.47904189934852
31
2.000000000001828
  0
LINE
 8
Group#2
10
579.8262886145756
20
105.61996957813022
30
2.0000000000019336
11
580.1576594644754
21
105.87423937429045
31
2.00000000000189
  0
LINE
 8
Group#2
10
588.9179135023181
20
113.47231558563453
30
2.0000000000019407
11
589.249284352216
21
113.21804578948915
31
2.000000000001984
  0
LINE
 8
Group#2
10
589.5035541483744
20
111.28667493958429
30
2.0000000000019567
11
589.249284352216
21
110.95530408968446
31
2.0000000000019567
  0
LINE
 8
Group#2
10
589.249284352216
20
113.21804578948915
30
2.000000000001984
11
589.5035541483726
21
112.88667493958955
31
2.0000000000019553
  0
LINE
 8
Group#2
10
582.089030314373
20
105.61996957813022
30
2.000000000001933
11
582.3433001105295
21
105.28859872823789
31
2.000000000001933
  0
LINE
 8
Group#2
10
581.8930127821537
20
137.06468254541588
30
2.0000000000019282
11
582.2789023099892
21
137.22452322141916
31
2.0000000000018847
  0
LINE
 8
Group#2
10
581.561641932254
20
136.81041274925573
30
2.000000000001871
11
581.8930127821537
21
137.06468254541588
31
2.0000000000019282
  0
LINE
 8
Group#2
10
647.1720188184127
20
225.68859872823094
30
2.000000000001843
11
647.4262886145691
21
225.35722787833126
31
2.0000000000018865
  0
LINE
 8
Group#2
10
582.2789023099892
20
137.22452322141916
30
2.0000000000018847
11
582.6930127821546
21
137.2790418993473
31
2.0000000000018847
  0
LINE
 8
Group#2
10
581.3073721360994
20
136.47904189934852
30
2.000000000001828
11
581.561641932254
21
136.81041274925573
31
2.000000000001871
  0
LINE
 8
Group#2
10
636.8223061467902
20
214.21866363280063
30
2.000000000000062
11
636.4081956746267
21
214.16414495486515
31
2.0000000000000626
  0
LINE
 8
Group#2
10
640.1031407865325
20
104.90270920040258
30
2.0000000000019327
11
639.9433001105239
21
105.28859872823799
31
2.000000000001918
  0
LINE
 8
Group#2
10
647.757659464469
20
227.87423937428875
30
2.000000000001885
11
647.4262886145711
21
227.61996957812852
31
2.0000000000018705
  0
LINE
 8
Group#2
10
637.622306146791
20
214.00430427884703
30
2.000000000000077
11
637.2364166189537
21
214.16414495486515
31
2.000000000000062
  0
LINE
 8
Group#2
10
580.9576594644742
20
106.08859872823685
30
2.0000000000018896
11
581.3717699366379
21
106.03408005029388
31
2.0000000000019473
  0
LINE
 8
Group#2
10
636.4081956746267
20
214.16414495486515
30
2.0000000000000626
11
636.0223061467913
21
214.00430427884703
31
2.0000000000000773
  0
LINE
 8
Group#2
10
635.276824824728
20
213.03277410495915
30
2.000000000001955
11
635.2223061467905
21
212.6186636327956
31
2.000000000001926
  0
LINE
 8
Group#2
10
640.1576594644683
20
104.48859872823897
30
2.0000000000019185
11
640.1031407865325
21
104.90270920040258
31
2.0000000000019327
  0
LINE
 8
Group#2
10
589.249284352216
20
110.95530408968446
30
2.0000000000019567
11
588.9179135023181
21
110.70103429353908
31
2.000000000001942
  0
LINE
 8
Group#2
10
589.6633948243796
20
112.50078541174689
30
2.0000000000020135
11
589.7179135023171
21
112.08667493959055
31
2.0000000000019704
  0
LINE
 8
Group#2
10
648.9717699366314
20
224.94311740616774
30
2.000000000001872
11
649.3576594644686
21
225.10295808217094
31
2.000000000001857
  0
LINE
 8
Group#2
10
647.757659464469
20
225.10295808217094
30
2.0000000000018576
11
648.1435489923042
21
224.94311740616774
31
2.000000000001872
  0
LINE
 8
Group#2
10
587.7038030301521
20
113.63215626165277
30
2.00000000000197
11
588.1179135023174
21
113.68667493958843
31
2.000000000001984
  0
LINE
 8
Group#2
10
636.0223061467913
20
214.00430427884703
30
2.0000000000000773
11
635.6909352968936
21
213.7500344826868
31
2.0000000000000484
  0
LINE
 8
Group#2
10
579.412178142412
20
104.0744882560607
30
2.0000000000018914
11
579.3576594644745
21
104.48859872823897
31
2.00000000000192
  0
LINE
 8
Group#2
10
639.9433001105239
20
105.28859872823799
30
2.000000000001918
11
639.6890303143673
21
105.61996957813027
31
2.0000000000019034
  0
LINE
 8
Group#2
10
582.6930127821546
20
137.2790418993473
30
2.0000000000018847
11
583.1071232543164
21
137.22452322141916
31
2.0000000000018847
  0
LINE
 8
Group#2
10
589.6633948243796
20
111.67256446742704
30
2.000000000001971
11
589.5035541483744
21
111.28667493958429
31
2.0000000000019567
  0
LINE
 8
Group#2
10
648.1435489923063
20
228.03408005028453
30
2.00000000000187
11
647.757659464469
21
227.87423937428875
31
2.000000000001885
  0
LINE
 8
Group#2
10
638.4223061467898
20
212.6186636327956
30
2.000000000000063
11
638.3677874688523
21
213.03277410495915
31
2.0000000000000626
  0
LINE
 8
Group#2
10
588.9179135023181
20
110.70103429353908
30
2.000000000001942
11
588.5320239744829
21
110.54119361752103
31
2.000000000001957
  0
LINE
 8
Group#2
10
637.4262886145701
20
103.35722787833306
30
2.0000000000018767
11
637.7576594644697
21
103.10295808217275
31
2.0000000000018616
  0
LINE
 8
Group#2
10
635.4366655007351
20
211.81866363279667
30
2.000000000001941
11
635.6909352968936
21
211.4872927828969
31
2.0000000000018834
  0
LINE
 8
Group#2
10
637.2364166189537
20
214.16414495486515
30
2.000000000000062
11
636.8223061467902
21
214.21866363280063
31
2.000000000000062
  0
LINE
 8
Group#2
10
579.572018818421
20
103.6885987282402
30
2.0000000000019202
11
579.412178142412
21
104.0744882560607
31
2.0000000000018914
  0
LINE
 8
Group#2
10
581.7576594644751
20
103.10295808217283
30
2.00000000000192
11
581.3717699366396
21
102.94311740617685
31
2.0000000000019056
  0
LINE
 8
Group#2
10
586.9865426524188
20
113.21804578948915
30
2.0000000000019846
11
587.3179135023167
21
113.47231558563453
31
2.000000000001941
  0
LINE
 8
Group#2
10
649.3576594644686
20
227.87423937428875
30
2.0000000000018843
11
648.9717699366331
21
228.03408005028453
31
2.00000000000187
  0
LINE
 8
Group#2
10
587.703803030154
20
110.54119361752103
30
2.000000000001957
11
587.3179135023184
21
110.70103429353908
31
2.000000000001943
  0
LINE
 8
Group#2
10
638.2079467928454
20
213.41866363280187
30
2.0000000000000773
11
637.9536769966887
21
213.7500344826868
31
2.000000000000048
  0
LINE
 8
Group#2
10
648.5576594644697
20
228.08859872823504
30
2.0000000000018847
11
648.1435489923063
21
228.03408005028453
31
2.00000000000187
  0
LINE
 8
Group#2
10
638.3677874688523
20
212.2045531606394
30
2.0000000000018683
11
638.4223061467898
21
212.6186636327956
31
2.000000000000063
  0
LINE
 8
Group#2
10
648.9717699366331
20
228.03408005028453
30
2.00000000000187
11
648.5576594644697
21
228.08859872823504
31
2.0000000000018847
  0
LINE
 8
Group#2
10
582.3433001105295
20
105.28859872823789
30
2.000000000001933
11
582.5031407865382
21
104.90270920040258
31
2.000000000001933
  0
LINE
 8
Group#2
10
637.1720188184136
20
105.28859872823789
30
2.000000000001933
11
637.0121781424065
21
104.90270920040258
31
2.000000000001933
  0
LINE
 8
Group#2
10
586.7322728562623
20
112.88667493958955
30
2.000000000001956
11
586.9865426524188
21
113.21804578948915
31
2.0000000000019846
  0
LINE
 8
Group#2
10
588.5320239744829
20
110.54119361752103
30
2.000000000001957
11
588.1179135023174
21
110.4866749395855
31
2.000000000001986
  0
LINE
 8
Group#2
10
582.0890303143747
20
103.35722787833306
30
2.0000000000018767
11
581.7576594644751
21
103.10295808217283
31
2.00000000000192
  0
LINE
 8
Group#2
10
649.3576594644686
20
225.10295808217094
30
2.000000000001857
11
649.6890303143683
21
225.35722787833126
31
2.0000000000018856
  0
LINE
 8
Group#2
10
574.6654696665173
20
211.6503107903246
30
2.0000000000018994
11
577.486810508888
21
199.31965289315474
31
2.0000000000019207
  0
LINE
 8
Group#2
10
574.1317792951492
20
213.2589155860849
30
2.0000000000019127
11
574.2336166510695
21
212.97603469147734
31
2.000000000001928
  0
LINE
 8
Group#2
10
574.2336166510695
20
212.97603469147734
30
2.000000000001928
11
574.6654696665173
21
211.6503107903246
31
2.0000000000018994
  0
LINE
 8
Group#2
10
574.1317792951492
20
135.03878994606777
30
2.0000000000019313
11
573.8048182451041
21
134.2567018391917
31
2.0000000000019176
  0
LINE
 8
Group#2
10
575.707559826242
20
75.47279435537047
30
2.0000000000019815
11
575.3564987348062
21
75.64578289213475
31
2.0000000000020393
  0
LINE
 8
Group#2
10
574.2336166510712
20
135.32167084066782
30
2.000000000001917
11
574.1317792951492
21
135.03878994606777
31
2.0000000000019313
  0
LINE
 8
Group#2
10
576.4620879871155
20
75.27095425974346
30
2.0000000000019815
11
576.0782057569069
21
75.34713402807988
31
2.0000000000019527
  0
LINE
 8
Group#2
10
561.4258810435172
20
104.8975689668182
30
2.000000000001982
11
561.202880056897
21
104.3184168717744
31
2.0000000000019966
  0
LINE
 8
Group#2
10
565.3838109790587
20
115.25014353892533
30
2.000000000001917
11
565.4059015767596
21
116.06196650552656
31
2.000000000001873
  0
LINE
 8
Group#2
10
577.486810508888
20
148.97805263899005
30
2.0000000000019655
11
574.6654696665173
21
136.6473947418206
31
2.0000000000018727
  0
LINE
 8
Group#2
10
569.2382870701052
20
128.22589193682103
30
2.0000000000020237
11
567.636087063019
21
127.56223896424017
31
2.0000000000056772
  0
LINE
 8
Group#2
10
565.3161238961205
20
117.68311490726627
30
2.000000000001916
11
565.2045273041413
21
118.48753440247391
31
2.000000000001915
  0
LINE
 8
Group#2
10
572.5937358005876
20
132.02300250033332
30
2.0000000000019624
11
572.1167293786513
21
131.32226702341987
31
2.000000000001992
  0
LINE
 8
Group#2
10
579.1887967201205
20
161.5123388676904
30
2.0000000000018274
11
577.486810508888
21
148.97805263899005
31
2.0000000000019655
  0
LINE
 8
Group#2
10
564.61027084137
20
111.27639670952527
30
2.0000000000019487
11
564.8520490617938
21
112.05169524282145
31
2.000000000001948
  0
LINE
 8
Group#2
10
565.050827616585
20
112.83911610219214
30
2.0000000000019327
11
565.2060049595518
21
113.63627638459323
31
2.0000000000019327
  0
LINE
 8
Group#2
10
576.0782057569069
20
75.34713402807988
30
2.0000000000019527
11
575.707559826242
21
75.47279435537047
31
2.0000000000019815
  0
LINE
 8
Group#2
10
580.9389816672236
20
77.14601945057538
30
2.0000000000019362
11
578.348320565848
21
75.64743610832812
31
2.00000000000188
  0
LINE
 8
Group#2
10
573.438854347836
20
133.49208705967462
30
2.0000000000019615
11
573.0348178561658
21
132.7468892009976
31
2.0000000000019913
  0
LINE
 8
Group#2
10
560.9433281642558
20
100.6429557163893
30
2.0000000000020135
11
561.0827253812566
21
100.03821196477608
31
2.0000000000020286
  0
LINE
 8
Group#2
10
586.3821165998103
20
79.6362784750739
30
2.00000000000189
11
580.9389816672236
21
77.14601945057538
31
2.0000000000019362
  0
LINE
 8
Group#2
10
570.482726928872
20
129.37645885764633
30
2.0000000000019793
11
569.8750137888088
21
128.7854850218843
31
2.0000000000019655
  0
LINE
 8
Group#2
10
560.8204612343868
20
101.87694010613082
30
2.000000000002013
11
560.855696500493
21
101.25733937561829
31
2.0000000000019984
  0
LINE
 8
Group#2
10
565.2060049595518
20
113.63627638459323
30
2.0000000000019327
11
565.3171114910424
21
114.44076371342724
31
2.0000000000019313
  0
LINE
 8
Group#2
10
567.636087063019
20
127.56223896424017
30
2.0000000000056772
11
566.260246725934
21
126.50651954245106
31
2.0000000000019673
  0
LINE
 8
Group#2
10
575.0310355670238
20
75.86313663650817
30
2.000000000001996
11
574.7367449580527
21
76.12113268539552
31
2.0000000000019527
  0
LINE
 8
Group#2
10
572.1167293786513
20
131.32226702341987
30
2.000000000001992
11
571.6050111049501
21
130.64646398737636
31
2.0000000000019926
  0
LINE
 8
Group#2
10
574.4189063874738
20
135.83636337091622
30
2.0000000000019025
11
574.2336166510712
21
135.32167084066782
31
2.000000000001917
  0
LINE
 8
Group#2
10
573.8048182451041
20
134.2567018391917
30
2.0000000000019176
11
573.438854347836
21
133.49208705967462
31
2.0000000000019615
  0
LINE
 8
Group#2
10
564.5408743315714
20
120.08973440954529
30
2.000000000003791
11
565.2045273041413
21
118.48753440247391
31
2.000000000001915
  0
LINE
 8
Group#2
10
579.1887967201205
20
186.7853666644617
30
2.000000000001928
11
579.7576594644723
21
174.14885276607617
31
2.000000000001935
  0
LINE
 8
Group#2
10
574.2612239516742
20
76.74075510449447
30
2.00000000000201
11
561.7996581197253
21
98.32482026728644
31
2.000000000002015
  0
LINE
 8
Group#2
10
563.6348918680104
20
109.04647135680361
30
2.0000000000019647
11
564.0007700048834
21
109.77150770939375
31
2.0000000000020073
  0
LINE
 8
Group#2
10
565.2045273041393
20
125.13067920537158
30
2.0000000000019833
11
564.5408743315696
21
123.52847919828528
31
2.0000000000020135
  0
LINE
 8
Group#2
10
561.5124370671674
20
98.87495721041711
30
2.000000000001986
11
561.7996581197253
21
98.32482026728644
31
2.000000000002015
  0
LINE
 8
Group#2
10
569.8750137888088
20
128.7854850218843
30
2.0000000000019655
11
569.2382870701052
21
128.22589193682103
31
2.0000000000020237
  0
LINE
 8
Group#2
10
564.3262246276447
20
110.5155667205857
30
2.000000000001949
11
564.61027084137
21
111.27639670952527
31
2.0000000000019487
  0
LINE
 8
Group#2
10
564.8520490617938
20
112.05169524282145
30
2.000000000001948
11
565.050827616585
21
112.83911610219214
31
2.0000000000019327
  0
LINE
 8
Group#2
10
565.3171114910424
20
114.44076371342724
30
2.0000000000019313
11
565.3838109790587
21
115.25014353892533
31
2.000000000001917
  0
LINE
 8
Group#2
10
573.0348178561658
20
132.7468892009976
30
2.0000000000019913
11
572.5937358005876
21
132.02300250033332
31
2.0000000000019624
  0
LINE
 8
Group#2
10
564.3145146615701
20
121.80910680391533
30
2.0000000000020144
11
564.5408743315714
21
120.08973440954529
31
2.000000000003791
  0
LINE
 8
Group#2
10
571.0598817290088
20
129.99731123289786
30
2.000000000001993
11
570.482726928872
21
129.37645885764633
31
2.0000000000019793
  0
LINE
 8
Group#2
10
564.0007700048834
20
109.77150770939375
30
2.0000000000020073
11
564.3262246276447
21
110.5155667205857
31
2.000000000001949
  0
LINE
 8
Group#2
10
566.260246725934
20
126.50651954245106
30
2.0000000000019673
11
565.2045273041393
21
125.13067920537158
31
2.0000000000019833
  0
LINE
 8
Group#2
10
565.4059015767596
20
116.06196650552656
30
2.000000000001873
11
565.3833164332975
21
116.87377586424041
31
2.0000000000019162
  0
LINE
 8
Group#2
10
561.2728846562502
20
99.44746156117982
30
2.0000000000020144
11
561.5124370671674
21
98.87495721041711
31
2.000000000001986
  0
LINE
 8
Group#2
10
575.3564987348062
20
75.64578289213475
30
2.0000000000020393
11
575.0310355670238
21
75.86313663650817
31
2.000000000001996
  0
LINE
 8
Group#2
10
561.0297761565921
20
103.72244570726515
30
2.0000000000019975
11
560.9078154861321
21
103.11394576143378
31
2.000000000001998
  0
LINE
 8
Group#2
10
577.2431462330092
20
75.27138585567552
30
2.000000000002039
11
576.8526312616931
21
75.24555988132397
31
2.000000000001996
  0
LINE
 8
Group#2
10
561.202880056897
20
104.3184168717744
30
2.0000000000019966
11
561.0297761565921
21
103.72244570726515
31
2.0000000000019975
  0
LINE
 8
Group#2
10
560.855696500493
20
101.25733937561829
30
2.0000000000019984
11
560.9433281642558
21
100.6429557163893
31
2.0000000000020135
  0
LINE
 8
Group#2
10
577.486810508888
20
199.31965289315474
30
2.0000000000019207
11
579.1887967201205
21
186.7853666644617
31
2.000000000001928
  0
LINE
 8
Group#2
10
574.4786676096958
20
76.41535200161239
30
2.000000000001996
11
574.2612239516742
21
76.74075510449447
31
2.00000000000201
  0
LINE
 8
Group#2
10
577.9974508682072
20
75.47405969975122
30
2.0000000000019957
11
577.6269440382199
21
75.34798982743024
31
2.000000000001967
  0
LINE
 8
Group#2
10
574.7367449580527
20
76.12113268539552
30
2.0000000000019527
11
574.4786676096958
21
76.41535200161239
31
2.000000000001996
  0
LINE
 8
Group#2
10
560.8378760182214
20
102.49729751481414
30
2.0000000000019837
11
560.8204612343868
21
101.87694010613082
31
2.000000000002013
  0
LINE
 8
Group#2
10
576.8526312616931
20
75.24555988132397
30
2.000000000001996
11
576.4620879871155
21
75.27095425974346
31
2.0000000000019815
  0
LINE
 8
Group#2
10
560.9078154861321
20
103.11394576143378
30
2.000000000001998
11
560.8378760182214
21
102.49729751481414
31
2.0000000000019837
  0
LINE
 8
Group#2
10
578.348320565848
20
75.64743610832812
30
2.00000000000188
11
577.9974508682072
21
75.47405969975122
31
2.0000000000019957
  0
LINE
 8
Group#2
10
561.6971737728674
20
105.45573278166808
30
2.000000000002025
11
561.4258810435172
21
104.8975689668182
31
2.000000000001982
  0
LINE
 8
Group#2
10
565.3833164332975
20
116.87377586424041
30
2.0000000000019162
11
565.3161238961205
21
117.68311490726627
31
2.000000000001916
  0
LINE
 8
Group#2
10
577.6269440382199
20
75.34798982743024
30
2.000000000001967
11
577.2431462330092
21
75.27138585567552
31
2.000000000002039
  0
LINE
 8
Group#2
10
561.0827253812566
20
100.03821196477608
30
2.0000000000020286
11
561.2728846562502
21
99.44746156117982
31
2.0000000000020144
  0
LINE
 8
Group#2
10
571.6050111049501
20
130.64646398737636
30
2.0000000000019926
11
571.0598817290088
21
129.99731123289786
31
2.000000000001993
  0
LINE
 8
Group#2
10
579.7576594644723
20
174.14885276607617
30
2.000000000001935
11
579.1887967201205
21
161.5123388676904
31
2.0000000000018274
  0
LINE
 8
Group#2
10
563.6348918680104
20
109.04647135680361
30
2.0000000000019647
11
561.6971737728674
21
105.45573278166808
31
2.000000000002025
  0
LINE
 8
Group#2
10
574.6654696665173
20
136.6473947418206
30
2.0000000000018727
11
574.4189063874738
21
135.83636337091622
31
2.0000000000019025
  0
LINE
 8
Group#2
10
643.8077591027029
20
75.47279435537037
30
2.000000000001906
11
644.1588201941368
21
75.6457828921347
31
2.000000000001906
  0
LINE
 8
Group#2
10
638.5763372617209
20
77.14601945057524
30
2.0000000000018776
11
633.1332023291347
21
79.63627847507384
31
2.0000000000019353
  0
LINE
 8
Group#2
10
658.312438872046
20
104.31841687177432
30
2.000000000001943
11
658.4855427723526
21
103.72244570726515
31
2.0000000000019145
  0
LINE
 8
Group#2
10
658.6774429107215
20
102.4972975148141
30
2.000000000001915
11
658.6948576945563
21
101.87694010613082
31
2.0000000000019007
  0
LINE
 8
Group#2
10
649.0325920000711
20
129.3764588576609
30
2.0000000000018576
11
649.640305140134
21
128.78548502188445
31
2.000000000001901
  0
LINE
 8
Group#2
10
654.1315079498859
20
115.25014353892529
30
2.000000000001923
11
654.1094173521851
21
116.06196650552656
31
2.0000000000019225
  0
LINE
 8
Group#2
10
645.2540949772706
20
76.74075510449447
30
2.000000000001905
11
657.7156608092195
21
98.32482026728636
31
2.0000000000018456
  0
LINE
 8
Group#2
10
651.8792318659258
20
127.56223896425487
30
2.000000000005583
11
653.2550722030089
21
126.50651954245083
31
2.000000000001858
  0
LINE
 8
Group#2
10
654.3093139693927
20
113.63627638459323
30
2.000000000001938
11
654.1982074379022
21
114.44076371344191
31
2.000000000001923
  0
LINE
 8
Group#2
10
641.1669983630969
20
75.64743610832812
30
2.0000000000018776
11
641.5178680607374
21
75.47405969975122
31
2.0000000000018776
  0
LINE
 8
Group#2
10
658.6596224284519
20
101.25733937561841
30
2.000000000001887
11
658.5719907646892
21
100.6429557163893
31
2.000000000001858
  0
LINE
 8
Group#2
10
655.8804270609343
20
109.04647135680361
30
2.000000000001926
11
657.8181451560774
21
105.45573278166808
31
2.000000000001913
  0
LINE
 8
Group#2
10
642.2721726959355
20
75.27138585567533
30
2.000000000001878
11
642.6626876672517
21
75.24555988131652
31
2.0000000000018923
  0
LINE
 8
Group#2
10
615.7366002220905
20
83.86358916812428
30
2.000000000001966
11
609.7576594644715
21
84.14885276607113
31
2.000000000002011
  0
LINE
 8
Group#2
10
597.8540955974048
20
83.01038994495907
30
2.000000000001971
11
592.0376143178031
21
81.59700626475518
31
2.000000000001974
  0
LINE
 8
Group#2
10
621.6612233315401
20
83.01038994495893
30
2.000000000001893
11
615.7366002220905
21
83.86358916812428
31
2.000000000001966
  0
LINE
 8
Group#2
10
643.0532309418294
20
75.27095425974365
30
2.0000000000018776
11
643.437113172038
21
75.34713402808
31
2.0000000000019065
  0
LINE
 8
Group#2
10
641.888374890725
20
75.34798982743047
30
2.000000000001921
11
642.2721726959355
21
75.27138585567533
31
2.000000000001878
  0
LINE
 8
Group#2
10
658.4855427723526
20
103.72244570726515
30
2.0000000000019145
11
658.6075034428128
21
103.11394576143388
31
2.0000000000019287
  0
LINE
 8
Group#2
10
654.1982074379022
20
114.44076371344191
30
2.000000000001923
11
654.1315079498859
21
115.25014353892529
31
2.000000000001923
  0
LINE
 8
Group#2
10
647.3985895502938
20
131.32226702341978
30
2.0000000000018714
11
647.9103078239948
21
130.64646398737636
31
2.0000000000018283
  0
LINE
 8
Group#2
10
592.0376143178031
20
81.59700626475518
30
2.000000000001974
11
586.3821165998103
21
79.6362784750739
31
2.00000000000189
  0
LINE
 8
Group#2
10
646.0764645811071
20
133.49208705967462
30
2.000000000001885
11
646.480501072779
21
132.74688920099766
31
2.000000000001871
  0
LINE
 8
Group#2
10
658.5719907646892
20
100.6429557163893
30
2.000000000001858
11
658.4325935476883
21
100.0382119647759
31
2.000000000001873
  0
LINE
 8
Group#2
10
633.1332023291347
20
79.63627847507384
30
2.0000000000019353
11
627.4777046111418
21
81.59700626475535
31
2.000000000001921
  0
LINE
 8
Group#2
10
654.1991950328221
20
117.68311490726637
30
2.000000000001921
11
654.3107916248016
21
118.48753440247391
31
2.0000000000019207
  0
LINE
 8
Group#2
10
658.0894378854257
20
104.8975689668182
30
2.0000000000019424
11
658.312438872046
21
104.31841687177432
31
2.000000000001943
  0
LINE
 8
Group#2
10
658.6948576945563
20
101.87694010613082
30
2.0000000000019007
11
658.6596224284519
21
101.25733937561841
31
2.000000000001887
  0
LINE
 8
Group#2
10
627.4777046111418
20
81.59700626475535
30
2.000000000001921
11
621.6612233315401
21
83.01038994495893
31
2.000000000001893
  0
LINE
 8
Group#2
10
641.1669983630969
20
75.64743610832812
30
2.0000000000018776
11
638.5763372617209
21
77.14601945057524
31
2.0000000000018776
  0
LINE
 8
Group#2
10
641.5178680607374
20
75.47405969975122
30
2.0000000000018776
11
641.888374890725
21
75.34798982743047
31
2.000000000001921
  0
LINE
 8
Group#2
10
642.6626876672517
20
75.24555988131652
30
2.0000000000018923
11
643.0532309418294
21
75.27095425974365
31
2.0000000000018776
  0
LINE
 8
Group#2
10
564.5408743315696
20
123.52847919828528
30
2.0000000000020135
11
564.3145146615701
21
121.80910680391533
31
2.0000000000020144
  0
LINE
 8
Group#2
10
649.640305140134
20
128.78548502188445
30
2.000000000001901
11
650.2770318588397
21
128.22589193682091
31
2.000000000001844
  0
LINE
 8
Group#2
10
644.7785739708922
20
76.12113268539552
30
2.0000000000018767
11
645.0366513192491
21
76.41535200161233
31
2.0000000000018767
  0
LINE
 8
Group#2
10
655.1890943012999
20
110.5155667205857
30
2.00000000000194
11
654.9050480875727
21
111.27639670952527
31
2.000000000001939
  0
LINE
 8
Group#2
10
654.974444597373
20
120.08973440956018
30
2.0000000000037677
11
654.3107916248016
21
118.48753440247391
31
2.0000000000019207
  0
LINE
 8
Group#2
10
647.9103078239948
20
130.64646398737636
30
2.0000000000018283
11
648.4554371999343
21
129.99731123289777
31
2.000000000001843
  0
LINE
 8
Group#2
10
658.0028818617756
20
98.87495721041721
30
2.0000000000018736
11
657.7156608092195
21
98.32482026728636
31
2.0000000000018456
  0
LINE
 8
Group#2
10
654.6632698671509
20
112.05169524282145
30
2.000000000001939
11
654.4644913123594
21
112.83911610219228
31
2.0000000000019384
  0
LINE
 8
Group#2
10
655.2008042673745
20
121.80910680391533
30
2.0000000000018607
11
654.974444597373
21
120.08973440956018
31
2.0000000000037677
  0
LINE
 8
Group#2
10
654.1320024956473
20
116.87377586424051
30
2.0000000000019647
11
654.1991950328221
21
117.68311490726637
31
2.000000000001921
  0
LINE
 8
Group#2
10
654.4644913123594
20
112.83911610219228
30
2.0000000000019384
11
654.3093139693927
21
113.63627638459323
31
2.000000000001938
  0
LINE
 8
Group#2
10
654.9050480875727
20
111.27639670952527
30
2.000000000001939
11
654.6632698671509
21
112.05169524282145
31
2.000000000001939
  0
LINE
 8
Group#2
10
658.4325935476883
20
100.0382119647759
30
2.000000000001873
11
658.2424342726947
21
99.44746156117982
31
2.0000000000018443
  0
LINE
 8
Group#2
10
654.3107916248036
20
125.13067920537158
30
2.000000000001859
11
654.9744445973733
21
123.52847919828537
31
2.00000000000186
  0
LINE
 8
Group#2
10
644.4842833619211
20
75.86313663650809
30
2.0000000000018914
11
644.7785739708922
21
76.12113268539552
31
2.0000000000018767
  0
LINE
 8
Group#2
10
655.5145489240612
20
109.77150770939375
30
2.00000000000194
11
655.1890943012999
21
110.5155667205857
31
2.00000000000194
  0
LINE
 8
Group#2
10
603.7787187068524
20
83.86358916812428
30
2.000000000001926
11
597.8540955974048
21
83.01038994495907
31
2.000000000001971
  0
LINE
 8
Group#2
10
653.2550722030089
20
126.50651954245083
30
2.000000000001858
11
654.3107916248036
21
125.13067920537158
31
2.000000000001859
  0
LINE
 8
Group#2
10
650.2770318588397
20
128.22589193682091
30
2.000000000001844
11
651.8792318659258
21
127.56223896425487
31
2.000000000005583
  0
LINE
 8
Group#2
10
655.8804270609343
20
109.04647135680361
30
2.000000000001926
11
655.5145489240612
21
109.77150770939375
31
2.00000000000194
  0
LINE
 8
Group#2
10
658.2424342726947
20
99.44746156117982
30
2.0000000000018443
11
658.0028818617756
21
98.87495721041721
31
2.0000000000018736
  0
LINE
 8
Group#2
10
644.1588201941368
20
75.6457828921347
30
2.000000000001906
11
644.4842833619211
21
75.86313663650809
31
2.0000000000018914
  0
LINE
 8
Group#2
10
645.0366513192491
20
76.41535200161233
30
2.0000000000018767
11
645.2540949772706
21
76.74075510449447
31
2.000000000001905
  0
LINE
 8
Group#2
10
654.9744445973733
20
123.52847919828537
30
2.00000000000186
11
655.2008042673745
21
121.80910680391533
31
2.0000000000018607
  0
LINE
 8
Group#2
10
658.6075034428128
20
103.11394576143388
30
2.0000000000019287
11
658.6774429107215
21
102.4972975148141
31
2.000000000001915
  0
LINE
 8
Group#2
10
645.7105006838408
20
134.25670183919178
30
2.000000000001899
11
646.0764645811071
21
133.49208705967462
31
2.000000000001885
  0
LINE
 8
Group#2
10
609.7576594644715
20
84.14885276607113
30
2.000000000002011
11
603.7787187068524
21
83.86358916812428
31
2.000000000001926
  0
LINE
 8
Group#2
10
646.480501072779
20
132.74688920099766
30
2.000000000001871
11
646.9215831283572
21
132.02300250033346
31
2.000000000001871
  0
LINE
 8
Group#2
10
643.437113172038
20
75.34713402808
30
2.0000000000019065
11
643.8077591027029
21
75.47279435537037
31
2.000000000001906
  0
LINE
 8
Group#2
10
657.8181451560774
20
105.45573278166808
30
2.000000000001913
11
658.0894378854257
21
104.8975689668182
31
2.0000000000019424
  0
LINE
 8
Group#2
10
646.9215831283572
20
132.02300250033346
30
2.000000000001871
11
647.3985895502938
21
131.32226702341978
31
2.0000000000018714
  0
LINE
 8
Group#2
10
654.1094173521851
20
116.06196650552656
30
2.0000000000019225
11
654.1320024956473
21
116.87377586424051
31
2.0000000000019647
  0
LINE
 8
Group#2
10
645.3835396337957
20
135.0387899460676
30
2.0000000000018407
11
645.7105006838408
21
134.25670183919178
31
2.000000000001899
  0
LINE
 8
Group#2
10
654.3107916248018
20
229.81017112967876
30
2.000000000001882
11
654.1991950328223
21
230.61459062488632
31
2.000000000001896
  0
LINE
 8
Group#2
10
644.1588201941387
20
272.65192264001786
30
2.0000000000017795
11
644.4842833619211
21
272.43456889564436
31
2.000000000001772
  0
LINE
 8
Group#2
10
643.8077591027029
20
272.8249111767821
30
2.0000000000017795
11
644.1588201941387
21
272.65192264001786
31
2.0000000000017795
  0
LINE
 8
Group#2
10
648.4554371999343
20
129.99731123289777
30
2.000000000001843
11
649.0325920000711
21
129.3764588576609
31
2.0000000000018576
  0
LINE
 8
Group#2
10
645.3835396337957
20
213.25891558608495
30
2.000000000001822
11
645.2817022778754
21
212.97603469149215
31
2.000000000001779
  0
LINE
 8
Group#2
10
654.6632698671493
20
236.24601028932364
30
2.0000000000018057
11
654.9050480875732
21
237.02130882262725
31
2.00000000000182
  0
LINE
 8
Group#2
10
658.5719907646871
20
247.65474981576313
30
2.000000000001877
11
658.4325935476883
21
248.25949356737652
31
2.0000000000018914
  0
LINE
 8
Group#2
10
648.4554371999287
20
218.30039429925478
30
2.0000000000018185
11
647.9103078239891
21
217.65124154476882
31
2.0000000000018185
  0
LINE
 8
Group#2
10
654.1320024956456
20
231.42392966789737
30
2.0000000000018665
11
654.1094173521835
21
232.23573902661863
31
2.0000000000018803
  0
LINE
 8
Group#2
10
658.6774429107215
20
245.80040801732352
30
2.0000000000018714
11
658.6948576945563
21
246.4207654260216
31
2.000000000001842
  0
LINE
 8
Group#2
10
657.8181451560757
20
242.84197275046967
30
2.0000000000017866
11
655.8804270609326
21
239.2512341753415
31
2.0000000000018034
  0
LINE
 8
Group#2
10
640.3265222088243
20
161.51233886769052
30
2.0000000000018834
11
642.028508420057
21
148.97805263899005
31
2.0000000000019487
  0
LINE
 8
Group#2
10
658.312438872046
20
243.97928866037813
30
2.000000000001843
11
658.4855427723508
21
244.57525982487994
31
2.0000000000018865
  0
LINE
 8
Group#2
10
645.7105006838408
20
214.04100369295338
30
2.000000000001821
11
645.3835396337957
21
213.25891558608495
31
2.000000000001822
  0
LINE
 8
Group#2
10
658.0028818617756
20
249.4227483217353
30
2.0000000000019127
11
657.7156608092178
21
249.9728852648587
31
2.0000000000018834
  0
LINE
 8
Group#2
10
643.437113172038
20
272.9505715040651
30
2.000000000001765
11
643.8077591027029
21
272.8249111767821
31
2.0000000000017795
  0
LINE
 8
Group#2
10
642.028508420057
20
199.31965289315468
30
2.00000000000186
11
640.3265222088243
21
186.7853666644618
31
2.0000000000018683
  0
LINE
 8
Group#2
10
655.2008042673691
20
226.4885987282225
30
2.0000000000018834
11
654.9744445973678
21
224.76922633386727
31
2.0000000000018416
  0
LINE
 8
Group#2
10
654.3107916247981
20
223.16702632678093
30
2.000000000001857
11
653.2550722030016
21
221.79118598968677
31
2.000000000001829
  0
LINE
 8
Group#2
10
651.8792318659166
20
220.73546656789762
30
2.00000000000557
11
650.2770318588304
21
220.07181359533158
31
2.0000000000018887
  0
LINE
 8
Group#2
10
655.5145489240596
20
238.52619782275875
30
2.0000000000017897
11
655.8804270609326
21
239.2512341753415
31
2.0000000000018034
  0
LINE
 8
Group#2
10
650.2770318588304
20
220.07181359533158
30
2.0000000000018887
11
649.6403051401267
21
219.5122205102608
31
2.000000000001846
  0
LINE
 8
Group#2
10
646.4805010727773
20
215.55081633114756
30
2.000000000001835
11
646.0764645811053
21
214.805618472478
31
2.0000000000018066
  0
LINE
 8
Group#2
10
654.4644913123598
20
235.4585894299604
30
2.0000000000018354
11
654.6632698671493
21
236.24601028932364
31
2.0000000000018057
  0
LINE
 8
Group#2
10
643.0532309418294
20
273.02675127240894
30
2.000000000001772
11
643.437113172038
21
272.9505715040651
31
2.000000000001765
  0
LINE
 8
Group#2
10
654.1991950328223
20
230.61459062488632
30
2.000000000001896
11
654.1320024956456
21
231.42392966789737
31
2.0000000000018665
  0
LINE
 8
Group#2
10
642.6626876672517
20
273.0521456508213
30
2.0000000000017577
11
643.0532309418294
21
273.02675127240894
31
2.000000000001772
  0
LINE
 8
Group#2
10
654.9050480875732
20
237.02130882262725
30
2.00000000000182
11
655.1890943012984
21
237.78213881156665
31
2.000000000001805
  0
LINE
 8
Group#2
10
657.8181451560757
20
242.84197275046967
30
2.0000000000017866
11
658.0894378854257
21
243.4001365653342
31
2.000000000001887
  0
LINE
 8
Group#2
10
639.7576594644727
20
174.14885276607617
30
2.000000000001905
11
640.3265222088243
21
161.51233886769052
31
2.0000000000018834
  0
LINE
 8
Group#2
10
640.3265222088243
20
186.7853666644618
30
2.0000000000018683
11
639.7576594644727
21
174.14885276607617
31
2.000000000001905
  0
LINE
 8
Group#2
10
649.0325920000656
20
218.92124667449167
30
2.0000000000018034
11
648.4554371999287
21
218.30039429925478
31
2.0000000000018185
  0
LINE
 8
Group#2
10
642.2721726959355
20
273.02631967647704
30
2.0000000000017653
11
642.6626876672517
21
273.0521456508213
31
2.0000000000017577
  0
LINE
 8
Group#2
10
654.3107916248018
20
229.81017112967876
30
2.000000000001882
11
654.9744445973696
21
228.20797112259245
31
2.000000000001854
  0
LINE
 8
Group#2
10
654.3093139693912
20
234.66142914755196
30
2.0000000000018066
11
654.4644913123598
21
235.4585894299604
31
2.0000000000018354
  0
LINE
 8
Group#2
10
645.2817022778754
20
212.97603469149215
30
2.000000000001779
11
644.8498492624276
21
211.6503107903246
31
2.0000000000018376
  0
LINE
 8
Group#2
10
654.1982074379006
20
233.85694181871054
30
2.0000000000018363
11
654.3093139693912
21
234.66142914755196
31
2.0000000000018066
  0
LINE
 8
Group#2
10
654.9744445973696
20
228.20797112259245
30
2.000000000001854
11
655.2008042673691
21
226.4885987282225
31
2.0000000000018834
  0
LINE
 8
Group#2
10
644.7785739708922
20
272.176572846757
30
2.0000000000017866
11
645.0366513192491
21
271.8823535305328
31
2.0000000000017795
  0
LINE
 8
Group#2
10
645.0366513192491
20
271.8823535305328
30
2.0000000000017795
11
645.2540949772706
21
271.55695042765797
31
2.000000000001765
  0
LINE
 8
Group#2
10
655.1890943012984
20
237.78213881156665
30
2.000000000001805
11
655.5145489240596
21
238.52619782275875
31
2.0000000000017897
  0
LINE
 8
Group#2
10
634.604325682773
20
204.7713541420128
30
2.0000000000018874
11
634.757659464472
21
205.93603984497926
31
2.0000000000019016
  0
LINE
 8
Group#2
10
658.2424342726947
20
248.8502439709727
30
2.0000000000019127
11
658.0028818617756
21
249.4227483217353
31
2.0000000000019127
  0
LINE
 8
Group#2
10
658.4855427723508
20
244.57525982487994
30
2.0000000000018865
11
658.6075034428128
21
245.18375977071122
31
2.0000000000018714
  0
LINE
 8
Group#2
10
647.39858955029
20
216.97543850873276
30
2.000000000001776
11
646.9215831283535
21
216.27470303181923
31
2.0000000000018487
  0
LINE
 8
Group#2
10
657.7156608092178
20
249.9728852648587
30
2.0000000000018834
11
645.2540949772706
21
271.55695042765797
31
2.000000000001765
  0
LINE
 8
Group#2
10
658.0894378854257
20
243.4001365653342
30
2.000000000001887
11
658.312438872046
21
243.97928866037813
31
2.000000000001843
  0
LINE
 8
Group#2
10
646.9215831283535
20
216.27470303181923
30
2.0000000000018487
11
646.4805010727773
21
215.55081633114756
31
2.000000000001835
  0
LINE
 8
Group#2
10
644.8498492624276
20
211.6503107903246
30
2.0000000000018376
11
642.028508420057
21
199.31965289315468
31
2.00000000000186
  0
LINE
 8
Group#2
10
654.9744445973678
20
224.76922633386727
30
2.0000000000018416
11
654.3107916247981
21
223.16702632678093
31
2.000000000001857
  0
LINE
 8
Group#2
10
658.6948576945563
20
246.4207654260216
30
2.000000000001842
11
658.6596224284519
21
247.04036615653416
31
2.000000000001899
  0
LINE
 8
Group#2
10
653.2550722030016
20
221.79118598968677
30
2.000000000001829
11
651.8792318659166
21
220.73546656789762
31
2.00000000000557
  0
LINE
 8
Group#2
10
658.6596224284519
20
247.04036615653416
30
2.000000000001899
11
658.5719907646871
21
247.65474981576313
31
2.000000000001877
  0
LINE
 8
Group#2
10
649.6403051401267
20
219.5122205102608
30
2.000000000001846
11
649.0325920000656
21
218.92124667449167
31
2.0000000000018034
  0
LINE
 8
Group#2
10
642.028508420057
20
148.97805263899005
30
2.0000000000019487
11
644.8498492624276
21
136.6473947418206
31
2.0000000000019122
  0
LINE
 8
Group#2
10
658.4325935476883
20
248.25949356737652
30
2.0000000000018914
11
658.2424342726947
21
248.8502439709727
31
2.0000000000019127
  0
LINE
 8
Group#2
10
644.4842833619211
20
272.43456889564436
30
2.000000000001772
11
644.7785739708922
21
272.176572846757
31
2.0000000000017866
  0
LINE
 8
Group#2
10
645.2817022778737
20
135.32167084066782
30
2.0000000000018407
11
645.3835396337957
21
135.0387899460676
31
2.0000000000018407
  0
LINE
 8
Group#2
10
654.1094173521835
20
232.23573902661863
30
2.0000000000018803
11
654.1315079498842
21
233.04756199322
31
2.0000000000018656
  0
LINE
 8
Group#2
10
654.1315079498842
20
233.04756199322
30
2.0000000000018656
11
654.1982074379006
21
233.85694181871054
31
2.0000000000018363
  0
LINE
 8
Group#2
10
658.6075034428128
20
245.18375977071122
30
2.0000000000018714
11
658.6774429107215
21
245.80040801732352
31
2.0000000000018714
  0
LINE
 8
Group#2
10
644.8498492624276
20
136.6473947418206
30
2.0000000000019122
11
645.2817022778737
21
135.32167084066782
31
2.0000000000018407
  0
LINE
 8
Group#2
10
647.9103078239891
20
217.65124154476882
30
2.0000000000018185
11
647.39858955029
21
216.97543850873276
31
2.000000000001776
  0
LINE
 8
Group#2
10
574.7367449580527
20
272.176572846757
30
2.0000000000018914
11
574.4786676096958
21
271.8823535305327
31
2.0000000000018767
  0
LINE
 8
Group#2
10
576.4620879871155
20
273.02675127240894
30
2.0000000000018616
11
576.0782057569069
21
272.95057150406507
31
2.0000000000018905
  0
LINE
 8
Group#2
10
609.7576594644715
20
264.1488527660815
30
2.000000000001822
11
603.7787187068524
21
264.4341163640281
31
2.0000000000017804
  0
LINE
 8
Group#2
10
646.0764645811053
20
214.805618472478
30
2.0000000000018066
11
645.7105006838408
21
214.04100369295338
31
2.000000000001821
  0
LINE
 8
Group#2
10
564.8520490617956
20
236.24601028932364
30
2.0000000000019447
11
564.6102708413719
21
237.02130882262725
31
2.0000000000019154
  0
LINE
 8
Group#2
10
641.5178680607374
20
272.8236458324012
30
2.000000000001787
11
641.888374890725
21
272.9497157047147
31
2.000000000001765
  0
LINE
 8
Group#2
10
564.5408743315752
20
224.76922633386732
30
2.000000000001865
11
565.2045273041467
21
223.16702632678093
31
2.000000000001866
  0
LINE
 8
Group#2
10
561.6971737728674
20
242.84197275047705
30
2.000000000001884
11
561.4258810435172
21
243.40013656533415
31
2.000000000001927
  0
LINE
 8
Group#2
10
575.3564987348062
20
272.6519226400178
30
2.0000000000018767
11
575.0310355670238
21
272.4345688956443
31
2.0000000000018625
  0
LINE
 8
Group#2
10
560.9078154861321
20
245.18375977071122
30
2.000000000001897
11
560.8378760182214
21
245.80040801732343
31
2.0000000000018963
  0
LINE
 8
Group#2
10
561.7996581197253
20
249.9728852648587
30
2.0000000000018794
11
574.2612239516742
21
271.55695042765797
31
2.0000000000018776
  0
LINE
 8
Group#2
10
574.4786676096958
20
271.8823535305327
30
2.0000000000018767
11
574.2612239516742
21
271.55695042765797
31
2.0000000000018776
  0
LINE
 8
Group#2
10
564.3145146615757
20
226.48859872822237
30
2.000000000001849
11
564.5408743315752
21
224.76922633386732
31
2.000000000001865
  0
LINE
 8
Group#2
10
575.0310355670238
20
272.4345688956443
30
2.0000000000018625
11
574.7367449580527
21
272.176572846757
31
2.0000000000018914
  0
LINE
 8
Group#2
10
564.6102708413719
20
237.02130882262725
30
2.0000000000019154
11
564.3262246276447
21
237.78213881156663
31
2.000000000001857
  0
LINE
 8
Group#2
10
565.3171114910442
20
233.85694181871054
30
2.0000000000019025
11
565.2060049595538
21
234.6614291475519
31
2.0000000000019025
  0
LINE
 8
Group#2
10
564.5408743315752
20
228.20797112259237
30
2.000000000001834
11
564.3145146615757
21
226.48859872822237
31
2.000000000001849
  0
LINE
 8
Group#2
10
564.3262246276447
20
237.78213881156663
30
2.000000000001857
11
564.0007700048853
21
238.52619782275875
31
2.0000000000019003
  0
LINE
 8
Group#2
10
565.2045273041467
20
223.16702632678093
30
2.000000000001866
11
566.2602467259414
21
221.79118598968682
31
2.0000000000019242
  0
LINE
 8
Group#2
10
560.9433281642558
20
247.65474981576313
30
2.00000000000191
11
561.0827253812566
21
248.25949356737652
31
2.0000000000019162
  0
LINE
 8
Group#2
10
564.0007700048853
20
238.52619782275875
30
2.0000000000019003
11
563.6348918680122
21
239.25123417534144
31
2.0000000000019287
  0
LINE
 8
Group#2
10
570.4827269288794
20
218.92124667449167
30
2.000000000001939
11
571.0598817290163
21
218.3003942992547
31
2.000000000001911
  0
LINE
 8
Group#2
10
641.888374890725
20
272.9497157047147
30
2.000000000001765
11
642.2721726959355
21
273.02631967647704
31
2.0000000000017653
  0
LINE
 8
Group#2
10
577.2431462330092
20
273.026319676477
30
2.000000000001861
11
576.8526312616931
21
273.05214565082116
31
2.00000000000184
  0
LINE
 8
Group#2
10
561.2728846562502
20
248.8502439709727
30
2.0000000000018945
11
561.5124370671674
21
249.4227483217353
31
2.000000000001887
  0
LINE
 8
Group#2
10
560.855696500493
20
247.04036615653416
30
2.0000000000019393
11
560.9433281642558
21
247.65474981576313
31
2.00000000000191
  0
LINE
 8
Group#2
10
565.3838109790606
20
233.04756199321992
30
2.0000000000018456
11
565.3171114910442
21
233.85694181871054
31
2.0000000000019025
  0
LINE
 8
Group#2
10
641.1669983630969
20
272.6502694238242
30
2.000000000001773
11
638.5763372617209
21
271.1516860815697
31
2.000000000001774
  0
LINE
 8
Group#2
10
565.2045273041431
20
229.8101711296787
30
2.000000000001848
11
565.3161238961225
21
230.61459062488626
31
2.000000000001861
  0
LINE
 8
Group#2
10
565.4059015767614
20
232.23573902661855
30
2.0000000000018745
11
565.3838109790606
21
233.04756199321992
31
2.0000000000018456
  0
LINE
 8
Group#2
10
592.0376143178031
20
266.7006992673972
30
2.000000000001811
11
586.3821165998103
21
268.6614270570786
31
2.0000000000018328
  0
LINE
 8
Group#2
10
569.2382870701144
20
220.07181359533158
30
2.000000000001939
11
569.8750137888181
21
219.51222051026073
31
2.0000000000018816
  0
LINE
 8
Group#2
10
561.0827253812566
20
248.25949356737652
30
2.0000000000019162
11
561.2728846562502
21
248.8502439709727
31
2.0000000000018945
  0
LINE
 8
Group#2
10
565.2060049595538
20
234.6614291475519
30
2.0000000000019025
11
565.050827616585
21
235.4585894299604
31
2.0000000000018874
  0
LINE
 8
Group#2
10
580.9389816672236
20
271.1516860815697
30
2.0000000000018687
11
578.348320565848
21
272.6502694238242
31
2.000000000001861
  0
LINE
 8
Group#2
10
638.5763372617209
20
271.1516860815697
30
2.000000000001774
11
633.1332023291347
21
268.66142705707864
31
2.0000000000018714
  0
LINE
 8
Group#2
10
578.348320565848
20
272.6502694238242
30
2.000000000001861
11
577.9974508682072
21
272.8236458324012
31
2.000000000001876
  0
LINE
 8
Group#2
10
575.707559826242
20
272.82491117678205
30
2.0000000000018905
11
575.3564987348062
21
272.6519226400178
31
2.0000000000018767
  0
LINE
 8
Group#2
10
597.8540955974048
20
265.2873155871935
30
2.00000000000181
11
592.0376143178031
21
266.7006992673972
31
2.000000000001811
  0
LINE
 8
Group#2
10
566.2602467259414
20
221.79118598968682
30
2.0000000000019242
11
567.6360870630282
21
220.73546656789762
31
2.000000000005606
  0
LINE
 8
Group#2
10
627.4777046111418
20
266.70069926739717
30
2.00000000000191
11
621.6612233315401
21
265.2873155871935
31
2.0000000000019122
  0
LINE
 8
Group#2
10
561.5124370671674
20
249.4227483217353
30
2.000000000001887
11
561.7996581197253
21
249.9728852648587
31
2.0000000000018794
  0
LINE
 8
Group#2
10
577.9974508682072
20
272.8236458324012
30
2.000000000001876
11
577.6269440382199
21
272.94971570471466
31
2.000000000001825
  0
LINE
 8
Group#2
10
603.7787187068524
20
264.4341163640281
30
2.0000000000017804
11
597.8540955974048
21
265.2873155871935
31
2.00000000000181
  0
LINE
 8
Group#2
10
565.050827616585
20
235.4585894299604
30
2.0000000000018874
11
564.8520490617956
21
236.24601028932364
31
2.0000000000019447
  0
LINE
 8
Group#2
10
565.3833164332993
20
231.42392966789734
30
2.0000000000018465
11
565.4059015767614
21
232.23573902661855
31
2.0000000000018745
  0
LINE
 8
Group#2
10
560.8204612343868
20
246.4207654260216
30
2.000000000001911
11
560.855696500493
21
247.04036615653416
31
2.0000000000019393
  0
LINE
 8
Group#2
10
565.2045273041431
20
229.8101711296787
30
2.000000000001848
11
564.5408743315752
21
228.20797112259237
31
2.000000000001834
  0
LINE
 8
Group#2
10
565.3161238961225
20
230.61459062488626
30
2.000000000001861
11
565.3833164332993
21
231.42392966789734
31
2.0000000000018465
  0
LINE
 8
Group#2
10
633.1332023291347
20
268.66142705707864
30
2.0000000000018714
11
627.4777046111418
21
266.70069926739717
31
2.00000000000191
  0
LINE
 8
Group#2
10
561.4258810435172
20
243.40013656533415
30
2.000000000001927
11
561.2028800568988
21
243.97928866037813
31
2.0000000000019122
  0
LINE
 8
Group#2
10
561.0297761565921
20
244.57525982487994
30
2.0000000000019114
11
560.9078154861321
21
245.18375977071122
31
2.000000000001897
  0
LINE
 8
Group#2
10
577.6269440382199
20
272.94971570471466
30
2.000000000001825
11
577.2431462330092
21
273.026319676477
31
2.000000000001861
  0
LINE
 8
Group#2
10
621.6612233315401
20
265.2873155871935
30
2.0000000000019122
11
615.7366002220905
21
264.4341163640281
31
2.0000000000017772
  0
LINE
 8
Group#2
10
561.2028800568988
20
243.97928866037813
30
2.0000000000019122
11
561.0297761565921
21
244.57525982487994
31
2.0000000000019114
  0
LINE
 8
Group#2
10
560.8378760182214
20
245.80040801732343
30
2.0000000000018963
11
560.8204612343868
21
246.4207654260216
31
2.000000000001911
  0
LINE
 8
Group#2
10
615.7366002220905
20
264.4341163640281
30
2.0000000000017772
11
609.7576594644715
21
264.1488527660815
31
2.000000000001822
  0
LINE
 8
Group#2
10
571.0598817290163
20
218.3003942992547
30
2.000000000001911
11
571.6050111049557
21
217.65124154476882
31
2.00000000000194
  0
LINE
 8
Group#2
10
586.3821165998103
20
268.6614270570786
30
2.0000000000018328
11
580.9389816672236
21
271.1516860815697
31
2.0000000000018687
  0
LINE
 8
Group#2
10
567.6360870630282
20
220.73546656789762
30
2.000000000005606
11
569.2382870701144
21
220.07181359533158
31
2.000000000001939
  0
LINE
 8
Group#2
10
569.8750137888181
20
219.51222051026073
30
2.0000000000018816
11
570.4827269288794
21
218.92124667449167
31
2.000000000001939
  0
LINE
 8
Group#2
10
641.1669983630969
20
272.6502694238242
30
2.000000000001773
11
641.5178680607374
21
272.8236458324012
31
2.000000000001787
  0
LINE
 8
Group#2
10
576.8526312616931
20
273.05214565082116
30
2.00000000000184
11
576.4620879871155
21
273.02675127240894
31
2.0000000000018616
  0
LINE
 8
Group#2
10
576.0782057569069
20
272.95057150406507
30
2.0000000000018905
11
575.707559826242
21
272.82491117678205
31
2.0000000000018905
  0
LINE
 8
Group#2
10
593.1547737815025
20
203.68603984497082
30
2.0000000000018994
11
593.6043256827725
21
204.7713541420128
31
2.0000000000018843
  0
LINE
 8
Group#2
10
630.2576594644719
20
210.43603984497398
30
2.0000000000019145
11
629.0929737615111
21
210.28270606327303
31
2.000000000001915
  0
LINE
 8
Group#2
10
632.5076594644711
20
202.03892552794065
30
2.000000000001919
11
633.4396399798122
21
202.7540593296297
31
2.000000000001918
  0
LINE
 8
Group#2
10
634.154773781503
20
203.68603984497082
30
2.000000000001932
11
634.604325682773
21
204.7713541420128
31
2.0000000000018874
  0
LINE
 8
Group#2
10
561.6971737728674
20
242.84197275047705
30
2.000000000001884
11
563.6348918680122
21
239.25123417534144
31
2.0000000000019287
  0
LINE
 8
Group#2
10
573.4388543478378
20
214.80561847247787
30
2.0000000000018976
11
573.8048182451041
21
214.0410036929534
31
2.000000000001927
  0
LINE
 8
Group#2
10
627.0756789491315
20
209.11802036030664
30
2.00000000000193
11
626.3605451474406
21
208.18603984496562
31
2.0000000000019313
  0
LINE
 8
Group#2
10
588.0929737615104
20
201.58937362666333
30
2.0000000000018874
11
589.2576594644731
21
201.43603984496974
31
2.000000000001873
  0
LINE
 8
Group#2
10
592.6807133603886
20
237.92192817734662
30
2.0000000000018066
11
592.6627605726642
21
237.579303945079
31
2.0000000000018066
  0
LINE
 8
Group#2
10
592.7006630524422
20
236.5514022096974
30
2.000000000001894
11
592.7438003840551
21
236.2110305925768
31
2.000000000001894
  0
LINE
 8
Group#2
10
588.8770944391722
20
231.28662790051547
30
2.000000000001898
11
590.4308569431863
21
232.20489503795247
31
2.0000000000019114
  0
LINE
 8
Group#2
10
584.7576594644729
20
205.93603984497926
30
2.0000000000019003
11
584.9109932461702
21
204.7713541420128
31
2.0000000000018865
  0
LINE
 8
Group#2
10
572.1167293786531
20
216.97543850873265
30
2.000000000001882
11
572.5937358005895
21
216.27470303181923
31
2.000000000001926
  0
LINE
 8
Group#2
10
629.0929737615111
20
210.28270606327303
30
2.000000000001915
11
628.0076594644726
21
209.83315416199582
31
2.0000000000019007
  0
LINE
 8
Group#2
10
626.3605451474406
20
203.68603984497082
30
2.000000000001934
11
627.0756789491315
21
202.7540593296297
31
2.0000000000019194
  0
LINE
 8
Group#2
10
625.9109932461727
20
207.10072554793095
30
2.0000000000019034
11
625.7576594644717
21
205.93603984497926
31
2.0000000000019043
  0
LINE
 8
Group#2
10
634.154773781503
20
208.18603984496562
30
2.000000000001929
11
633.4396399798122
21
209.11802036030664
31
2.0000000000019287
  0
LINE
 8
Group#2
10
591.5076594644723
20
209.83315416199582
30
2.0000000000018816
11
590.4223451674321
21
210.28270606327303
31
2.0000000000018816
  0
LINE
 8
Group#2
10
634.604325682773
20
207.10072554793095
30
2.0000000000019007
11
634.154773781503
21
208.18603984496562
31
2.000000000001929
  0
LINE
 8
Group#2
10
593.7576594644715
20
205.93603984497926
30
2.0000000000018976
11
593.6043256827725
21
207.10072554793095
31
2.000000000001897
  0
LINE
 8
Group#2
10
627.0756789491315
20
202.7540593296297
30
2.0000000000019194
11
628.0076594644726
21
202.03892552794065
31
2.0000000000019202
  0
LINE
 8
Group#2
10
584.9109932461702
20
204.7713541420128
30
2.0000000000018865
11
585.3605451474419
21
203.68603984497082
31
2.00000000000193
  0
LINE
 8
Group#2
10
585.3605451474419
20
208.18603984496553
30
2.0000000000019567
11
584.9109932461702
21
207.10072554793095
31
2.0000000000018994
  0
LINE
 8
Group#2
10
572.5937358005895
20
216.27470303181923
30
2.000000000001926
11
573.0348178561676
21
215.5508163311402
31
2.0000000000019407
  0
LINE
 8
Group#2
10
590.4308569431863
20
232.20489503795247
30
2.0000000000019114
11
591.3889094853971
21
232.94003460949156
31
2.000000000001882
  0
LINE
 8
Group#2
10
571.6050111049557
20
217.65124154476882
30
2.00000000000194
11
572.1167293786531
21
216.97543850873265
31
2.000000000001882
  0
LINE
 8
Group#2
10
633.4396399798122
20
202.7540593296297
30
2.000000000001918
11
634.154773781503
21
203.68603984497082
31
2.000000000001932
  0
LINE
 8
Group#2
10
590.4223451674321
20
210.28270606327303
30
2.0000000000018816
11
589.2576594644731
21
210.43603984497395
31
2.0000000000018527
  0
LINE
 8
Group#2
10
586.0756789491328
20
202.75405932962968
30
2.0000000000019305
11
587.0076594644721
21
202.03892552794065
31
2.000000000001902
  0
LINE
 8
Group#2
10
585.3605451474419
20
203.68603984497082
30
2.00000000000193
11
586.0756789491328
21
202.75405932962968
31
2.0000000000019305
  0
LINE
 8
Group#2
10
626.3605451474406
20
208.18603984496562
30
2.0000000000019313
11
625.9109932461727
21
207.10072554793095
31
2.0000000000019034
  0
LINE
 8
Group#2
10
590.4223451674321
20
201.58937362666333
30
2.000000000001887
11
591.5076594644723
21
202.03892552794065
31
2.0000000000019007
  0
LINE
 8
Group#2
10
632.5076594644711
20
209.83315416199582
30
2.0000000000019
11
631.4223451674346
21
210.28270606327303
31
2.0000000000019145
  0
LINE
 8
Group#2
10
591.3889094853971
20
232.94003460949156
30
2.000000000001882
11
592.1240490569362
21
233.8980871517005
31
2.0000000000018523
  0
LINE
 8
Group#2
10
592.7139254592822
20
238.26341115438913
30
2.0000000000018066
11
592.6807133603886
21
237.92192817734662
31
2.0000000000018066
  0
LINE
 8
Group#2
10
631.4223451674346
20
210.28270606327303
30
2.0000000000019145
11
630.2576594644719
21
210.43603984497398
31
2.0000000000019145
  0
LINE
 8
Group#2
10
593.6043256827725
20
207.10072554793095
30
2.000000000001897
11
593.1547737815025
21
208.18603984496556
31
2.000000000001882
  0
LINE
 8
Group#2
10
628.0076594644726
20
202.03892552794065
30
2.0000000000019202
11
629.0929737615111
21
201.5893736266633
31
2.0000000000019056
  0
LINE
 8
Group#2
10
586.0756789491328
20
209.11802036030662
30
2.0000000000019127
11
585.3605451474419
21
208.18603984496553
31
2.0000000000019567
  0
LINE
 8
Group#2
10
588.0929737615104
20
210.28270606327303
30
2.000000000001911
11
587.0076594644721
21
209.83315416199574
31
2.000000000001897
  0
LINE
 8
Group#2
10
631.4223451674346
20
201.5893736266633
30
2.000000000001905
11
632.5076594644711
21
202.03892552794065
31
2.000000000001919
  0
LINE
 8
Group#2
10
625.9109932461727
20
204.7713541420128
30
2.0000000000018905
11
626.3605451474406
21
203.68603984497082
31
2.000000000001934
  0
LINE
 8
Group#2
10
573.8048182451041
20
214.0410036929534
30
2.000000000001927
11
574.1317792951492
21
213.2589155860849
31
2.0000000000019127
  0
LINE
 8
Group#2
10
589.2576594644731
20
210.43603984497395
30
2.0000000000018527
11
588.0929737615104
21
210.28270606327303
31
2.000000000001911
  0
LINE
 8
Group#2
10
589.2576594644731
20
201.43603984496974
30
2.000000000001873
11
590.4223451674321
21
201.58937362666333
31
2.000000000001887
  0
LINE
 8
Group#2
10
593.6043256827725
20
204.7713541420128
30
2.0000000000018843
11
593.7576594644715
21
205.93603984497926
31
2.0000000000018976
  0
LINE
 8
Group#2
10
633.4396399798122
20
209.11802036030664
30
2.0000000000019287
11
632.5076594644711
21
209.83315416199582
31
2.0000000000019
  0
LINE
 8
Group#2
10
628.0076594644726
20
209.83315416199582
30
2.0000000000019007
11
627.0756789491315
21
209.11802036030664
31
2.00000000000193
  0
LINE
 8
Group#2
10
573.0348178561676
20
215.5508163311402
30
2.0000000000019407
11
573.4388543478378
21
214.80561847247787
31
2.0000000000018976
  0
LINE
 8
Group#2
10
592.4396399798117
20
202.75405932962968
30
2.0000000000019145
11
593.1547737815025
21
203.68603984497082
31
2.0000000000018994
  0
LINE
 8
Group#2
10
587.0076594644721
20
202.03892552794065
30
2.000000000001902
11
588.0929737615104
21
201.58937362666333
31
2.0000000000018874
  0
LINE
 8
Group#2
10
593.1547737815025
20
208.18603984496556
30
2.000000000001882
11
592.4396399798117
21
209.11802036030664
31
2.0000000000018674
  0
LINE
 8
Group#2
10
634.757659464472
20
205.93603984497926
30
2.0000000000019016
11
634.604325682773
21
207.10072554793095
31
2.0000000000019007
  0
LINE
 8
Group#2
10
587.0076594644721
20
209.83315416199574
30
2.000000000001897
11
586.0756789491328
21
209.11802036030662
31
2.0000000000019127
  0
LINE
 8
Group#2
10
625.7576594644717
20
205.93603984497926
30
2.0000000000019043
11
625.9109932461727
21
204.7713541420128
31
2.0000000000018905
  0
LINE
 8
Group#2
10
584.9109932461702
20
207.10072554793095
30
2.0000000000018994
11
584.7576594644729
21
205.93603984497926
31
2.0000000000019003
  0
LINE
 8
Group#2
10
591.5076594644723
20
202.03892552794065
30
2.0000000000019007
11
592.4396399798117
21
202.75405932962968
31
2.0000000000019145
  0
LINE
 8
Group#2
10
630.2576594644719
20
201.43603984496974
30
2.000000000001905
11
631.4223451674346
21
201.5893736266633
31
2.000000000001905
  0
LINE
 8
Group#2
10
592.4396399798117
20
209.11802036030664
30
2.0000000000018674
11
591.5076594644723
21
209.83315416199582
31
2.0000000000018816
  0
LINE
 8
Group#2
10
629.0929737615111
20
201.5893736266633
30
2.0000000000019056
11
630.2576594644719
21
201.43603984496974
31
2.000000000001905
  0
LINE
 8
Group#2
10
592.1240490569362
20
233.8980871517005
30
2.0000000000018523
11
592.5861771108816
21
235.01376296709972
31
2.0000000000018945
  0
LINE
 8
Group#2
10
592.5861771108816
20
235.01376296709972
30
2.0000000000018945
11
592.7438003840551
21
236.2110305925768
31
2.000000000001894
  0
LINE
 8
Group#2
10
592.6601028067295
20
237.2362199853965
30
2.000000000001879
11
592.6727453492526
21
236.89335874050892
31
2.000000000001894
  0
LINE
 8
Group#2
10
592.6627605726642
20
237.579303945079
30
2.0000000000018066
11
592.6601028067295
21
237.2362199853965
31
2.000000000001879
  0
LINE
 8
Group#2
10
604.901132940716
20
244.89906046247074
30
2.0000000000019145
11
605.1901972806079
21
244.71163095905536
31
2.0000000000019433
  0
LINE
 8
Group#2
10
598.3249351529649
20
245.2110162851827
30
2.000000000001844
11
599.7309947661245
21
245.61118074922786
31
2.000000000001858
  0
LINE
 8
Group#2
10
594.7551547718954
20
242.73214633135836
30
2.0000000000017883
11
595.8028246568172
21
243.7517163614527
31
2.0000000000018168
  0
LINE
 8
Group#2
10
614.3251216483351
20
244.71163095905536
30
2.0000000000019407
11
614.0475551913872
21
244.50756020337033
31
2.000000000001927
  0
LINE
 8
Group#2
10
592.8547212323551
20
239.06319460488376
30
2.0000000000036247
11
592.825833114926
21
238.9402399333622
31
2.0000000000018057
  0
LINE
 8
Group#2
10
592.6727453492526
20
236.89335874050892
30
2.000000000001894
11
592.7006630524422
21
236.5514022096974
31
2.000000000001894
  0
LINE
 8
Group#2
10
599.7309947661245
20
245.61118074922786
30
2.000000000001858
11
601.1836604272562
21
245.775185965614
31
2.000000000001857
  0
LINE
 8
Group#2
10
626.9291418180635
20
235.01376296709972
30
2.0000000000019296
11
626.7715185448898
21
236.2110305925768
31
2.0000000000019145
  0
LINE
 8
Group#2
10
605.1901972806079
20
244.71163095905536
30
2.0000000000019433
11
605.4677637375576
21
244.50756020337033
31
2.000000000001929
  0
LINE
 8
Group#2
10
612.2576594644727
20
243.00821397050558
30
2.000000000001943
11
611.0517546899844
21
242.50871185798505
31
2.0000000000019433
  0
LINE
 8
Group#2
10
614.614185988229
20
244.89906046247074
30
2.0000000000019122
11
614.3251216483351
21
244.71163095905536
31
2.0000000000019407
  0
LINE
 8
Group#2
10
593.8889989437632
20
241.55447519074974
30
2.000000000001818
11
594.7551547718954
21
242.73214633135836
31
2.0000000000017883
  0
LINE
 8
Group#2
10
619.7843241628206
20
245.61118074922786
30
2.0000000000018816
11
618.3316585016869
21
245.775185965614
31
2.000000000001882
  0
LINE
 8
Group#2
10
614.9137517697164
20
245.06920262041427
30
2.000000000001926
11
614.614185988229
21
244.89906046247074
31
2.0000000000019122
  0
LINE
 8
Group#2
10
626.6605976965899
20
239.06319460488388
30
2.0000000000018976
11
626.689485814019
21
238.9402399333622
31
2.0000000000019127
  0
LINE
 8
Group#2
10
609.7576594644715
20
242.3383409894186
30
2.000000000001915
11
608.4635642389605
21
242.50871185798505
31
2.000000000001944
  0
LINE
 8
Group#2
10
611.0517546899844
20
242.50871185798505
30
2.0000000000019433
11
609.7576594644715
21
242.3383409894186
31
2.000000000001915
  0
LINE
 8
Group#2
10
615.8649718237192
20
245.47034988240387
30
2.000000000001926
11
615.5402244527568
21
245.35534050713008
31
2.000000000001926
  0
LINE
 8
Group#2
10
626.689485814019
20
238.9402399333622
30
2.0000000000019127
11
626.7529881231357
21
238.60307361852742
31
2.0000000000019127
  0
LINE
 8
Group#2
10
627.391269872007
20
233.89808715170054
30
2.0000000000019154
11
626.9291418180635
21
235.01376296709972
31
2.0000000000019296
  0
LINE
 8
Group#2
10
601.1836604272562
20
245.775185965614
30
2.000000000001857
11
602.6435465789414
21
245.69858532489937
31
2.0000000000018425
  0
LINE
 8
Group#2
10
626.2874780114254
20
240.25063267787854
30
2.0000000000019114
11
625.6263199851818
21
241.55447519074974
31
2.0000000000018967
  0
LINE
 8
Group#2
10
625.6263199851818
20
241.55447519074974
30
2.0000000000018967
11
624.7601641570477
21
242.73214633135834
31
2.000000000001925
  0
LINE
 8
Group#2
10
630.6382244897708
20
231.28662790051547
30
2.000000000001887
11
629.0844619857568
21
232.20489503795247
31
2.0000000000019016
  0
LINE
 8
Group#2
10
615.9521883288926
20
245.4955849359519
30
2.000000000001897
11
615.8649718237192
21
245.47034988240387
31
2.000000000001926
  0
LINE
 8
Group#2
10
616.8717723500017
20
245.69858532489937
30
2.0000000000018967
11
615.9521883288926
21
245.4955849359519
31
2.000000000001897
  0
LINE
 8
Group#2
10
626.7529881231357
20
238.60307361852742
30
2.0000000000019127
11
626.8013934696627
21
238.26341115438908
31
2.000000000001927
  0
LINE
 8
Group#2
10
605.9846187087569
20
244.05236370563549
30
2.0000000000019433
11
606.2221255585392
21
243.8028070834943
31
2.000000000001915
  0
LINE
 8
Group#2
10
608.4635642389605
20
242.50871185798505
30
2.000000000001944
11
607.2576594644721
21
243.00821397050558
31
2.000000000001944
  0
LINE
 8
Group#2
10
629.0844619857568
20
232.20489503795247
30
2.0000000000019016
11
628.1264094435461
21
232.94003460949156
31
2.000000000001916
  0
LINE
 8
Group#2
10
622.511715395341
20
244.58554207651554
30
2.000000000001881
11
621.1903837759783
21
245.21101628518275
31
2.000000000001881
  0
LINE
 8
Group#2
10
626.852558356279
20
237.579303945079
30
2.000000000001899
11
626.8552161222156
21
237.2362199853965
31
2.000000000001899
  0
LINE
 8
Group#2
10
631.9737361751978
20
230.07262584423657
30
2.000000000001902
11
630.6382244897708
21
231.28662790051547
31
2.000000000001887
  0
LINE
 8
Group#2
10
592.825833114926
20
238.9402399333622
30
2.0000000000018057
11
592.7623308058094
21
238.60307361852742
31
2.0000000000017772
  0
LINE
 8
Group#2
10
592.8547212323551
20
239.06319460488376
30
2.0000000000036247
11
593.2278409175196
21
240.25063267787854
31
2.0000000000017906
  0
LINE
 8
Group#2
10
595.8028246568172
20
243.7517163614527
30
2.0000000000018168
11
597.003603533604
21
244.58554207651554
31
2.000000000001787
  0
LINE
 8
Group#2
10
613.7824434240721
20
244.28755165312893
30
2.0000000000019127
11
613.5307002201882
21
244.05236370563549
31
2.0000000000019416
  0
LINE
 8
Group#2
10
626.8013934696627
20
238.26341115438908
30
2.000000000001927
11
626.8346055685563
21
237.92192817734662
31
2.00000000000187
  0
LINE
 8
Group#2
10
603.6503471052238
20
245.47034988240387
30
2.0000000000019145
11
603.9750944761881
21
245.35534050713008
31
2.0000000000018856
  0
LINE
 8
Group#2
10
623.7124942721277
20
243.7517163614527
30
2.000000000001896
11
622.511715395341
21
244.58554207651554
31
2.000000000001881
  0
LINE
 8
Group#2
10
628.1264094435461
20
232.94003460949156
30
2.000000000001916
11
627.391269872007
21
233.89808715170054
31
2.0000000000019154
  0
LINE
 8
Group#2
10
593.2278409175196
20
240.25063267787854
30
2.0000000000017906
11
593.8889989437632
21
241.55447519074974
31
2.000000000001818
  0
LINE
 8
Group#2
10
605.732875504873
20
244.28755165312893
30
2.0000000000019145
11
605.9846187087569
21
244.05236370563549
31
2.0000000000019433
  0
LINE
 8
Group#2
10
603.5631306000523
20
245.4955849359519
30
2.000000000001813
11
603.6503471052238
21
245.47034988240387
31
2.0000000000019145
  0
LINE
 8
Group#2
10
605.4677637375576
20
244.50756020337033
30
2.000000000001929
11
605.732875504873
21
244.28755165312893
31
2.0000000000019145
  0
LINE
 8
Group#2
10
624.7601641570477
20
242.73214633135834
30
2.000000000001925
11
623.7124942721277
21
243.7517163614527
31
2.000000000001896
  0
LINE
 8
Group#2
10
621.1903837759783
20
245.21101628518275
30
2.000000000001881
11
619.7843241628206
21
245.61118074922786
31
2.0000000000018816
  0
LINE
 8
Group#2
10
626.8425735796923
20
236.89335874050892
30
2.000000000001928
11
626.8146558765027
21
236.5514022096974
31
2.000000000001914
  0
LINE
 8
Group#2
10
614.0475551913872
20
244.50756020337033
30
2.000000000001927
11
613.7824434240721
21
244.28755165312893
31
2.0000000000019127
  0
LINE
 8
Group#2
10
626.8552161222156
20
237.2362199853965
30
2.000000000001899
11
626.8425735796923
21
236.89335874050892
31
2.000000000001928
  0
LINE
 8
Group#2
10
603.9750944761881
20
245.35534050713008
30
2.0000000000018856
11
604.2925325772861
21
245.22147093133893
31
2.0000000000018714
  0
LINE
 8
Group#2
10
613.2931933704036
20
243.8028070834943
30
2.000000000001913
11
612.2576594644727
21
243.00821397050558
31
2.000000000001943
  0
LINE
 8
Group#2
10
602.6435465789414
20
245.69858532489937
30
2.0000000000018425
11
603.5631306000523
21
245.4955849359519
31
2.000000000001813
  0
LINE
 8
Group#2
10
626.6605976965899
20
239.06319460488388
30
2.0000000000018976
11
626.2874780114254
21
240.25063267787854
31
2.0000000000019114
  0
LINE
 8
Group#2
10
626.8146558765027
20
236.5514022096974
30
2.000000000001914
11
626.7715185448898
21
236.2110305925768
31
2.0000000000019145
  0
LINE
 8
Group#2
10
615.5402244527568
20
245.35534050713008
30
2.000000000001926
11
615.2227863516588
21
245.22147093133887
31
2.0000000000019407
  0
LINE
 8
Group#2
10
592.7623308058094
20
238.60307361852742
30
2.0000000000017772
11
592.7139254592822
21
238.26341115438913
31
2.0000000000018066
  0
LINE
 8
Group#2
10
597.003603533604
20
244.58554207651554
30
2.000000000001787
11
598.3249351529649
21
245.2110162851827
31
2.000000000001844
  0
LINE
 8
Group#2
10
613.5307002201882
20
244.05236370563549
30
2.0000000000019416
11
613.2931933704036
21
243.8028070834943
31
2.000000000001913
  0
LINE
 8
Group#2
10
604.2925325772861
20
245.22147093133893
30
2.0000000000018714
11
604.6015671592282
21
245.0692026204142
31
2.0000000000018567
  0
LINE
 8
Group#2
10
618.3316585016869
20
245.775185965614
30
2.000000000001882
11
616.8717723500017
21
245.69858532489937
31
2.0000000000018967
  0
LINE
 8
Group#2
10
615.2227863516588
20
245.22147093133887
30
2.0000000000019407
11
614.9137517697164
21
245.06920262041427
31
2.000000000001926
  0
LINE
 8
Group#2
10
607.2576594644721
20
243.00821397050558
30
2.000000000001944
11
606.2221255585392
21
243.8028070834943
31
2.000000000001915
  0
LINE
 8
Group#2
10
604.6015671592282
20
245.0692026204142
30
2.0000000000018567
11
604.901132940716
21
244.89906046247074
31
2.0000000000019145
  0
LINE
 8
Group#2
10
582.6633948243781
20
123.79692012040496
30
2.0000000000019793
11
582.5035541483711
21
123.41103059256224
31
2.0000000000019944
  0
LINE
 8
Group#2
10
617.6514861663954
20
212.3531892562149
30
2.000000000001931
11
620.232841287084
21
212.93869892407815
31
2.00000000000193
  0
LINE
 8
Group#2
10
586.4797090402002
20
228.6132367011223
30
2.0000000000019007
11
587.5415827537471
21
230.07262584423657
31
2.000000000001856
  0
LINE
 8
Group#2
10
634.1754635880644
20
225.20806257923266
30
2.0000000000018465
11
633.7798069575985
21
226.9689851457714
31
2.0000000000018314
  0
LINE
 8
Group#2
10
568.8924783744995
20
246.78067734044683
30
2.0000000000019083
11
568.9538118871781
21
247.24655162162156
31
2.000000000001894
  0
LINE
 8
Group#2
10
633.8706552852384
20
221.63013452590945
30
2.000000000001849
11
634.2061708676077
21
223.403499053736
31
2.000000000001848
  0
LINE
 8
Group#2
10
565.8810196810438
20
245.97375941549203
30
2.0000000000019096
11
566.253811887179
21
245.68770589480906
31
2.0000000000019096
  0
LINE
 8
Group#2
10
568.7126576139912
20
248.14655162162492
30
2.000000000001915
11
568.4266040933137
21
248.5193438277585
31
2.0000000000019003
  0
LINE
 8
Group#2
10
567.6196861683627
20
245.5078851343025
30
2.000000000001924
11
568.0538118871784
21
245.68770589480906
31
2.000000000001909
  0
LINE
 8
Group#2
10
609.7576594644715
20
211.596293882816
30
2.0000000000019624
11
612.4032415725841
21
211.6806214554986
31
2.000000000001933
  0
LINE
 8
Group#2
10
591.8458499154971
20
215.5952981078658
30
2.0000000000018057
11
590.1591485365034
21
216.23750595013396
31
2.0000000000018203
  0
LINE
 8
Group#2
10
582.6633948243781
20
124.62514106472449
30
2.0000000000019504
11
582.7179135023154
21
124.21103059256848
31
2.0000000000019504
  0
LINE
 8
Group#2
10
586.3324873815837
20
219.96151504857298
30
2.0000000000018185
11
585.6446636437048
21
221.63013452590945
31
2.000000000001861
  0
LINE
 8
Group#2
10
625.2576594644713
20
214.59629388281746
30
2.000000000001928
11
627.669469013448
21
215.5952981078659
31
2.0000000000019122
  0
LINE
 8
Group#2
10
567.6196861683627
20
248.98521810894795
30
2.0000000000019216
11
567.1538118871787
21
249.0465516216209
31
2.000000000001893
  0
LINE
 8
Group#2
10
615.0380828734333
20
211.93326181176133
30
2.0000000000019464
11
617.6514861663954
21
212.3531892562149
31
2.000000000001931
  0
LINE
 8
Group#2
10
565.4151453998579
20
247.7124259028037
30
2.000000000001894
11
565.3538118871794
21
247.24655162162156
31
2.0000000000018945
  0
LINE
 8
Group#2
10
591.8458499154971
20
215.5952981078658
30
2.0000000000018057
11
594.2576594644719
21
214.59629388281735
31
2.0000000000018345
  0
LINE
 8
Group#2
10
566.253811887179
20
248.80539734844152
30
2.0000000000018936
11
565.8810196810438
21
248.5193438277585
31
2.0000000000019007
  0
LINE
 8
Group#2
10
601.8638327625478
20
212.35318925621493
30
2.000000000001834
11
604.4772360555116
21
211.9332618117614
31
2.0000000000018336
  0
LINE
 8
Group#2
10
626.8346055685563
20
237.92192817734662
30
2.00000000000187
11
626.852558356279
21
237.579303945079
31
2.000000000001899
  0
LINE
 8
Group#2
10
590.1591485365034
20
216.23750595013396
30
2.0000000000018203
11
588.6375278484288
21
217.20810521666178
31
2.000000000001849
  0
LINE
 8
Group#2
10
632.1712254985764
20
218.46684262404776
30
2.000000000001851
11
633.1828315473612
21
219.96151504857298
31
2.000000000001836
  0
LINE
 8
Group#2
10
585.6446636437048
20
221.63013452590945
30
2.000000000001861
11
585.3091480613372
21
223.403499053736
31
2.0000000000018607
  0
LINE
 8
Group#2
10
566.253811887179
20
245.68770589480906
30
2.0000000000019096
11
566.6879376059948
21
245.5078851343025
31
2.000000000001924
  0
LINE
 8
Group#2
10
565.5949661603662
20
246.34655162162557
30
2.0000000000018954
11
565.8810196810438
21
245.97375941549203
31
2.0000000000019096
  0
LINE
 8
Group#2
10
587.5415827537471
20
230.07262584423657
30
2.000000000001856
11
588.8770944391722
21
231.28662790051547
31
2.000000000001898
  0
LINE
 8
Group#2
10
633.7798069575985
20
226.9689851457714
30
2.0000000000018314
11
633.0356098887448
21
228.6132367011223
31
2.0000000000019025
  0
LINE
 8
Group#2
10
634.2061708676077
20
223.403499053736
30
2.000000000001848
11
634.1754635880644
21
225.20806257923266
31
2.0000000000018465
  0
LINE
 8
Group#2
10
594.2576594644719
20
214.59629388281735
30
2.0000000000018345
11
596.7436507453543
21
213.68741370278963
31
2.0000000000018057
  0
LINE
 8
Group#2
10
568.4266040933137
20
248.5193438277585
30
2.0000000000019003
11
568.0538118871784
21
248.80539734844152
31
2.000000000001893
  0
LINE
 8
Group#2
10
565.4151453998579
20
246.78067734044683
30
2.000000000001909
11
565.5949661603662
21
246.34655162162557
31
2.0000000000018954
  0
LINE
 8
Group#2
10
568.8924783744995
20
247.7124259028037
30
2.0000000000018936
11
568.7126576139912
21
248.14655162162492
31
2.000000000001915
  0
LINE
 8
Group#2
10
566.6879376059948
20
248.98521810894795
30
2.000000000001922
11
566.253811887179
21
248.80539734844152
31
2.0000000000018936
  0
LINE
 8
Group#2
10
633.0356098887448
20
228.6132367011223
30
2.0000000000019025
11
631.9737361751978
21
230.07262584423657
31
2.000000000001902
  0
LINE
 8
Group#2
10
568.9538118871781
20
247.24655162162156
30
2.000000000001894
11
568.8924783744995
21
247.7124259028037
31
2.0000000000018936
  0
LINE
 8
Group#2
10
565.8810196810438
20
248.5193438277585
30
2.0000000000019007
11
565.5949661603662
21
248.14655162162492
31
2.000000000001916
  0
LINE
 8
Group#2
10
568.7126576139912
20
246.34655162162557
30
2.000000000001894
11
568.8924783744995
21
246.78067734044683
31
2.0000000000019083
  0
LINE
 8
Group#2
10
629.3561703924397
20
216.23750595013388
30
2.000000000001868
11
630.8777910805163
21
217.20810521666186
31
2.00000000000191
  0
LINE
 8
Group#2
10
604.4772360555116
20
211.9332618117614
30
2.0000000000018336
11
607.1120773563609
21
211.6806214554986
31
2.0000000000018767
  0
LINE
 8
Group#2
10
565.3538118871794
20
247.24655162162156
30
2.0000000000018945
11
565.4151453998579
21
246.78067734044683
31
2.000000000001909
  0
LINE
 8
Group#2
10
612.4032415725841
20
211.6806214554986
30
2.000000000001933
11
615.0380828734333
21
211.93326181176133
31
2.0000000000019464
  0
LINE
 8
Group#2
10
567.1538118871787
20
245.44655162162215
30
2.0000000000019096
11
567.6196861683627
21
245.5078851343025
31
2.000000000001924
  0
LINE
 8
Group#2
10
587.3440934303686
20
218.4668426240478
30
2.000000000001834
11
586.3324873815837
21
219.96151504857298
31
2.0000000000018185
  0
LINE
 8
Group#2
10
588.6375278484288
20
217.20810521666178
30
2.000000000001849
11
587.3440934303686
21
218.4668426240478
31
2.000000000001834
  0
LINE
 8
Group#2
10
622.7716681835888
20
213.68741370278963
30
2.0000000000019145
11
625.2576594644713
21
214.59629388281746
31
2.000000000001928
  0
LINE
 8
Group#2
10
596.7436507453543
20
213.68741370278963
30
2.0000000000018057
11
599.2824776418609
21
212.93869892407812
31
2.000000000001777
  0
LINE
 8
Group#2
10
582.6633948243781
20
124.62514106472449
30
2.0000000000019504
11
582.5035541483691
21
125.01103059256738
31
2.0000000000019638
  0
LINE
 8
Group#2
10
566.6879376059948
20
245.5078851343025
30
2.000000000001924
11
567.1538118871787
21
245.44655162162215
31
2.0000000000019096
  0
LINE
 8
Group#2
10
585.7355119713465
20
226.96898514577148
30
2.0000000000019305
11
586.4797090402002
21
228.6132367011223
31
2.0000000000019007
  0
LINE
 8
Group#2
10
568.0538118871784
20
245.68770589480906
30
2.000000000001909
11
568.4266040933137
21
245.97375941549203
31
2.000000000001909
  0
LINE
 8
Group#2
10
630.8777910805163
20
217.20810521666186
30
2.00000000000191
11
632.1712254985764
21
218.46684262404776
31
2.000000000001851
  0
LINE
 8
Group#2
10
607.1120773563609
20
211.6806214554986
30
2.0000000000018767
11
609.7576594644715
21
211.596293882816
31
2.0000000000019624
  0
LINE
 8
Group#2
10
582.7179135023154
20
124.21103059256848
30
2.0000000000019504
11
582.6633948243781
21
123.79692012040496
31
2.0000000000019793
  0
LINE
 8
Group#2
10
599.2824776418609
20
212.93869892407812
30
2.000000000001777
11
601.8638327625478
21
212.35318925621493
31
2.000000000001834
  0
LINE
 8
Group#2
10
627.669469013448
20
215.5952981078659
30
2.0000000000019122
11
629.3561703924397
21
216.23750595013388
31
2.000000000001868
  0
LINE
 8
Group#2
10
568.4266040933137
20
245.97375941549203
30
2.000000000001909
11
568.7126576139912
21
246.34655162162557
31
2.000000000001894
  0
LINE
 8
Group#2
10
585.3091480613372
20
223.403499053736
30
2.0000000000018607
11
585.3398553408787
21
225.2080625792326
31
2.0000000000018883
  0
LINE
 8
Group#2
10
565.5949661603662
20
248.14655162162492
30
2.000000000001916
11
565.4151453998579
21
247.7124259028037
31
2.000000000001894
  0
LINE
 8
Group#2
10
568.0538118871784
20
248.80539734844152
30
2.000000000001893
11
567.6196861683627
21
248.98521810894795
31
2.0000000000019216
  0
LINE
 8
Group#2
10
567.1538118871787
20
249.0465516216209
30
2.000000000001893
11
566.6879376059948
21
248.98521810894795
31
2.000000000001922
  0
LINE
 8
Group#2
10
620.232841287084
20
212.93869892407815
30
2.00000000000193
11
622.7716681835888
21
213.68741370278963
31
2.0000000000019145
  0
LINE
 8
Group#2
10
582.5035541483691
20
125.01103059256738
30
2.0000000000019638
11
582.2492843522125
21
125.34240144246698
31
2.000000000001979
  0
LINE
 8
Group#2
10
585.3398553408787
20
225.2080625792326
30
2.0000000000018883
11
585.7355119713465
21
226.96898514577148
31
2.0000000000019305
  0
LINE
 8
Group#2
10
633.1828315473612
20
219.96151504857298
30
2.000000000001836
11
633.8706552852384
21
221.63013452590945
31
2.000000000001849
 0
ENDSEC
 0
EOF
