0
SECTION
2
HEADER
9
$INSUNITS
70
4
9
$ACADVER
1
AC1014
9
$HANDSEED
5
FFFF
0
ENDSEC
0
SECTION
2
TABLES
0
TABLE
2
VPORT
5
8
100
AcDbSymbolTable
0
ENDTAB
0
TABLE
2
LTYPE
5
5
100
AcDbSymbolTable
0
LTYPE
5
14
100
AcDbSymbolTableRecord
100
AcDbLinetypeTableRecord
2
BYBLOCK
70
0
0
LTYPE
5
15
100
AcDbSymbolTableRecord
100
AcDbLinetypeTableRecord
2
BYLAYER
70
0
0
ENDTAB
0
TABLE
2
LAYER
5
2
100
AcDbSymbolTable
70
2
0
LAYER
5
50
100
AcDbSymbolTableRecord
100
AcDbLayerTableRecord
2
0
70
0
6
CONTINUOUS
0
ENDTAB
0
TABLE
2
STYLE
5
3
100
AcDbSymbolTable
70
1
0
STYLE
5
11
100
AcDbSymbolTableRecord
100
AcDbTextStyleTableRecord
2
STANDARD
70
0
0
ENDTAB
0
TABLE
2
VIEW
5
6
100
AcDbSymbolTable
70
0
0
ENDTAB
0
TABLE
2
UCS
5
7
100
AcDbSymbolTable
70
0
0
ENDTAB
0
TABLE
2
APPID
5
9
100
AcDbSymbolTable
70
2
0
APPID
5
12
100
AcDbSymbolTableRecord
100
AcDbRegAppTableRecord
2
ACAD
70
0
0
ENDTAB
0
TABLE
2
DIMSTYLE
5
A
100
AcDbSymbolTable
70
1
0
ENDTAB
0
TABLE
2
BLOCK_RECORD
5
1
100
AcDbSymbolTable
70
1
0
BLOCK_RECORD
5
1F
100
AcDbSymbolTableRecord
100
AcDbBlockTableRecord
2
*MODEL_SPACE
0
BLOCK_RECORD
5
1B
100
AcDbSymbolTableRecord
100
AcDbBlockTableRecord
2
*PAPER_SPACE
0
ENDTAB
0
ENDSEC
0
SECTION
2
BLOCKS
0
BLOCK
5
20
100
AcDbEntity
100
AcDbBlockBegin
2
*MODEL_SPACE
0
ENDBLK
5
21
100
AcDbEntity
100
AcDbBlockEnd
0
BLOCK
5
1C
100
AcDbEntity
100
AcDbBlockBegin
2
*PAPER_SPACE
0
ENDBLK
5
1D
100
AcDbEntity
100
AcDbBlockEnd
0
ENDSEC
0
SECTION
2
ENTITIES
0
ARC
5
100
100
AcDbEntity
8
0
100
AcDbCircle
10
-74.442643902941398
20
2.8748250748126675e-15
30
0
40
26.700063058905641
100
AcDbArc
50
-39.345238007667831
51
39.345238007667895
0
LINE
5
101
100
AcDbEntity
8
0
100
AcDbLine
10
-53.794420305569552
20
16.927617364014171
30
-3.8725341730410913e-31
11
-57.354605640661759
21
18.865798507394192
31
0
0
ARC
5
102
100
AcDbEntity
8
0
100
AcDbCircle
10
-52.573193159788751
20
27.648628045063216
30
0
40
9.9999999999999822
100
AcDbArc
50
171.9501222993573
51
241.43592578913555
0
ARC
5
103
100
AcDbEntity
8
0
100
AcDbCircle
10
-69.900757595082922
20
30.099242404917263
30
0
40
7.4999999999998597
100
AcDbArc
50
-8.0498777006426661
51
135.00000000000031
0
LINE
5
104
100
AcDbEntity
8
0
100
AcDbLine
10
-75.204058453981958
20
35.402543263816241
30
-1.1114055923988556e-31
11
-87.142138522228862
21
23.464463195569195
31
0
0
ARC
5
105
100
AcDbEntity
8
0
100
AcDbCircle
10
-90.671000593147397
20
27.006668936516181
30
0
40
5.0000000000000302
100
AcDbArc
50
269.97294228177316
51
314.89187841374604
0
LINE
5
106
100
AcDbEntity
8
0
100
AcDbLine
10
-90.673361824415309
20
22.006669494057491
30
-9.5854726176614009e-50
11
-109.34181752581662
21
22.015485603305784
31
0
0
ARC
5
107
100
AcDbEntity
8
0
100
AcDbCircle
10
-109.33781447119742
20
27.015484000860916
30
0
40
5.0000000000000213
100
AcDbArc
50
224.99999999999977
51
269.95412836813136
0
LINE
5
108
100
AcDbEntity
8
0
100
AcDbLine
10
-112.87334837713018
20
23.479950094928178
30
1.2325951644078342e-31
11
-124.79594154601811
21
35.40254326381622
31
3.4512664603419266e-30
0
ARC
5
109
100
AcDbEntity
8
0
100
AcDbCircle
10
-130.09924240491722
20
30.09924240491717
30
0
40
7.4999999999999512
100
AcDbArc
50
44.999999999999694
51
217.71811711501178
0
ARC
5
110
100
AcDbEntity
8
0
100
AcDbCircle
10
-139.98711898670049
20
22.452027441061354
30
0
40
5
100
AcDbArc
50
-56.475364136805815
51
37.718117115012056
0
LINE
5
111
100
AcDbEntity
8
0
100
AcDbLine
10
-137.22564155698552
20
18.283785316954983
30
6.1629758220391547e-32
11
-138.94615105610757
21
17.250375238361087
31
0
0
ARC
5
112
100
AcDbEntity
8
0
100
AcDbCircle
10
-137.14400000000001
20
14.25
30
0
40
3.5000000000000031
100
AcDbArc
50
120.99079124953663
51
181.17447633597811
0
LINE
5
113
100
AcDbEntity
8
0
100
AcDbLine
10
-140.64326469737179
20
14.178260347592019
30
-5.4710410790534999e-33
11
-140.64326469737176
21
-14.178260347591994
31
0
0
ARC
5
114
100
AcDbEntity
8
0
100
AcDbCircle
10
-137.14399999999995
20
-14.249999999999929
30
1.2795059220153359e-45
40
3.500000000000048
100
AcDbArc
50
178.8255236640228
51
239.00920875046293
0
LINE
5
115
100
AcDbEntity
8
0
100
AcDbLine
10
-138.94615105610757
20
-17.250375238361059
30
-4.3140830754274083e-32
11
-137.22564155698552
21
-18.283785316954962
31
0
0
ARC
5
116
100
AcDbEntity
8
0
100
AcDbCircle
10
-139.98711898670049
20
-22.452027441061322
30
0
40
4.9999999999999991
100
AcDbArc
50
-37.718117115011964
51
56.475364136805766
0
ARC
5
117
100
AcDbEntity
8
0
100
AcDbCircle
10
-130.09924240491722
20
-30.099242404917138
30
-2.0526832973508063e-47
40
7.4999999999999423
100
AcDbArc
50
142.28188288498814
51
315.00000000000028
0
LINE
5
118
100
AcDbEntity
8
0
100
AcDbLine
10
-124.79594154601811
20
-35.402543263816185
30
9.2444637330586642e-32
11
-112.87334837713017
21
-23.479950094928146
31
-1.4791141972893971e-30
0
ARC
5
119
100
AcDbEntity
8
0
100
AcDbCircle
10
-109.3378144711974
20
-27.015484000860933
30
1.2316099784104838e-45
40
5.0000000000000631
100
AcDbArc
50
90.045871631868778
51
134.99999999999986
0
LINE
5
120
100
AcDbEntity
8
0
100
AcDbLine
10
-109.34181752581662
20
-22.015485603305756
30
-8.7157611987989931e-32
11
-90.673361824415338
21
-22.006669494057466
31
0
0
ARC
5
121
100
AcDbEntity
8
0
100
AcDbCircle
10
-90.671000593147383
20
-27.00666893651611
30
0
40
4.9999999999999805
100
AcDbArc
50
45.108121586253738
51
90.027057718227354
0
LINE
5
122
100
AcDbEntity
8
0
100
AcDbLine
10
-87.142138522228862
20
-23.464463195569166
30
0
11
-75.204058453981958
21
-35.40254326381622
31
0
0
ARC
5
123
100
AcDbEntity
8
0
100
AcDbCircle
10
-69.900757595082936
20
-30.099242404917234
30
-9.5791887209704292e-47
40
7.499999999999857
100
AcDbArc
50
-135.0000000000002
51
8.0498777006426536
0
ARC
5
124
100
AcDbEntity
8
0
100
AcDbCircle
10
-52.573193159788765
20
-27.648628045063184
30
0
40
9.9999999999999698
100
AcDbArc
50
118.56407421086439
51
188.04987770064275
0
LINE
5
125
100
AcDbEntity
8
0
100
AcDbLine
10
-57.354605640661759
20
-18.865798507394164
30
0
11
-53.794420305569531
21
-16.927617364014143
31
-3.2910368615791248e-31
0
CIRCLE
5
126
100
AcDbEntity
8
0
100
AcDbCircle
10
-129.98499234175458
20
-18.549999895691851
30
0
40
1.4999999999999991
0
CIRCLE
5
127
100
AcDbEntity
8
0
100
AcDbCircle
10
-137.14399999999995
20
-14.249999999999929
30
1.2795059220153359e-45
40
1.4999999999999991
0
CIRCLE
5
128
100
AcDbEntity
8
0
100
AcDbCircle
10
-56.195999999999991
20
-14.249999999999975
30
0
40
1.5000000000000036
0
CIRCLE
5
129
100
AcDbEntity
8
0
100
AcDbCircle
10
-90
20
-9.9999999999999787
30
0
40
1.0000000000000009
0
CIRCLE
5
130
100
AcDbEntity
8
0
100
AcDbCircle
10
-110
20
-9.9999999999999787
30
0
40
1.0000000000000009
0
CIRCLE
5
131
100
AcDbEntity
8
0
100
AcDbCircle
10
-130.09924240491722
20
-30.099242404917138
30
-2.0526832973508063e-47
40
1.4749999999999863
0
CIRCLE
5
132
100
AcDbEntity
8
0
100
AcDbCircle
10
-65.242580844035771
20
-19.174999895691851
30
0
40
1.4999999999999991
0
CIRCLE
5
133
100
AcDbEntity
8
0
100
AcDbCircle
10
-135
20
-4.9999999999999876
30
0
40
1.4999999999999991
0
CIRCLE
5
134
100
AcDbEntity
8
0
100
AcDbCircle
10
-84.75
20
-15.249999999999979
30
0
40
1.4999999999999991
0
CIRCLE
5
135
100
AcDbEntity
8
0
100
AcDbCircle
10
-121.25
20
-4.9999999999999787
30
0
40
1.4999999999999991
0
CIRCLE
5
136
100
AcDbEntity
8
0
100
AcDbCircle
10
-69.900757595082936
20
-30.099242404917234
30
-9.5791887209704292e-47
40
1.4749999999999863
0
CIRCLE
5
137
100
AcDbEntity
8
0
100
AcDbCircle
10
-115.25
20
-15.249999999999979
30
0
40
1.4999999999999991
0
CIRCLE
5
138
100
AcDbEntity
8
0
100
AcDbCircle
10
-115.25
20
15.250000000000005
30
0
40
1.4999999999999991
0
CIRCLE
5
139
100
AcDbEntity
8
0
100
AcDbCircle
10
-69.900757595082922
20
30.099242404917263
30
0
40
1.4749999999999863
0
CIRCLE
5
140
100
AcDbEntity
8
0
100
AcDbCircle
10
-121.25
20
5.0000000000000036
30
0
40
1.4999999999999991
0
CIRCLE
5
141
100
AcDbEntity
8
0
100
AcDbCircle
10
-84.75
20
15.250000000000005
30
0
40
1.4999999999999991
0
CIRCLE
5
142
100
AcDbEntity
8
0
100
AcDbCircle
10
-135
20
5.0000000000000124
30
0
40
1.4999999999999991
0
CIRCLE
5
143
100
AcDbEntity
8
0
100
AcDbCircle
10
-65.242580844035771
20
19.174999895691876
30
0
40
1.4999999999999991
0
CIRCLE
5
144
100
AcDbEntity
8
0
100
AcDbCircle
10
-130.09924240491722
20
30.09924240491717
30
0
40
1.4749999999999863
0
CIRCLE
5
145
100
AcDbEntity
8
0
100
AcDbCircle
10
-110
20
10.000000000000004
30
0
40
1.0000000000000009
0
CIRCLE
5
146
100
AcDbEntity
8
0
100
AcDbCircle
10
-90
20
10.000000000000004
30
0
40
1.0000000000000009
0
CIRCLE
5
147
100
AcDbEntity
8
0
100
AcDbCircle
10
-56.195999999999991
20
14.250000000000004
30
0
40
1.5000000000000036
0
CIRCLE
5
148
100
AcDbEntity
8
0
100
AcDbCircle
10
-137.14400000000001
20
14.25
30
0
40
1.4999999999999991
0
CIRCLE
5
149
100
AcDbEntity
8
0
100
AcDbCircle
10
-129.98499234175458
20
18.549999895691876
30
0
40
1.4999999999999991
0
LWPOLYLINE
5
150
100
AcDbEntity
8
0
100
AcDbPolyline
90
4
70
1
43
0.0
10
-56.195999999999991
20
11.000000000000014
10
-71.195999999999998
20
11.000000000000014
42
0.99999999999999989
10
-71.195999999999998
20
9.5000000000000142
10
-56.195999999999991
20
9.5000000000000142
42
0.99999999999999989
0
LWPOLYLINE
5
151
100
AcDbEntity
8
0
100
AcDbPolyline
90
4
70
1
43
0.0
10
-58.695999985098837
20
1.0000000000000133
10
-68.696000014901145
20
1.0000000000000133
42
0.99999999999999989
10
-68.696000014901145
20
-0.99999999999998668
10
-58.695999985098837
20
-0.99999999999998668
42
0.99999999999999989
0
LWPOLYLINE
5
152
100
AcDbEntity
8
0
100
AcDbPolyline
90
4
70
1
43
0.0
10
-56.195999999999991
20
-9.4999999999999893
10
-71.195999999999998
20
-9.4999999999999893
42
0.99999999999999989
10
-71.195999999999998
20
-10.999999999999988
10
-56.195999999999991
20
-10.999999999999988
42
0.99999999999999989
0
ENDSEC
0
SECTION
2
OBJECTS
0
DICTIONARY
5
C
100
AcDbDictionary
3
ACAD_GROUP
350
D
3
ACAD_MLINESTYLE
350
17
0
DICTIONARY
5
D
100
AcDbDictionary
0
DICTIONARY
5
1A
330
C
100
AcDbDictionary
0
DICTIONARY
5
17
100
AcDbDictionary
0
ENDSEC
0
EOF
