0
SECTION
2
HEADER
9
$INSUNITS
70
4
9
$ACADVER
1
AC1014
9
$HANDSEED
5
FFFF
0
ENDSEC
0
SECTION
2
TABLES
0
TABLE
2
VPORT
5
8
100
AcDbSymbolTable
0
ENDTAB
0
TABLE
2
LTYPE
5
5
100
AcDbSymbolTable
0
LTYPE
5
14
100
AcDbSymbolTableRecord
100
AcDbLinetypeTableRecord
2
BYBLOCK
70
0
0
LTYPE
5
15
100
AcDbSymbolTableRecord
100
AcDbLinetypeTableRecord
2
BYLAYER
70
0
0
ENDTAB
0
TABLE
2
LAYER
5
2
100
AcDbSymbolTable
70
2
0
LAYER
5
50
100
AcDbSymbolTableRecord
100
AcDbLayerTableRecord
2
0
70
0
6
CONTINUOUS
0
ENDTAB
0
TABLE
2
STYLE
5
3
100
AcDbSymbolTable
70
1
0
STYLE
5
11
100
AcDbSymbolTableRecord
100
AcDbTextStyleTableRecord
2
STANDARD
70
0
0
ENDTAB
0
TABLE
2
VIEW
5
6
100
AcDbSymbolTable
70
0
0
ENDTAB
0
TABLE
2
UCS
5
7
100
AcDbSymbolTable
70
0
0
ENDTAB
0
TABLE
2
APPID
5
9
100
AcDbSymbolTable
70
2
0
APPID
5
12
100
AcDbSymbolTableRecord
100
AcDbRegAppTableRecord
2
ACAD
70
0
0
ENDTAB
0
TABLE
2
DIMSTYLE
5
A
100
AcDbSymbolTable
70
1
0
ENDTAB
0
TABLE
2
BLOCK_RECORD
5
1
100
AcDbSymbolTable
70
1
0
BLOCK_RECORD
5
1F
100
AcDbSymbolTableRecord
100
AcDbBlockTableRecord
2
*MODEL_SPACE
0
BLOCK_RECORD
5
1B
100
AcDbSymbolTableRecord
100
AcDbBlockTableRecord
2
*PAPER_SPACE
0
ENDTAB
0
ENDSEC
0
SECTION
2
BLOCKS
0
BLOCK
5
20
100
AcDbEntity
100
AcDbBlockBegin
2
*MODEL_SPACE
0
ENDBLK
5
21
100
AcDbEntity
100
AcDbBlockEnd
0
BLOCK
5
1C
100
AcDbEntity
100
AcDbBlockBegin
2
*PAPER_SPACE
0
ENDBLK
5
1D
100
AcDbEntity
100
AcDbBlockEnd
0
ENDSEC
0
SECTION
2
ENTITIES
0
CIRCLE
5
100
100
AcDbEntity
8
0
100
AcDbCircle
10
10
20
-10
30
0
40
1.4999999999999996
210
0
220
0
230
1
0
ARC
5
101
100
AcDbEntity
8
0
100
AcDbCircle
10
20.249999999999993
20
-9.5000000000000018
30
0
40
1.4999999999999947
210
0
220
0
230
1
100
AcDbArc
50
-180
51
0
0
LINE
5
102
100
AcDbEntity
8
0
100
AcDbLine
10
-18.75
20
0
30
0
11
-18.75
21
-9.5000000000000036
31
0
0
LINE
5
103
100
AcDbEntity
8
0
100
AcDbLine
10
18.75
20
0
30
0
11
18.75
21
-9.5000000000000036
31
0
0
LINE
5
104
100
AcDbEntity
8
0
100
AcDbLine
10
-21.749999999999989
20
9.5
30
0
11
-21.75
21
0
31
0
0
LINE
5
105
100
AcDbEntity
8
0
100
AcDbLine
10
18.75
20
0
30
0
11
18.75
21
9.5000000000000036
31
0
0
LINE
5
106
100
AcDbEntity
8
0
100
AcDbLine
10
-21.749999999999989
20
-9.5
30
0
11
-21.75
21
0
31
0
0
LINE
5
107
100
AcDbEntity
8
0
100
AcDbLine
10
-25.249999999999989
20
7.6210659700372707
30
0
11
-25.249999999999989
21
14.355557574289008
31
0
0
LINE
5
108
100
AcDbEntity
8
0
100
AcDbLine
10
-25.249999999999989
20
-7.6210659700372707
30
0
11
-25.249999999999989
21
-14.355557574289
31
0
0
ARC
5
109
100
AcDbEntity
8
0
100
AcDbCircle
10
20.249999999999993
20
9.5000000000000018
30
0
40
1.4999999999999947
210
-0
220
0
230
1
100
AcDbArc
50
0
51
180
0
LINE
5
110
100
AcDbEntity
8
0
100
AcDbLine
10
21.749999999999989
20
-9.5
30
0
11
21.75
21
0
31
0
0
LINE
5
111
100
AcDbEntity
8
0
100
AcDbLine
10
21.749999999999989
20
9.5
30
0
11
21.75
21
0
31
0
0
CIRCLE
5
112
100
AcDbEntity
8
0
100
AcDbCircle
10
-10
20
10
30
0
40
1.5
210
0
220
0
230
1
0
LINE
5
113
100
AcDbEntity
8
0
100
AcDbLine
10
-18.75
20
0
30
0
11
-18.75
21
9.5000000000000036
31
0
0
ARC
5
114
100
AcDbEntity
8
0
100
AcDbCircle
10
-20.249999999999993
20
-9.5000000000000018
30
0
40
1.4999999999999947
210
0
220
0
230
1
100
AcDbArc
50
180
51
360
0
CIRCLE
5
115
100
AcDbEntity
8
0
100
AcDbCircle
10
10
20
10
30
0
40
1.5000000000000004
210
0
220
0
230
1
0
ARC
5
116
100
AcDbEntity
8
0
100
AcDbCircle
10
-20.249999999999993
20
9.5000000000000018
30
0
40
1.4999999999999947
210
0
220
-0
230
1
100
AcDbArc
50
0
51
180
0
LINE
5
117
100
AcDbEntity
8
0
100
AcDbLine
10
-25.249999999999989
20
-7.6210659700372707
30
0
11
-25.249999999999993
21
0
31
0
0
CIRCLE
5
118
100
AcDbEntity
8
0
100
AcDbCircle
10
-10
20
-10
30
0
40
1.5000000000000009
210
0
220
0
230
1
0
LINE
5
119
100
AcDbEntity
8
0
100
AcDbLine
10
-25.249999999999989
20
7.6210659700372707
30
0
11
-25.249999999999993
21
0
31
0
0
CIRCLE
5
120
100
AcDbEntity
8
0
100
AcDbCircle
10
21.999999999996422
20
21.999999999995016
30
0
40
1.4999999999999991
210
0
220
0
230
1
0
CIRCLE
5
121
100
AcDbEntity
8
0
100
AcDbCircle
10
15.250000000003464
20
15.249999999996549
30
0
40
1.4999999999999991
210
0
220
0
230
1
0
CIRCLE
5
122
100
AcDbEntity
8
0
100
AcDbCircle
10
-15.249999999996595
20
15.250000000003405
30
0
40
1.4999999999999991
210
0
220
0
230
1
0
CIRCLE
5
123
100
AcDbEntity
8
0
100
AcDbCircle
10
-21.999999999996422
20
21.999999999995016
30
0
40
1.4999999999999991
210
0
220
0
230
1
0
CIRCLE
5
124
100
AcDbEntity
8
0
100
AcDbCircle
10
-15.250000000003352
20
-15.24999999999665
30
0
40
1.4999999999999991
210
0
220
0
230
1
0
CIRCLE
5
125
100
AcDbEntity
8
0
100
AcDbCircle
10
-21.999999999996422
20
-21.999999999995016
30
0
40
1.4999999999999991
210
0
220
0
230
1
0
CIRCLE
5
126
100
AcDbEntity
8
0
100
AcDbCircle
10
15.250000000000004
20
-15.250000000000004
30
0
40
1.4999999999999991
210
0
220
0
230
1
0
CIRCLE
5
127
100
AcDbEntity
8
0
100
AcDbCircle
10
21.999999999996422
20
-21.999999999995016
30
0
40
1.4999999999999991
210
0
220
0
230
1
0
ARC
5
128
100
AcDbEntity
8
0
100
AcDbCircle
10
-10.000000000000002
20
-6.3726801613483985e-13
30
0
40
3.0000000000001292
210
0
220
0
230
1
100
AcDbArc
50
0
51
31.316580746323961
0
ARC
5
129
100
AcDbEntity
8
0
100
AcDbCircle
10
-20.335074496758835
20
-8.2917755747143289
30
0
40
16.229666418545644
210
0
220
-0
230
1
100
AcDbArc
50
37.371419461968536
51
51.731768647124852
0
ARC
5
130
100
AcDbEntity
8
0
100
AcDbCircle
10
-12.296474750924723
20
2.2262163579166563
30
0
40
2.9999999999974856
210
0
220
-0
230
1
100
AcDbArc
50
47.852009149303562
51
182.43656648339817
0
LINE
5
131
100
AcDbEntity
8
0
100
AcDbLine
10
-15.29376245498173
20
2.0986764852937729
30
0
11
-15.293762454981563
21
-9.7360036422800415e-13
31
0
0
CIRCLE
5
132
100
AcDbEntity
8
0
100
AcDbCircle
10
0
20
0
30
0
40
4
210
0
220
0
230
1
0
ARC
5
133
100
AcDbEntity
8
0
100
AcDbCircle
10
-21.999999999996422
20
21.999999999995016
30
0
40
6
210
0
220
-0
230
1
100
AcDbArc
50
56.309932474028528
51
219.57121945720411
0
ARC
5
134
100
AcDbEntity
8
0
100
AcDbCircle
10
-21.999999999996422
20
-21.999999999995016
30
0
40
6.0000000000000044
210
0
220
0
230
1
100
AcDbArc
50
140.42878054279581
51
303.69006752597153
0
ARC
5
135
100
AcDbEntity
8
0
100
AcDbCircle
10
-31.249999999999996
20
14.355557574289008
30
0
40
6.0000000000000053
210
0
220
0
230
1
100
AcDbArc
50
0
51
39.571219457204116
0
ARC
5
136
100
AcDbEntity
8
0
100
AcDbCircle
10
-31.249999999999979
20
-14.355557574289005
30
0
40
5.9999999999999867
210
-0
220
0
230
1
100
AcDbArc
50
-39.571219457204172
51
0
0
ARC
5
137
100
AcDbEntity
8
0
100
AcDbCircle
10
21.999999999996422
20
21.999999999995016
30
0
40
5.9999999999999973
210
-0
220
0
230
1
100
AcDbArc
50
-39.571219457204116
51
123.69006752597147
0
ARC
5
138
100
AcDbEntity
8
0
100
AcDbCircle
10
31.249999999999996
20
14.355557574289008
30
0
40
6.0000000000000036
210
0
220
0
230
1
100
AcDbArc
50
140.42878054279589
51
180
0
LINE
5
139
100
AcDbEntity
8
0
100
AcDbLine
10
25.249999999999989
20
7.6210659700372707
30
0
11
25.249999999999989
21
14.355557574289008
31
0
0
LINE
5
140
100
AcDbEntity
8
0
100
AcDbLine
10
25.249999999999989
20
7.6210659700372707
30
0
11
25.249999999999993
21
0
31
0
0
ARC
5
141
100
AcDbEntity
8
0
100
AcDbCircle
10
21.999999999996422
20
-21.999999999995016
30
0
40
6.0000000000000036
210
0
220
0
230
1
100
AcDbArc
50
-123.69006752597151
51
39.571219457204208
0
ARC
5
142
100
AcDbEntity
8
0
100
AcDbCircle
10
31.249999999999979
20
-14.355557574289005
30
0
40
5.9999999999999876
210
0
220
0
230
1
100
AcDbArc
50
180
51
219.57121945720417
0
LINE
5
143
100
AcDbEntity
8
0
100
AcDbLine
10
25.249999999999989
20
-7.6210659700372707
30
0
11
25.249999999999989
21
-14.355557574289
31
0
0
LINE
5
144
100
AcDbEntity
8
0
100
AcDbLine
10
25.249999999999989
20
-7.6210659700372707
30
0
11
25.249999999999993
21
0
31
0
0
ARC
5
145
100
AcDbEntity
8
0
100
AcDbCircle
10
0
20
55
30
0
40
33.661064030106047
210
0
220
0
230
1
100
AcDbArc
50
236.3099324740285
51
303.69006752597153
0
ARC
5
146
100
AcDbEntity
8
0
100
AcDbCircle
10
0
20
-55
30
0
40
33.66106403010604
210
0
220
-0
230
1
100
AcDbArc
50
56.309932474028521
51
123.69006752597147
0
ARC
5
147
100
AcDbEntity
8
0
100
AcDbCircle
10
-10.000000000000002
20
-8.8058268779473944e-13
30
0
40
3.0000000000000551
210
0
220
0
230
1
100
AcDbArc
50
-31.316580746319342
51
0
0
ARC
5
148
100
AcDbEntity
8
0
100
AcDbCircle
10
-20.335074496759511
20
8.2917755747119735
30
0
40
16.229666418545648
210
-0
220
0
230
1
100
AcDbArc
50
308.26823135287981
51
322.62858053803609
0
ARC
5
149
100
AcDbEntity
8
0
100
AcDbCircle
10
-12.296474750924542
20
-2.2262163579183603
30
0
40
2.9999999999999987
210
0
220
0
230
1
100
AcDbArc
50
177.56343351660664
51
312.14799085070109
0
LINE
5
150
100
AcDbEntity
8
0
100
AcDbLine
10
-15.293762454981561
20
-2.0986764852957203
30
0
11
-15.293762454981563
21
-9.7360036422800415e-13
31
0
0
ARC
5
151
100
AcDbEntity
8
0
100
AcDbCircle
10
6.3948846218409027e-13
20
-10.000000000000004
30
0
40
3.0000000000001306
210
0
220
0
230
1
100
AcDbArc
50
90.000000000000014
51
121.31658074632398
0
ARC
5
152
100
AcDbEntity
8
0
100
AcDbCircle
10
8.291775574714336
20
-20.335074496758839
30
0
40
16.229666418545648
210
0
220
0
230
1
100
AcDbArc
50
127.37141946196857
51
141.73176864712488
0
ARC
5
153
100
AcDbEntity
8
0
100
AcDbCircle
10
-2.2262163579166536
20
-12.296474750924727
30
0
40
2.9999999999974869
210
0
220
0
230
1
100
AcDbArc
50
137.85200914930357
51
272.43656648339805
0
LINE
5
154
100
AcDbEntity
8
0
100
AcDbLine
10
-2.0986764852937698
20
-15.293762454981735
30
0
11
9.7699626167013796e-13
21
-15.293762454981568
31
0
0
LINE
5
155
100
AcDbEntity
8
0
100
AcDbLine
10
2.0986764852957238
20
-15.293762454981565
30
0
11
9.7699626167013816e-13
21
-15.293762454981568
31
0
0
ARC
5
156
100
AcDbEntity
8
0
100
AcDbCircle
10
2.2262163579183634
20
-12.296474750924544
30
0
40
3.0000000000000018
210
0
220
0
230
1
100
AcDbArc
50
-92.436566483393435
51
42.147990850701063
0
ARC
5
157
100
AcDbEntity
8
0
100
AcDbCircle
10
8.8280313384398996e-13
20
-10.000000000000004
30
0
40
3.000000000000056
210
0
220
-0
230
1
100
AcDbArc
50
58.683419253680697
51
90.000000000004675
0
ARC
5
158
100
AcDbEntity
8
0
100
AcDbCircle
10
-8.2917755747119717
20
-20.335074496759514
30
0
40
16.229666418545648
210
0
220
-0
230
1
100
AcDbArc
50
38.268231352879795
51
52.628580538036132
0
ARC
5
159
100
AcDbEntity
8
0
100
AcDbCircle
10
10.000000000000002
20
6.3604336933569245e-13
30
0
40
3.0000000000001292
210
0
220
0
230
1
100
AcDbArc
50
180
51
211.31658074632395
0
ARC
5
160
100
AcDbEntity
8
0
100
AcDbCircle
10
20.335074496758835
20
8.2917755747143271
30
0
40
16.229666418545644
210
0
220
0
230
1
100
AcDbArc
50
217.37141946196851
51
231.73176864712488
0
ARC
5
161
100
AcDbEntity
8
0
100
AcDbCircle
10
12.296474750924723
20
-2.2262163579166576
30
0
40
2.9999999999974856
210
0
220
0
230
1
100
AcDbArc
50
-132.14799085069646
51
2.4365664833981682
0
LINE
5
162
100
AcDbEntity
8
0
100
AcDbLine
10
15.29376245498173
20
-2.0986764852937747
30
0
11
15.293762454981563
21
9.717274185042628e-13
31
0
0
LINE
5
163
100
AcDbEntity
8
0
100
AcDbLine
10
15.293762454981561
20
2.098676485295718
30
0
11
15.293762454981563
21
9.71727418504263e-13
31
0
0
ARC
5
164
100
AcDbEntity
8
0
100
AcDbCircle
10
12.296474750924542
20
2.2262163579183589
30
0
40
2.9999999999999987
210
0
220
0
230
1
100
AcDbArc
50
-2.4365664833933822
51
132.14799085070109
0
ARC
5
165
100
AcDbEntity
8
0
100
AcDbCircle
10
10.000000000000002
20
8.7935804099559204e-13
30
0
40
3.0000000000000555
210
0
220
0
230
1
100
AcDbArc
50
148.68341925368068
51
180
0
ARC
5
166
100
AcDbEntity
8
0
100
AcDbCircle
10
20.335074496759511
20
-8.2917755747119752
30
0
40
16.229666418545648
210
0
220
0
230
1
100
AcDbArc
50
128.26823135287981
51
142.62858053803612
0
ARC
5
167
100
AcDbEntity
8
0
100
AcDbCircle
10
-6.3504757008558954e-13
20
10.000000000000002
30
0
40
3.0000000000001292
210
0
220
0
230
1
100
AcDbArc
50
270
51
301.31658074632389
0
ARC
5
168
100
AcDbEntity
8
0
100
AcDbCircle
10
-8.2917755747143254
20
20.335074496758835
30
0
40
16.229666418545644
210
0
220
0
230
1
100
AcDbArc
50
307.37141946196851
51
321.73176864712485
0
ARC
5
169
100
AcDbEntity
8
0
100
AcDbCircle
10
2.2262163579166589
20
12.296474750924723
30
0
40
2.9999999999974856
210
0
220
0
230
1
100
AcDbArc
50
-42.147990850696416
51
92.436566483398067
0
LINE
5
170
100
AcDbEntity
8
0
100
AcDbLine
10
2.098676485293776
20
15.29376245498173
30
0
11
-9.7020446678587054e-13
21
15.293762454981563
31
0
0
LINE
5
171
100
AcDbEntity
8
0
100
AcDbLine
10
-2.0986764852957167
20
15.293762454981561
30
0
11
-9.7020446678587054e-13
21
15.293762454981563
31
0
0
ARC
5
172
100
AcDbEntity
8
0
100
AcDbCircle
10
-2.2262163579183576
20
12.296474750924542
30
0
40
2.9999999999999987
210
0
220
-0
230
1
100
AcDbArc
50
87.563433516606565
51
222.14799085070106
0
ARC
5
173
100
AcDbEntity
8
0
100
AcDbCircle
10
-8.7836224174548913e-13
20
10.000000000000002
30
0
40
3.0000000000000555
210
0
220
0
230
1
100
AcDbArc
50
238.68341925368065
51
270.0000000000046
0
ARC
5
174
100
AcDbEntity
8
0
100
AcDbCircle
10
8.2917755747119788
20
20.335074496759511
30
0
40
16.229666418545648
210
0
220
0
230
1
100
AcDbArc
50
218.26823135287978
51
232.62858053803606
0
CIRCLE
5
175
100
AcDbEntity
8
0
100
AcDbCircle
10
21.999999999996422
20
21.999999999995016
30
0
40
2.7500000000000027
210
0
220
0
230
1
0
CIRCLE
5
176
100
AcDbEntity
8
0
100
AcDbCircle
10
15.250000000003464
20
15.249999999996549
30
0
40
2.7500000000000009
210
0
220
0
230
1
0
CIRCLE
5
177
100
AcDbEntity
8
0
100
AcDbCircle
10
-21.999999999996422
20
21.999999999995016
30
0
40
2.7499999999999991
210
0
220
0
230
1
0
CIRCLE
5
178
100
AcDbEntity
8
0
100
AcDbCircle
10
-15.249999999996595
20
15.250000000003405
30
0
40
2.75
210
0
220
0
230
1
0
CIRCLE
5
179
100
AcDbEntity
8
0
100
AcDbCircle
10
-15.250000000003352
20
-15.24999999999665
30
0
40
2.75
210
0
220
0
230
1
0
CIRCLE
5
180
100
AcDbEntity
8
0
100
AcDbCircle
10
-21.999999999996422
20
-21.999999999995016
30
0
40
2.7499999999999991
210
0
220
0
230
1
0
CIRCLE
5
181
100
AcDbEntity
8
0
100
AcDbCircle
10
15.250000000000004
20
-15.250000000000004
30
0
40
2.7499999999999991
210
0
220
0
230
1
0
CIRCLE
5
182
100
AcDbEntity
8
0
100
AcDbCircle
10
21.999999999996422
20
-21.999999999995016
30
0
40
2.7499999999999996
210
0
220
0
230
1
0
ENDSEC
0
SECTION
2
OBJECTS
0
DICTIONARY
5
C
100
AcDbDictionary
3
ACAD_GROUP
350
D
3
ACAD_MLINESTYLE
350
17
0
DICTIONARY
5
D
100
AcDbDictionary
0
DICTIONARY
5
1A
330
C
100
AcDbDictionary
0
DICTIONARY
5
17
100
AcDbDictionary
0
ENDSEC
0
EOF
