0
SECTION
2
HEADER
9
$INSUNITS
70
4
9
$ACADVER
1
AC1014
9
$HANDSEED
5
FFFF
0
ENDSEC
0
SECTION
2
TABLES
0
TABLE
2
VPORT
5
8
100
AcDbSymbolTable
0
ENDTAB
0
TABLE
2
LTYPE
5
5
100
AcDbSymbolTable
0
LTYPE
5
14
100
AcDbSymbolTableRecord
100
AcDbLinetypeTableRecord
2
BYBLOCK
70
0
0
LTYPE
5
15
100
AcDbSymbolTableRecord
100
AcDbLinetypeTableRecord
2
BYLAYER
70
0
0
ENDTAB
0
TABLE
2
LAYER
5
2
100
AcDbSymbolTable
70
2
0
LAYER
5
50
100
AcDbSymbolTableRecord
100
AcDbLayerTableRecord
2
0
70
0
6
CONTINUOUS
0
ENDTAB
0
TABLE
2
STYLE
5
3
100
AcDbSymbolTable
70
1
0
STYLE
5
11
100
AcDbSymbolTableRecord
100
AcDbTextStyleTableRecord
2
STANDARD
70
0
0
ENDTAB
0
TABLE
2
VIEW
5
6
100
AcDbSymbolTable
70
0
0
ENDTAB
0
TABLE
2
UCS
5
7
100
AcDbSymbolTable
70
0
0
ENDTAB
0
TABLE
2
APPID
5
9
100
AcDbSymbolTable
70
2
0
APPID
5
12
100
AcDbSymbolTableRecord
100
AcDbRegAppTableRecord
2
ACAD
70
0
0
ENDTAB
0
TABLE
2
DIMSTYLE
5
A
100
AcDbSymbolTable
70
1
0
ENDTAB
0
TABLE
2
BLOCK_RECORD
5
1
100
AcDbSymbolTable
70
1
0
BLOCK_RECORD
5
1F
100
AcDbSymbolTableRecord
100
AcDbBlockTableRecord
2
*MODEL_SPACE
0
BLOCK_RECORD
5
1B
100
AcDbSymbolTableRecord
100
AcDbBlockTableRecord
2
*PAPER_SPACE
0
ENDTAB
0
ENDSEC
0
SECTION
2
BLOCKS
0
BLOCK
5
20
100
AcDbEntity
100
AcDbBlockBegin
2
*MODEL_SPACE
0
ENDBLK
5
21
100
AcDbEntity
100
AcDbBlockEnd
0
BLOCK
5
1C
100
AcDbEntity
100
AcDbBlockBegin
2
*PAPER_SPACE
0
ENDBLK
5
1D
100
AcDbEntity
100
AcDbBlockEnd
0
ENDSEC
0
SECTION
2
ENTITIES
0
LWPOLYLINE
5
100
100
AcDbEntity
8
0
100
AcDbPolyline
90
12
70
1
43
0.0
10
31.97825628657079
20
38.446565326061311
10
30.761958372084067
20
25.87815354303201
42
0.26168132315288273
10
31.552658570856096
20
24.085505024565581
10
33.048039851078016
20
22.963969315081975
42
-0.3002483101007698
10
33.790980462283073
20
20.889646038697258
10
33.04337426268323
20
17.827273212729729
42
-0.22039435628877854
10
31.994861014139172
20
16.512741978368428
10
27.863802102631606
20
14.447212522615548
42
-0.55753651583498998
10
24.969374911631999
20
16.236066904615541
10
24.969374911632002
20
27.870461747395517
42
-0.11234914850599656
10
25.166328796695456
20
28.735923882565064
10
30.081383215547227
20
38.975620588506274
42
-0.83825630886625468
0
LWPOLYLINE
5
101
100
AcDbEntity
8
0
100
AcDbPolyline
90
12
70
1
43
0.0
10
19.030625088367991
20
27.870461747395538
42
0.11234914850599691
10
18.83367120330454
20
28.735923882565082
10
13.918616784452798
20
38.97562058850621
42
0.83825630886625591
10
12.021743713429222
20
38.446565326061247
10
13.238041627915937
20
25.878153543032035
42
-0.26168132315288412
10
12.447341429143917
20
24.085505024565599
10
10.951960148921991
20
22.963969315082011
42
0.30024831010076797
10
10.209019537716916
20
20.889646038697272
10
10.956625737316765
20
17.827273212729729
42
0.22039435628877815
10
12.00513898586083
20
16.512741978368432
10
16.136197897368397
20
14.44721252261556
42
0.55753651583499475
10
19.030625088367998
20
16.236066904615541
0
LWPOLYLINE
5
102
100
AcDbEntity
8
0
100
AcDbPolyline
90
10
70
1
43
0.0
10
16.28392014483385
20
49.958245963697152
42
0.24985373501434252
10
16.204620817241416
20
48.078536810725303
10
21.098476942531725
20
37.883003216370497
42
0.62923396990896585
10
22.901523057468275
20
37.883003216370497
10
27.795379182758584
20
48.078536810725303
42
0.24985373501434066
10
27.71607985516615
20
49.958245963697152
10
27.094732549957623
20
51.014246526063985
42
0.26574110398456996
10
25.370985762613518
20
51.999999508261681
10
18.629014237386489
20
51.999999508261681
42
0.26574110398457396
10
16.905267450042373
20
51.014246526063978
0
LWPOLYLINE
5
103
100
AcDbEntity
8
0
100
AcDbPolyline
90
10
70
1
43
0.0
10
25.39646566107826
20
57.999999597668648
42
0.2605803241917915
10
27.100311306407203
20
58.952664877107168
10
27.946476373675647
20
60.329239755023835
42
0.24473204881031357
10
28.077741978966543
20
62.171789350853913
10
22.917555625309927
20
74.079911705446136
42
0.65651884828478968
10
21.082444374690077
20
74.079911705446136
10
15.92225802103345
20
62.171789350853913
42
0.24473204881031069
10
16.053523626324356
20
60.329239755023835
10
16.89968869359279
20
58.952664877107168
42
0.26058032419179122
10
18.603534338921733
20
57.999999597668648
0
LWPOLYLINE
5
104
100
AcDbEntity
8
0
100
AcDbPolyline
90
6
70
1
43
0.0
10
26.159075748279808
20
85.795214875268599
42
0.20735118834951005
10
26.159075748279818
20
84.204785124731387
10
32.958736582219899
20
68.513260123331193
42
0.78288509611288148
10
34.873419656244522
20
68.835125557957085
42
0.037989603301988362
10
34.869280169835221
20
101.15562204337417
42
0.78278181365777
10
32.954616530019067
20
101.47723206389767
0
LWPOLYLINE
5
105
100
AcDbEntity
8
0
100
AcDbPolyline
90
6
70
1
43
0.0
10
11.045383469980845
20
101.47723206389786
42
0.78278181365780064
10
9.1307198301647219
20
101.15562204337442
42
0.037989603301988722
10
9.1265803437554496
20
68.835125557956914
42
0.78288509611289336
10
11.041263417780041
20
68.513260123331065
10
17.840924251720182
20
84.204785124731401
42
0.20735118834950911
10
17.840924251720182
20
85.795214875268599
0
LWPOLYLINE
5
106
100
AcDbEntity
8
0
100
AcDbPolyline
90
8
70
1
43
0.0
10
17.571516472269817
20
108.43823349088066
42
0.37880485561148647
10
16.749705965291255
20
105.91871539316654
10
21.082444374690077
20
95.920088294553878
42
0.65651884828479612
10
22.91755562530993
20
95.920088294553878
10
27.250294034708755
20
105.91871539316656
42
0.37880485561148142
10
26.428483527730183
20
108.43823349088068
10
23.013300743641281
20
110.44519329339158
42
0.27207793864214563
10
20.98669925635873
20
110.44519329339155
0
LWPOLYLINE
5
107
100
AcDbEntity
8
0
100
AcDbPolyline
90
8
70
1
43
0.0
10
13.446144486836072
20
135.06592162360957
42
0.15387907795850078
10
11.999999850988383
20
130.47822286870291
10
11.99999985098839
20
120.72318018496784
42
0.57586700140227176
10
13.496138789345217
20
119.85493704284337
10
14.969111462151188
20
120.69663571301824
42
0.26914263590792525
10
18.999999955296509
20
127.6425808500139
10
18.999999955296524
20
139.82763577630539
42
0.7332838754113663
10
17.180768034777472
20
140.40109812066871
0
LWPOLYLINE
5
108
100
AcDbEntity
8
0
100
AcDbPolyline
90
8
70
1
43
0.0
10
30.503861210654783
20
119.85493704284339
42
0.57586700140227376
10
32.000000149011619
20
120.72318018496786
10
32.000000149011612
20
130.47822286870291
42
0.15387907795849998
10
30.553855513163938
20
135.06592162360957
10
26.819231965222521
20
140.40109812066873
42
0.73328387541135931
10
25.00000004470348
20
139.82763577630539
10
25.000000044703484
20
127.6425808500139
42
0.26914263590792509
10
29.030888537848803
20
120.69663571301824
0
CIRCLE
5
109
100
AcDbEntity
8
0
100
AcDbCircle
10
35.000000193715088
20
143.00000119209287
30
0
40
1.5500000000000025
210
0
220
0
230
1
0
CIRCLE
5
110
100
AcDbEntity
8
0
100
AcDbCircle
10
8.9999998062849009
20
143.00000119209287
30
0
40
1.5500000000000025
210
0
220
0
230
1
0
CIRCLE
5
111
100
AcDbEntity
8
0
100
AcDbCircle
10
35.000000193715088
20
157.0000011920929
30
0
40
1.5500000000000025
210
0
220
0
230
1
0
CIRCLE
5
112
100
AcDbEntity
8
0
100
AcDbCircle
10
8.9999998062849009
20
157.0000011920929
30
0
40
1.5500000000000025
210
0
220
0
230
1
0
CIRCLE
5
113
100
AcDbEntity
8
0
100
AcDbCircle
10
8.9999998062849045
20
115.00000044703484
30
0
40
1.5500000000000025
210
0
220
0
230
1
0
CIRCLE
5
114
100
AcDbEntity
8
0
100
AcDbCircle
10
35.000000193715096
20
115.00000044703484
30
0
40
1.5500000000000025
210
0
220
0
230
1
0
CIRCLE
5
115
100
AcDbEntity
8
0
100
AcDbCircle
10
35.000000193715096
20
54.999999552965164
30
0
40
1.5500000000000025
210
0
220
0
230
1
0
CIRCLE
5
116
100
AcDbEntity
8
0
100
AcDbCircle
10
8.9999998062849045
20
54.999999552965164
30
0
40
1.5500000000000025
210
0
220
0
230
1
0
CIRCLE
5
117
100
AcDbEntity
8
0
100
AcDbCircle
10
10.999999836087227
20
4.9999988079071045
30
0
40
1.5499999999999936
210
0
220
0
230
1
0
CIRCLE
5
118
100
AcDbEntity
8
0
100
AcDbCircle
10
33.000000163912773
20
4.9999988079071045
30
0
40
1.5499999999999936
210
0
220
0
230
1
0
LWPOLYLINE
5
119
100
AcDbEntity
8
0
100
AcDbPolyline
90
26
70
1
43
0.0
10
30.304718466276466
20
1.9569604444651745
10
30.923820516405954
20
1.5810108658230959
42
0.50704991120548937
10
36.885881100904243
20
4.0513524984937987
10
41.530424000228635
20
23.076505007320627
42
0.30024831010076652
10
40.416013083421028
20
26.187989921897721
10
39.348405599445037
20
26.988695355908042
42
-0.26168132315288362
10
38.162355301287015
20
29.677668133607682
10
41.46227606218222
20
63.776849329524765
42
0.059663351476902909
10
40.274161685472897
20
116.08087057097443
10
40.105555950591409
20
117.2611107151447
42
-0.035489151692877099
10
39.00000025331974
20
132.81745990124881
10
39.000000253319733
20
157.0000011920929
42
0.99999999999999989
10
31.00000013411044
20
157.0000011920929
42
-0.99999999999999989
10
12.999999865889546
20
157.0000011920929
42
0.99999999999999989
10
4.9999997466802597
20
157.0000011920929
10
4.9999997466802624
20
132.8174599012489
42
-0.03548915169287721
10
3.894444049408583
20
117.26111071514474
10
3.7258383145270457
20
116.08087057097443
42
0.059663351476902909
10
2.5377239378177818
20
63.77684932952468
10
5.8376446987129853
20
29.677668133607682
42
-0.26168132315288389
10
4.6515944005549663
20
26.98869535590805
10
3.5839869165789695
20
26.187989921897721
42
0.30024831010076636
10
2.4695759997713629
20
23.076505007320627
10
7.1141188990957582
20
4.0513524984937987
42
0.50704991120573029
10
13.07617948359665
20
1.5810108658247124
10
13.695281533711208
20
1.956960444458743
42
-0.27984674554478883
0
ENDSEC
0
SECTION
2
OBJECTS
0
DICTIONARY
5
C
100
AcDbDictionary
3
ACAD_GROUP
350
D
3
ACAD_MLINESTYLE
350
17
0
DICTIONARY
5
D
100
AcDbDictionary
0
DICTIONARY
5
1A
330
C
100
AcDbDictionary
0
DICTIONARY
5
17
100
AcDbDictionary
0
ENDSEC
0
EOF
