0
SECTION
2
HEADER
9
$INSUNITS
70
4
9
$ACADVER
1
AC1014
9
$HANDSEED
5
FFFF
0
ENDSEC
0
SECTION
2
TABLES
0
TABLE
2
VPORT
5
8
100
AcDbSymbolTable
0
ENDTAB
0
TABLE
2
LTYPE
5
5
100
AcDbSymbolTable
0
LTYPE
5
14
100
AcDbSymbolTableRecord
100
AcDbLinetypeTableRecord
2
BYBLOCK
70
0
0
LTYPE
5
15
100
AcDbSymbolTableRecord
100
AcDbLinetypeTableRecord
2
BYLAYER
70
0
0
ENDTAB
0
TABLE
2
LAYER
5
2
100
AcDbSymbolTable
70
2
0
LAYER
5
50
100
AcDbSymbolTableRecord
100
AcDbLayerTableRecord
2
0
70
0
6
CONTINUOUS
0
ENDTAB
0
TABLE
2
STYLE
5
3
100
AcDbSymbolTable
70
1
0
STYLE
5
11
100
AcDbSymbolTableRecord
100
AcDbTextStyleTableRecord
2
STANDARD
70
0
0
ENDTAB
0
TABLE
2
VIEW
5
6
100
AcDbSymbolTable
70
0
0
ENDTAB
0
TABLE
2
UCS
5
7
100
AcDbSymbolTable
70
0
0
ENDTAB
0
TABLE
2
APPID
5
9
100
AcDbSymbolTable
70
2
0
APPID
5
12
100
AcDbSymbolTableRecord
100
AcDbRegAppTableRecord
2
ACAD
70
0
0
ENDTAB
0
TABLE
2
DIMSTYLE
5
A
100
AcDbSymbolTable
70
1
0
ENDTAB
0
TABLE
2
BLOCK_RECORD
5
1
100
AcDbSymbolTable
70
1
0
BLOCK_RECORD
5
1F
100
AcDbSymbolTableRecord
100
AcDbBlockTableRecord
2
*MODEL_SPACE
0
BLOCK_RECORD
5
1B
100
AcDbSymbolTableRecord
100
AcDbBlockTableRecord
2
*PAPER_SPACE
0
ENDTAB
0
ENDSEC
0
SECTION
2
BLOCKS
0
BLOCK
5
20
100
AcDbEntity
100
AcDbBlockBegin
2
*MODEL_SPACE
0
ENDBLK
5
21
100
AcDbEntity
100
AcDbBlockEnd
0
BLOCK
5
1C
100
AcDbEntity
100
AcDbBlockBegin
2
*PAPER_SPACE
0
ENDBLK
5
1D
100
AcDbEntity
100
AcDbBlockEnd
0
ENDSEC
0
SECTION
2
ENTITIES
0
CIRCLE
5
100
100
AcDbEntity
8
0
100
AcDbCircle
10
22.749999999999993
20
70.75
30
0
40
1.5500000000000003
210
0
220
0
230
1
0
CIRCLE
5
101
100
AcDbEntity
8
0
100
AcDbCircle
10
53.249999999999993
20
70.75
30
0
40
1.5500000000000003
210
0
220
0
230
1
0
CIRCLE
5
102
100
AcDbEntity
8
0
100
AcDbCircle
10
53.25
20
101.25
30
0
40
1.5500000000000003
210
0
220
0
230
1
0
LWPOLYLINE
5
103
100
AcDbEntity
8
0
100
AcDbPolyline
90
4
70
1
43
0.0
10
31.59999989569187
20
58.000000476837158
42
0.99999999999999989
10
30.39999989569187
20
58.000000476837158
10
30.39999989569187
20
54.000000417232499
42
0.99999999999999989
10
31.59999989569187
20
54.000000417232513
0
LWPOLYLINE
5
104
100
AcDbEntity
8
0
100
AcDbPolyline
90
4
70
1
43
0.0
10
44.40000010430812
20
58.000000476837144
10
44.40000010430812
20
54.000000417232499
42
0.99999999999999989
10
45.600000104308123
20
54.000000417232513
10
45.60000010430813
20
58.000000476837144
42
0.99999999999999989
0
LWPOLYLINE
5
105
100
AcDbEntity
8
0
100
AcDbPolyline
90
38
70
1
43
0.0
10
2.664399727682742
20
66.115815228225344
42
0.98347700290516693
10
10.029642384940317
20
56.64621752603702
10
10.489245624205237
20
56.991553626477476
42
-0.49007361723006171
10
17.35025555989715
20
55.115097076749045
42
-0.098435895029331574
10
20.99999974668026
20
36.756044560286568
10
20.999999746680267
20
22.837489830286017
42
0.040247124381949224
10
21.7750058454256
20
13.224992891595138
10
23.051666850502158
20
5.3591656542107202
42
0.29964308323357092
10
26.02831004658227
20
2.1198158811048806
10
29.543084528697751
20
1.2396330252376564
42
0.061421416572461252
10
31.486464078749108
20
0.99999873340129497
10
31.815787456923609
20
0.99999873340129497
42
0.32524297991146706
10
33.718622004056613
20
2.3841897644529544
42
-0.72743635705859511
10
42.281377995943387
20
2.3841897644529562
42
0.32524297991147633
10
44.184212543076384
20
0.99999873340129497
10
44.513535921250849
20
0.99999873340127721
42
0.061421416572449095
10
46.45691547130221
20
1.2396330252376231
10
49.97168995341773
20
2.1198158811048802
42
0.29964308323357086
10
52.948333149497834
20
5.3591656542107202
10
54.224994151070518
20
13.224992870006886
42
0.040247124563315785
10
55.000000249815756
20
22.837489852158129
10
55.000000235963341
20
36.756043979462419
42
-0.098435897896543861
10
58.649744613011023
20
55.115097003321964
42
-0.49007361401692007
10
65.51075453086564
20
56.991553509960511
10
65.970357615059683
20
56.646217526037013
42
0.98347700290517015
10
73.335600272317251
20
66.115815228225344
10
69.924042585050273
20
68.861675744663401
42
-0.47880273642914462
10
69.924042585050657
20
103.13832425533704
10
73.335600272317279
20
105.88418477177464
42
0.9834770029051636
10
65.970357615059683
20
115.35378247396298
10
59.91989250470516
20
110.80759165424223
42
-0.1625039258113305
10
47.905788226033216
20
106.79700375711867
10
28.094211773966784
20
106.79700375711869
42
-0.1625039258113305
10
16.08010749529485
20
110.80759165424223
10
10.02964238494031
20
115.35378247396298
42
0.9834770029051636
10
2.6643997276827336
20
105.88418477177464
10
6.0759574149494071
20
103.13832425533701
42
-0.47880273642915311
10
6.075957414949464
20
68.861675744663046
0
CIRCLE
5
106
100
AcDbEntity
8
0
100
AcDbCircle
10
69.574088695053049
20
110.55762454059682
30
0
40
2.2500000000000009
210
0
220
0
230
1
0
CIRCLE
5
107
100
AcDbEntity
8
0
100
AcDbCircle
10
6.4256315945457825
20
110.55726410214113
30
0
40
2.2500000000000009
210
0
220
0
230
1
0
CIRCLE
5
108
100
AcDbEntity
8
0
100
AcDbCircle
10
6.4256315945462177
20
61.442735897859194
30
0
40
2.2500000000000009
210
0
220
0
230
1
0
CIRCLE
5
109
100
AcDbEntity
8
0
100
AcDbCircle
10
69.574368405454663
20
61.442735897860302
30
0
40
2.2500000000000009
210
0
220
0
230
1
0
CIRCLE
5
110
100
AcDbEntity
8
0
100
AcDbCircle
10
28
20
96
30
0
40
2.25
210
0
220
0
230
1
0
CIRCLE
5
111
100
AcDbEntity
8
0
100
AcDbCircle
10
48
20
96
30
0
40
2.2500000000000009
210
0
220
0
230
1
0
CIRCLE
5
112
100
AcDbEntity
8
0
100
AcDbCircle
10
48
20
76
30
0
40
2.2500000000000009
210
0
220
0
230
1
0
CIRCLE
5
113
100
AcDbEntity
8
0
100
AcDbCircle
10
28
20
76
30
0
40
2.25
210
0
220
0
230
1
0
LWPOLYLINE
5
114
100
AcDbEntity
8
0
100
AcDbPolyline
90
4
70
1
43
0.0
10
42.565685484553882
20
7.5656842477575026
42
0.99999999999999989
10
41.434314634655401
20
6.4343133978590226
10
43.434314664457723
20
4.4343133680566993
42
0.99999999999999989
10
44.565685514356204
20
5.5656842179551793
0
LWPOLYLINE
5
115
100
AcDbEntity
8
0
100
AcDbPolyline
90
4
70
1
43
0.0
10
31.434314485643789
20
5.5656842179551802
42
0.9999999925494194
10
32.565685327112902
20
4.4343133596273319
10
34.565685365344592
20
6.4343133978590217
42
0.9999999925494194
10
33.434314523875486
20
7.5656842561868753
0
CIRCLE
5
116
100
AcDbEntity
8
0
100
AcDbCircle
10
26.999999836087227
20
5.9999987930059362
30
0
40
1.5500000000000003
210
0
220
0
230
1
0
CIRCLE
5
117
100
AcDbEntity
8
0
100
AcDbCircle
10
49.000000163912773
20
5.9999987930059362
30
0
40
1.5500000000000003
210
0
220
0
230
1
0
CIRCLE
5
118
100
AcDbEntity
8
0
100
AcDbCircle
10
24.999999806284904
20
55.999999552965164
30
0
40
1.5500000000000003
210
0
220
0
230
1
0
CIRCLE
5
119
100
AcDbEntity
8
0
100
AcDbCircle
10
51.000000193715096
20
55.999999552965164
30
0
40
1.5500000000000003
210
0
220
0
230
1
0
CIRCLE
5
120
100
AcDbEntity
8
0
100
AcDbCircle
10
25.249999999999993
20
43.75
30
0
40
1.0499999999999998
210
0
220
0
230
1
0
CIRCLE
5
121
100
AcDbEntity
8
0
100
AcDbCircle
10
28
20
41
30
0
40
1.0499999999999998
210
0
220
0
230
1
0
CIRCLE
5
122
100
AcDbEntity
8
0
100
AcDbCircle
10
48
20
41
30
0
40
1.0499999999999998
210
0
220
0
230
1
0
CIRCLE
5
123
100
AcDbEntity
8
0
100
AcDbCircle
10
50.75
20
43.75
30
0
40
1.0499999999999998
210
0
220
0
230
1
0
CIRCLE
5
124
100
AcDbEntity
8
0
100
AcDbCircle
10
48
20
20.999999999999996
30
0
40
1.0499999999999998
210
0
220
0
230
1
0
CIRCLE
5
125
100
AcDbEntity
8
0
100
AcDbCircle
10
50.75
20
18.249999999999993
30
0
40
1.0499999999999998
210
0
220
0
230
1
0
CIRCLE
5
126
100
AcDbEntity
8
0
100
AcDbCircle
10
28
20
20.999999999999996
30
0
40
1.0500000000000009
210
0
220
0
230
1
0
CIRCLE
5
127
100
AcDbEntity
8
0
100
AcDbCircle
10
25.249999999999993
20
18.249999999999993
30
0
40
1.0499999999999998
210
0
220
0
230
1
0
LWPOLYLINE
5
128
100
AcDbEntity
8
0
100
AcDbPolyline
90
6
70
1
43
0.0
10
37.292893218813454
20
93.707106885494667
10
31.707106661977264
20
99.292893442330865
42
-0.6681786379193021
10
32.414213443163817
20
101.00000022351742
10
43.585786556836197
20
101.00000022351742
42
-0.66817863791930121
10
44.292893338022736
20
99.292893442330865
10
38.707106781186546
20
93.707106885494667
42
-0.41421356237309509
0
LWPOLYLINE
5
129
100
AcDbEntity
8
0
100
AcDbPolyline
90
6
70
1
43
0.0
10
28.707106617273777
20
25.707105857314552
10
33.292893159208809
20
30.292892399249585
42
0.41421356237309415
10
33.292893159208802
20
31.707105961622677
10
28.707106617273777
20
36.292892503557709
42
0.66817863791929366
10
26.999999836087227
20
35.585785722371163
10
26.999999836087227
20
26.414212638501098
42
0.66817863791929366
0
LWPOLYLINE
5
130
100
AcDbEntity
8
0
100
AcDbPolyline
90
6
70
1
43
0.0
10
47.29289338272622
20
25.707105857314552
42
0.66817863791929366
10
49.00000016391278
20
26.414212638501098
10
49.000000163912773
20
35.585785722371163
42
0.66817863791929222
10
47.29289338272622
20
36.292892503557709
10
42.707106840791191
20
31.707105961622677
42
0.41421356237309509
10
42.707106840791191
20
30.292892399249585
0
LWPOLYLINE
5
131
100
AcDbEntity
8
0
100
AcDbPolyline
90
6
70
1
43
0.0
10
34.130680622328214
20
41.507643834894459
42
0.13119736467765619
10
41.869319377671772
20
41.507643834894459
42
-0.76697163244439581
10
42.834380780192625
20
39.834380020233404
10
38.707106781186546
20
35.707106021227332
42
-0.41421356237309509
10
37.292893218813454
20
35.707106021227332
10
33.165619219807397
20
39.834380020233397
42
-0.7669716324443836
0
LWPOLYLINE
5
132
100
AcDbEntity
8
0
100
AcDbPolyline
90
6
70
1
43
0.0
10
38.707106781186546
20
78.292893114505318
10
45.524815633631199
20
71.475184262060637
42
-0.78871115652439605
10
44.507812995515359
20
69.817306973412897
42
0.15885818231515603
10
31.492187004484634
20
69.817306973412897
42
-0.78871115652439094
10
30.475184366368776
20
71.475184262060651
10
37.292893218813447
20
78.292893114505318
42
-0.41421356237309687
0
LWPOLYLINE
5
133
100
AcDbEntity
8
0
100
AcDbPolyline
90
8
70
1
43
0.0
10
41.843842065599894
20
62.096291207654176
42
0.3187049485449398
10
42.221153919167158
20
49.37188808031047
42
-0.47547544174477757
10
41.850961614462832
20
47.865499134505413
42
-0.22474898539631991
10
34.149038385537168
20
47.865499134505399
42
-0.4754754417447839
10
33.778846080832849
20
49.37188808031047
42
0.3187049485449398
10
34.156157934400099
20
62.096291207654176
42
-0.52287811404097517
10
34.759507637077817
20
63.623919296886598
42
-0.1160565535012445
10
41.240492362922183
20
63.623919296886598
42
-0.5228781140409775
0
LWPOLYLINE
5
134
100
AcDbEntity
8
0
100
AcDbPolyline
90
8
70
1
43
0.0
10
43.032202728014823
20
20.619526046070877
42
0.15391235183482482
10
38.991832401301878
20
11.886437115053553
42
-0.87963704941892129
10
37.00816745106934
20
11.886438263042463
42
0.15391233332137153
10
32.967797271985177
20
20.619526046070877
42
-0.40061638384519566
10
32.999999746680253
20
21.999998867511714
10
37.292893218813454
20
26.292892339644929
42
-0.41421356237309509
10
38.707106781186546
20
26.292892339644929
10
43.000000253319747
20
21.999998867511721
42
-0.40061638384519471
0
LWPOLYLINE
5
135
100
AcDbEntity
8
0
100
AcDbPolyline
90
6
70
1
43
0.0
10
45.707106885494674
20
86.707106781186539
10
52.843711409902966
20
93.843711305594837
42
-0.75567428985204033
10
54.523958444079703
20
92.906391475233818
42
0.11667343404787697
10
54.523958444079732
20
79.09360852476614
42
-0.75567428985204721
10
52.843711409903008
20
78.156288694405134
10
45.707106885494674
20
85.292893218813447
42
-0.41421356237309509
0
LWPOLYLINE
5
136
100
AcDbEntity
8
0
100
AcDbPolyline
90
6
70
1
43
0.0
10
30.292893114505326
20
85.292893218813447
10
23.156288590097198
20
78.156288694405333
42
-0.75567428985203622
10
21.476041555920453
20
79.09360852476631
42
0.11667343404787434
10
21.476041555920457
20
92.906391475233676
42
-0.75567428985203455
10
23.156288590097201
20
93.843711305594667
10
30.292893114505318
20
86.707106781186539
42
-0.41421356237309415
0
CIRCLE
5
137
100
AcDbEntity
8
0
100
AcDbCircle
10
22.750000000000004
20
101.25
30
0
40
1.5500000000000003
210
0
220
-0
230
1
0
ENDSEC
0
SECTION
2
OBJECTS
0
DICTIONARY
5
C
100
AcDbDictionary
3
ACAD_GROUP
350
D
3
ACAD_MLINESTYLE
350
17
0
DICTIONARY
5
D
100
AcDbDictionary
0
DICTIONARY
5
1A
330
C
100
AcDbDictionary
0
DICTIONARY
5
17
100
AcDbDictionary
0
ENDSEC
0
EOF
