 0
SECTION
 2
ENTITIES
  0
POLYLINE
 8
Layer0
 66
     1
70
    8
 10
0.0
 20
 0.0
 30
0.0
  0
VERTEX
  8
MY3DLAYER
10
91.76828996322926
20
45.711940777125626
30
3.9531563637233186e-14
 70
     32
  0
VERTEX
  8
MY3DLAYER
10
133.08683245815317
20
4.393398282201553
30
0.0
 70
     32
  0
VERTEX
  8
MY3DLAYER
10
133.62004985324617
20
3.8857331196754057
30
0.0
 70
     32
  0
VERTEX
  8
MY3DLAYER
10
134.17753491349671
20
3.4048431995588277
30
0.0
 70
     32
  0
VERTEX
  8
MY3DLAYER
10
134.7579446085649
20
2.9518870277901788
30
0.0
 70
     32
  0
VERTEX
  8
MY3DLAYER
10
135.3598806806574
20
2.527955815461667
30
0.0
 70
     32
  0
VERTEX
  8
MY3DLAYER
10
135.98189301305305
20
2.1340708499957906
30
0.0
 70
     32
  0
VERTEX
  8
MY3DLAYER
10
136.6224831235615
20
1.7711810347745718
30
0.0
 70
     32
  0
VERTEX
  8
MY3DLAYER
10
137.2801077744972
20
1.4401606031482137
30
0.0
 70
     32
  0
VERTEX
  8
MY3DLAYER
10
137.9531826904751
20
1.1418070123306336
30
0.0
 70
     32
  0
VERTEX
  8
MY3DLAYER
10
138.6400863750682
20
0.8768390222545676
30
0.0
 70
     32
  0
VERTEX
  8
MY3DLAYER
10
139.33916401713455
20
0.6458949640167695
30
0.0
 70
     32
  0
VERTEX
  8
MY3DLAYER
10
140.0487314774025
20
0.44953120208179553
30
0.0
 70
     32
  0
VERTEX
  8
MY3DLAYER
10
140.76707934570956
20
0.2882207939514842
30
0.0
 70
     32
  0
VERTEX
  8
MY3DLAYER
10
141.49247705912103
20
0.16235235052824704
30
0.0
 70
     32
  0
VERTEX
  8
MY3DLAYER
10
142.22317707100808
20
0.07222909991705818
30
0.0
 70
     32
  0
VERTEX
  8
MY3DLAYER
10
142.9574190610402
20
0.018068156922386436
30
0.0
 70
     32
  0
VERTEX
  8
MY3DLAYER
10
143.69343417595144
20
0.0
30
0.0
 70
     32
  0
VERTEX
  8
MY3DLAYER
10
144.4294492908627
20
0.018068156922476673
30
0.0
 70
     32
  0
VERTEX
  8
MY3DLAYER
10
145.16369128089482
20
0.07222909991714843
30
0.0
 70
     32
  0
VERTEX
  8
MY3DLAYER
10
145.89439129278188
20
0.1623523505283373
30
0.0
 70
     32
  0
VERTEX
  8
MY3DLAYER
10
146.61978900619334
20
0.28822079395157446
30
0.0
 70
     32
  0
VERTEX
  8
MY3DLAYER
10
147.33813687450038
20
0.449531202081976
30
0.0
 70
     32
  0
VERTEX
  8
MY3DLAYER
10
148.0477043347684
20
0.64589496401695
30
0.0
 70
     32
  0
VERTEX
  8
MY3DLAYER
10
148.7467819768347
20
0.8768390222548383
30
0.0
 70
     32
  0
VERTEX
  8
MY3DLAYER
10
149.43368566142777
20
1.141807012330814
30
0.0
 70
     32
  0
VERTEX
  8
MY3DLAYER
10
150.10676057740565
20
1.4401606031484846
30
0.0
 70
     32
  0
VERTEX
  8
MY3DLAYER
10
150.7643852283414
20
1.7711810347747523
30
0.0
 70
     32
  0
VERTEX
  8
MY3DLAYER
10
151.40497533884968
20
2.134070849996061
30
0.0
 70
     32
  0
VERTEX
  8
MY3DLAYER
10
152.02698767124545
20
2.527955815462028
30
0.0
 70
     32
  0
VERTEX
  8
MY3DLAYER
10
152.62892374333785
20
2.95188702779054
30
0.0
 70
     32
  0
VERTEX
  8
MY3DLAYER
10
153.20933343840608
20
3.4048431995590986
30
0.0
 70
     32
  0
VERTEX
  8
MY3DLAYER
10
153.7668184986567
20
3.8857331196757667
30
0.0
 70
     32
  0
VERTEX
  8
MY3DLAYER
10
154.3000358937496
20
4.393398282201914
30
0.0
 70
     32
  0
VERTEX
  8
MY3DLAYER
10
154.8077010562758
20
4.9266156772948815
30
0.0
 70
     32
  0
VERTEX
  8
MY3DLAYER
10
155.2885909763924
20
5.484100737545513
30
0.0
 70
     32
  0
VERTEX
  8
MY3DLAYER
10
155.74154714816098
20
6.064510432613791
30
0.0
 70
     32
  0
VERTEX
  8
MY3DLAYER
10
156.1654783604895
20
6.6664465047061485
30
0.0
 70
     32
  0
VERTEX
  8
MY3DLAYER
10
156.55936332595536
20
7.2884588371019525
30
0.0
 70
     32
  0
VERTEX
  8
MY3DLAYER
10
156.92225314117667
20
7.929048947610281
30
0.0
 70
     32
  0
VERTEX
  8
MY3DLAYER
10
157.25327357280298
20
8.586673598546003
30
0.0
 70
     32
  0
VERTEX
  8
MY3DLAYER
10
157.5516271636206
20
9.259748514523954
30
0.0
 70
     32
  0
VERTEX
  8
MY3DLAYER
10
157.81659515369657
20
9.94665219911699
30
0.0
 70
     32
  0
VERTEX
  8
MY3DLAYER
10
158.04753921193443
20
10.64572984118329
30
0.0
 70
     32
  0
VERTEX
  8
MY3DLAYER
10
158.2439029738694
20
11.355297301451351
30
0.0
 70
     32
  0
VERTEX
  8
MY3DLAYER
10
158.40521338199972
20
12.073645169758354
30
0.0
 70
     32
  0
VERTEX
  8
MY3DLAYER
10
158.53108182542294
20
12.79904288316986
30
0.0
 70
     32
  0
VERTEX
  8
MY3DLAYER
10
158.62120507603422
20
13.529742895056783
30
0.0
 70
     32
  0
VERTEX
  8
MY3DLAYER
10
158.67536601902884
20
14.263984885088963
30
0.0
 70
     32
  0
VERTEX
  8
MY3DLAYER
10
158.69343417595118
20
15.000000000000288
30
0.0
 70
     32
  0
VERTEX
  8
MY3DLAYER
10
158.67536601902881
20
15.736015114911524
30
0.0
 70
     32
  0
VERTEX
  8
MY3DLAYER
10
158.62120507603413
20
16.470257104943702
30
0.0
 70
     32
  0
VERTEX
  8
MY3DLAYER
10
158.53108182542286
20
17.20095711683072
30
0.0
 70
     32
  0
VERTEX
  8
MY3DLAYER
10
158.40521338199963
20
17.92635483024222
30
0.0
 70
     32
  0
VERTEX
  8
MY3DLAYER
10
158.2439029738693
20
18.644702698549224
30
0.0
 70
     32
  0
VERTEX
  8
MY3DLAYER
10
158.0475392119343
20
19.354270158817197
30
0.0
 70
     32
  0
VERTEX
  8
MY3DLAYER
10
157.8165951536964
20
20.053347800883586
30
0.0
 70
     32
  0
VERTEX
  8
MY3DLAYER
10
157.55162716362037
20
20.740251485476623
30
0.0
 70
     32
  0
VERTEX
  8
MY3DLAYER
10
157.25327357280275
20
21.413326401454484
30
0.0
 70
     32
  0
VERTEX
  8
MY3DLAYER
10
156.92225314117638
20
22.070951052390296
30
0.0
 70
     32
  0
VERTEX
  8
MY3DLAYER
10
156.55936332595513
20
22.711541162898623
30
0.0
 70
     32
  0
VERTEX
  8
MY3DLAYER
10
156.16547836048926
20
23.333553495294247
30
0.0
 70
     32
  0
VERTEX
  8
MY3DLAYER
10
155.7415471481607
20
23.935489567386785
30
0.0
 70
     32
  0
VERTEX
  8
MY3DLAYER
10
155.2885909763921
20
24.515899262454884
30
0.0
 70
     32
  0
VERTEX
  8
MY3DLAYER
10
154.8077010562754
20
25.073384322705515
30
0.0
 70
     32
  0
VERTEX
  8
MY3DLAYER
10
154.30003589374923
20
25.60660171779839
30
0.0
 70
     32
  0
VERTEX
  8
MY3DLAYER
10
112.98149339882534
20
66.92514421272246
30
3.9531563637233186e-14
 70
     32
  0
VERTEX
  8
MY3DLAYER
10
112.6881254849941
20
67.2379112284421
30
3.921368576954805e-14
 70
     32
  0
VERTEX
  8
MY3DLAYER
10
112.40232140205218
20
67.55760477726908
30
3.8888768183913315e-14
 70
     32
  0
VERTEX
  8
MY3DLAYER
10
112.12424463692523
20
67.88404198667449
30
3.8556996741134656e-14
 70
     32
  0
VERTEX
  8
MY3DLAYER
10
111.85405425632406
20
68.21703612659051
30
3.8218561222591835e-14
 70
     32
  0
VERTEX
  8
MY3DLAYER
10
111.59190481575465
20
68.5563967162249
30
3.787365522167888e-14
 70
     32
  0
VERTEX
  8
MY3DLAYER
10
111.33794627110859
20
68.90192963302022
30
3.7522476033063915e-14
 70
     32
  0
VERTEX
  8
MY3DLAYER
10
111.09232389288476
20
69.2534372236972
30
3.7165224539832e-14
 70
     32
  0
VERTEX
  8
MY3DLAYER
10
110.85517818309089
20
69.6107184173168
30
3.680210509857485e-14
 70
     32
  0
VERTEX
  8
MY3DLAYER
10
110.62664479487306
20
69.97356884029773
30
3.643332542249398e-14
 70
     32
  0
VERTEX
  8
MY3DLAYER
10
110.40685445491879
20
70.34178093332388
30
3.605909646258369e-14
 70
     32
  0
VERTEX
  8
MY3DLAYER
10
110.1959328886781
20
70.71514407007197
30
3.567963228696189e-14
 70
     32
  0
VERTEX
  8
MY3DLAYER
10
109.9940007484456
20
71.09344467769631
30
3.529514995841794e-14
 70
     32
  0
VERTEX
  8
MY3DLAYER
10
109.80117354434435
20
71.4764663589969
30
3.490586941024739e-14
 70
     32
  0
VERTEX
  8
MY3DLAYER
10
109.61756157825118
20
71.86399001620421
30
3.4512013320444804e-14
 70
     32
  0
VERTEX
  8
MY3DLAYER
10
109.44326988070156
20
72.25579397630807
30
3.411380698432634e-14
 70
     32
  0
VERTEX
  8
MY3DLAYER
10
109.2783981508092
20
72.65165411786077
30
3.371147818565557e-14
 70
     32
  0
VERTEX
  8
MY3DLAYER
10
109.12304069923601
20
73.05134399917942
30
3.3305257066345443e-14
 70
     32
  0
VERTEX
  8
MY3DLAYER
10
108.97728639424408
20
73.45463498787642
30
3.289537599481158e-14
 70
     32
  0
VERTEX
  8
MY3DLAYER
10
108.84121861086062
20
73.86129639164251
30
3.248206943305171e-14
 70
     32
  0
VERTEX
  8
MY3DLAYER
10
108.7149151831857
20
74.27109559020852
30
3.206557380252766e-14
 70
     32
  0
VERTEX
  8
MY3DLAYER
10
108.59844835986908
20
74.68379816841028
30
3.164612734892675e-14
 70
     32
  0
VERTEX
  8
MY3DLAYER
10
108.4918847627822
20
75.09916805027913
30
3.1223970005879194e-14
 70
     32
  0
VERTEX
  8
MY3DLAYER
10
108.39528534890897
20
75.51696763408363
30
3.079934325771041e-14
 70
     32
  0
VERTEX
  8
MY3DLAYER
10
108.30870537547666
20
75.93695792824333
30
3.037249000130566e-14
 70
     32
  0
VERTEX
  8
MY3DLAYER
10
108.23219436834763
20
76.35889868803778
30
2.99436544071676e-14
 70
     32
  0
VERTEX
  8
MY3DLAYER
10
108.16579609368935
20
76.7825485530328
30
2.9513081779744475e-14
 70
     32
  0
VERTEX
  8
MY3DLAYER
10
108.1095485329388
20
77.20766518514378
30
2.9081018417110065e-14
 70
     32
  0
VERTEX
  8
MY3DLAYER
10
108.06348386107646
20
77.63400540726002
30
2.864771147007514e-14
 70
     32
  0
VERTEX
  8
MY3DLAYER
10
108.02762842822129
20
78.06132534234683
30
2.8213408800811147e-14
 70
     32
  0
VERTEX
  8
MY3DLAYER
10
108.00200274455781
20
78.48938055295011
30
2.7778358841067144e-14
 70
     32
  0
VERTEX
  8
MY3DLAYER
10
107.98662146860387
20
78.91792618102002
30
2.7342810450060402e-14
 70
     32
  0
VERTEX
  8
MY3DLAYER
10
107.98149339882539
20
79.34671708797613
30
2.6907012772123234e-14
 70
     32
  0
VERTEX
  8
MY3DLAYER
10
107.98662146860387
20
79.77550799493216
30
2.6471215094185983e-14
 70
     32
  0
VERTEX
  8
MY3DLAYER
10
108.00200274455781
20
80.20405362300217
30
2.603566670317924e-14
 70
     32
  0
VERTEX
  8
MY3DLAYER
10
108.02762842822133
20
80.63210883360536
30
2.560061674343524e-14
 70
     32
  0
VERTEX
  8
MY3DLAYER
10
108.0634838610765
20
81.05942876869226
30
2.516631407417133e-14
 70
     32
  0
VERTEX
  8
MY3DLAYER
10
108.10954853293885
20
81.4857689908084
30
2.4733007127136402e-14
 70
     32
  0
VERTEX
  8
MY3DLAYER
10
108.1657960936894
20
81.91088562291948
30
2.430094376450199e-14
 70
     32
  0
VERTEX
  8
MY3DLAYER
10
108.23219436834768
20
82.33453548791448
30
2.387037113707887e-14
 70
     32
  0
VERTEX
  8
MY3DLAYER
10
108.3087053754767
20
82.75647624770895
30
2.3441535542940804e-14
 70
     32
  0
VERTEX
  8
MY3DLAYER
10
108.39528534890901
20
83.17646654186856
30
2.3014682286536057e-14
 70
     32
  0
VERTEX
  8
MY3DLAYER
10
108.49188476278225
20
83.59426612567297
30
2.2590055538367188e-14
 70
     32
  0
VERTEX
  8
MY3DLAYER
10
108.59844835986917
20
84.00963600754183
30
2.2167898195319712e-14
 70
     32
  0
VERTEX
  8
MY3DLAYER
10
108.7149151831858
20
84.42233858574366
30
2.1748451741718808e-14
 70
     32
  0
VERTEX
  8
MY3DLAYER
10
108.84121861086066
20
84.83213778430977
30
2.1331956111194757e-14
 70
     32
  0
VERTEX
  8
MY3DLAYER
10
108.97728639424412
20
85.23879918807577
30
2.091864954943488e-14
 70
     32
  0
VERTEX
  8
MY3DLAYER
10
109.1230406992361
20
85.64209017677267
30
2.0508768477900942e-14
 70
     32
  0
VERTEX
  8
MY3DLAYER
10
109.27839815080924
20
86.04178005809133
30
2.0102547358590895e-14
 70
     32
  0
VERTEX
  8
MY3DLAYER
10
109.44326988070165
20
86.43764019964412
30
1.970021855992013e-14
 70
     32
  0
VERTEX
  8
MY3DLAYER
10
109.61756157825128
20
86.82944415974806
30
1.930201222380166e-14
 70
     32
  0
VERTEX
  8
MY3DLAYER
10
109.80117354434444
20
87.2169678169552
30
1.8908156133998995e-14
 70
     32
  0
VERTEX
  8
MY3DLAYER
10
109.9940007484457
20
87.5999894982558
30
1.8518875585828448e-14
 70
     32
  0
VERTEX
  8
MY3DLAYER
10
110.19593288867819
20
87.9782901058802
30
1.8134393257284496e-14
 70
     32
  0
VERTEX
  8
MY3DLAYER
10
110.40685445491887
20
88.3516532426284
30
1.7754929081662697e-14
 70
     32
  0
VERTEX
  8
MY3DLAYER
10
110.6266447948732
20
88.71986533565436
30
1.7380700121752402e-14
 70
     32
  0
VERTEX
  8
MY3DLAYER
10
110.85517818309103
20
89.08271575863547
30
1.7011920445671616e-14
 70
     32
  0
VERTEX
  8
MY3DLAYER
10
111.0923238928849
20
89.43999695225497
30
1.6648801004414388e-14
 70
     32
  0
VERTEX
  8
MY3DLAYER
10
111.33794627110873
20
89.79150454293188
30
1.6291549511182467e-14
 70
     32
  0
VERTEX
  8
MY3DLAYER
10
111.59190481575475
20
90.13703745972728
30
1.5940370322567584e-14
 70
     32
  0
VERTEX
  8
MY3DLAYER
10
111.85405425632416
20
90.47639804936168
30
1.559546432165455e-14
 70
     32
  0
VERTEX
  8
MY3DLAYER
10
112.12424463692537
20
90.80939218927779
30
1.525702880311181e-14
 70
     32
  0
VERTEX
  8
MY3DLAYER
10
112.40232140205231
20
91.13582939868311
30
1.492525736033315e-14
 70
     32
  0
VERTEX
  8
MY3DLAYER
10
112.68812548499423
20
91.45552294751009
30
1.4600339774698417e-14
 70
     32
  0
VERTEX
  8
MY3DLAYER
10
112.98149339882548
20
91.76828996322972
30
1.4282461907013278e-14
 70
     32
  0
VERTEX
  8
MY3DLAYER
10
154.30003589374942
20
133.08683245815388
30
2.9186370952848594e-14
 70
     32
  0
VERTEX
  8
MY3DLAYER
10
154.80770105627565
20
133.62004985324694
30
2.9186370952848594e-14
 70
     32
  0
VERTEX
  8
MY3DLAYER
10
155.28859097639227
20
134.1775349134974
30
2.9186370952848594e-14
 70
     32
  0
VERTEX
  8
MY3DLAYER
10
155.7415471481609
20
134.7579446085656
30
2.9186370952848594e-14
 70
     32
  0
VERTEX
  8
MY3DLAYER
10
156.1654783604894
20
135.3598806806581
30
2.9186370952848594e-14
 70
     32
  0
VERTEX
  8
MY3DLAYER
10
156.55936332595527
20
135.98189301305374
30
2.9186370952848594e-14
 70
     32
  0
VERTEX
  8
MY3DLAYER
10
156.92225314117658
20
136.62248312356215
30
2.9186370952848594e-14
 70
     32
  0
VERTEX
  8
MY3DLAYER
10
157.2532735728029
20
137.2801077744978
30
2.9186370952848594e-14
 70
     32
  0
VERTEX
  8
MY3DLAYER
10
157.5516271636205
20
137.95318269047576
30
2.9186370952848594e-14
 70
     32
  0
VERTEX
  8
MY3DLAYER
10
157.81659515369657
20
138.64008637506888
30
2.9186370952848594e-14
 70
     32
  0
VERTEX
  8
MY3DLAYER
10
158.04753921193443
20
139.33916401713518
30
2.9186370952848594e-14
 70
     32
  0
VERTEX
  8
MY3DLAYER
10
158.24390297386944
20
140.04873147740315
30
2.9186370952848594e-14
 70
     32
  0
VERTEX
  8
MY3DLAYER
10
158.40521338199972
20
140.76707934571016
30
2.9186370952848594e-14
 70
     32
  0
VERTEX
  8
MY3DLAYER
10
158.531081825423
20
141.49247705912165
30
2.9186370952848594e-14
 70
     32
  0
VERTEX
  8
MY3DLAYER
10
158.62120507603422
20
142.22317707100865
30
2.9186370952848594e-14
 70
     32
  0
VERTEX
  8
MY3DLAYER
10
158.67536601902884
20
142.95741906104084
30
2.9186370952848594e-14
 70
     32
  0
VERTEX
  8
MY3DLAYER
10
158.6934341759513
20
143.6934341759521
30
2.9186370952848594e-14
 70
     32
  0
VERTEX
  8
MY3DLAYER
10
158.67536601902884
20
144.42944929086332
30
2.9186370952848594e-14
 70
     32
  0
VERTEX
  8
MY3DLAYER
10
158.62120507603422
20
145.1636912808954
30
2.9186370952848594e-14
 70
     32
  0
VERTEX
  8
MY3DLAYER
10
158.531081825423
20
145.8943912927825
30
2.9186370952848594e-14
 70
     32
  0
VERTEX
  8
MY3DLAYER
10
158.40521338199974
20
146.61978900619403
30
2.9186370952848594e-14
 70
     32
  0
VERTEX
  8
MY3DLAYER
10
158.24390297386944
20
147.338136874501
30
2.9186370952848594e-14
 70
     32
  0
VERTEX
  8
MY3DLAYER
10
158.04753921193446
20
148.04770433476898
30
2.9186370952848594e-14
 70
     32
  0
VERTEX
  8
MY3DLAYER
10
157.81659515369662
20
148.74678197683528
30
2.9186370952848594e-14
 70
     32
  0
VERTEX
  8
MY3DLAYER
10
157.5516271636206
20
149.43368566142843
30
2.9186370952848594e-14
 70
     32
  0
VERTEX
  8
MY3DLAYER
10
157.25327357280293
20
150.10676057740628
30
2.9186370952848594e-14
 70
     32
  0
VERTEX
  8
MY3DLAYER
10
156.92225314117667
20
150.7643852283421
30
2.9186370952848594e-14
 70
     32
  0
VERTEX
  8
MY3DLAYER
10
156.55936332595542
20
151.40497533885042
30
2.9186370952848594e-14
 70
     32
  0
VERTEX
  8
MY3DLAYER
10
156.1654783604895
20
152.02698767124613
30
2.9186370952848594e-14
 70
     32
  0
VERTEX
  8
MY3DLAYER
10
155.741547148161
20
152.62892374333856
30
2.9186370952848594e-14
 70
     32
  0
VERTEX
  8
MY3DLAYER
10
155.2885909763924
20
153.20933343840676
30
2.9186370952848594e-14
 70
     32
  0
VERTEX
  8
MY3DLAYER
10
154.8077010562758
20
153.7668184986574
30
2.9186370952848594e-14
 70
     32
  0
VERTEX
  8
MY3DLAYER
10
154.3000358937496
20
154.30003589375028
30
2.9186370952848594e-14
 70
     32
  0
VERTEX
  8
MY3DLAYER
10
153.76681849865668
20
154.8077010562765
30
2.9186370952848594e-14
 70
     32
  0
VERTEX
  8
MY3DLAYER
10
153.20933343840608
20
155.28859097639318
30
2.9186370952848594e-14
 70
     32
  0
VERTEX
  8
MY3DLAYER
10
152.62892374333785
20
155.74154714816183
30
2.9186370952848594e-14
 70
     32
  0
VERTEX
  8
MY3DLAYER
10
152.0269876712454
20
156.16547836049034
30
2.9186370952848594e-14
 70
     32
  0
VERTEX
  8
MY3DLAYER
10
151.40497533884968
20
156.5593633259562
30
2.9186370952848594e-14
 70
     32
  0
VERTEX
  8
MY3DLAYER
10
150.76438522834135
20
156.92225314117744
30
2.9186370952848594e-14
 70
     32
  0
VERTEX
  8
MY3DLAYER
10
150.10676057740565
20
157.25327357280378
30
2.9186370952848594e-14
 70
     32
  0
VERTEX
  8
MY3DLAYER
10
149.43368566142775
20
157.55162716362148
30
2.9186370952848594e-14
 70
     32
  0
VERTEX
  8
MY3DLAYER
10
148.74678197683465
20
157.81659515369745
30
2.9186370952848594e-14
 70
     32
  0
VERTEX
  8
MY3DLAYER
10
148.04770433476835
20
158.04753921193532
30
2.9186370952848594e-14
 70
     32
  0
VERTEX
  8
MY3DLAYER
10
147.33813687450035
20
158.2439029738703
30
2.9186370952848594e-14
 70
     32
  0
VERTEX
  8
MY3DLAYER
10
146.6197890061933
20
158.40521338200062
30
2.9186370952848594e-14
 70
     32
  0
VERTEX
  8
MY3DLAYER
10
145.89439129278182
20
158.53108182542394
30
2.9186370952848594e-14
 70
     32
  0
VERTEX
  8
MY3DLAYER
10
145.16369128089482
20
158.6212050760352
30
2.9186370952848594e-14
 70
     32
  0
VERTEX
  8
MY3DLAYER
10
144.4294492908627
20
158.6753660190298
30
2.9186370952848594e-14
 70
     32
  0
VERTEX
  8
MY3DLAYER
10
143.69343417595135
20
158.69343417595218
30
2.9186370952848594e-14
 70
     32
  0
VERTEX
  8
MY3DLAYER
10
142.95741906104016
20
158.6753660190298
30
2.9186370952848594e-14
 70
     32
  0
VERTEX
  8
MY3DLAYER
10
142.223177071008
20
158.6212050760352
30
2.9186370952848594e-14
 70
     32
  0
VERTEX
  8
MY3DLAYER
10
141.49247705912097
20
158.53108182542394
30
2.9186370952848594e-14
 70
     32
  0
VERTEX
  8
MY3DLAYER
10
140.76707934570948
20
158.4052133820007
30
2.9186370952848594e-14
 70
     32
  0
VERTEX
  8
MY3DLAYER
10
140.0487314774024
20
158.24390297387038
30
2.9186370952848594e-14
 70
     32
  0
VERTEX
  8
MY3DLAYER
10
139.3391640171345
20
158.04753921193543
30
2.9186370952848594e-14
 70
     32
  0
VERTEX
  8
MY3DLAYER
10
138.64008637506805
20
157.81659515369753
30
2.9186370952848594e-14
 70
     32
  0
VERTEX
  8
MY3DLAYER
10
137.95318269047502
20
157.55162716362148
30
2.9186370952848594e-14
 70
     32
  0
VERTEX
  8
MY3DLAYER
10
137.2801077744971
20
157.2532735728039
30
2.9186370952848594e-14
 70
     32
  0
VERTEX
  8
MY3DLAYER
10
136.62248312356138
20
156.9222531411776
30
2.9186370952848594e-14
 70
     32
  0
VERTEX
  8
MY3DLAYER
10
135.98189301305302
20
156.5593633259563
30
2.9186370952848594e-14
 70
     32
  0
VERTEX
  8
MY3DLAYER
10
135.35988068065734
20
156.16547836049043
30
2.9186370952848594e-14
 70
     32
  0
VERTEX
  8
MY3DLAYER
10
134.75794460856486
20
155.741547148162
30
2.9186370952848594e-14
 70
     32
  0
VERTEX
  8
MY3DLAYER
10
134.17753491349666
20
155.28859097639335
30
2.9186370952848594e-14
 70
     32
  0
VERTEX
  8
MY3DLAYER
10
133.62004985324603
20
154.8077010562767
30
2.9186370952848594e-14
 70
     32
  0
VERTEX
  8
MY3DLAYER
10
133.08683245815317
20
154.30003589375045
30
2.9186370952848594e-14
 70
     32
  0
VERTEX
  8
MY3DLAYER
10
91.76828996322918
20
112.98149339882629
30
1.4282461907013278e-14
 70
     32
  0
VERTEX
  8
MY3DLAYER
10
91.45552294750959
20
112.688125484995
30
1.4739955721066727e-14
 70
     32
  0
VERTEX
  8
MY3DLAYER
10
91.13582939868262
20
112.40232140205312
30
1.5207581185486804e-14
 70
     32
  0
VERTEX
  8
MY3DLAYER
10
90.8093921892772
20
112.1242446369261
30
1.56850708070706e-14
 70
     32
  0
VERTEX
  8
MY3DLAYER
10
90.47639804936118
20
111.85405425632497
30
1.617215145007622e-14
 70
     32
  0
VERTEX
  8
MY3DLAYER
10
90.13703745972678
20
111.5919048157556
30
1.6668544492462882e-14
 70
     32
  0
VERTEX
  8
MY3DLAYER
10
89.79150454293142
20
111.33794627110959
30
1.717396598526974e-14
 70
     32
  0
VERTEX
  8
MY3DLAYER
10
89.43999695225448
20
111.09232389288576
30
1.7688126815041234e-14
 70
     32
  0
VERTEX
  8
MY3DLAYER
10
89.08271575863493
20
110.8551781830918
30
1.821073286920752e-14
 70
     32
  0
VERTEX
  8
MY3DLAYER
10
88.71986533565388
20
110.62664479487401
30
1.8741485204323704e-14
 70
     32
  0
VERTEX
  8
MY3DLAYER
10
88.35165324262785
20
110.40685445491968
30
1.9280080217073123e-14
 70
     32
  0
VERTEX
  8
MY3DLAYER
10
87.97829010587967
20
110.1959328886791
30
1.9826209817935605e-14
 70
     32
  0
VERTEX
  8
MY3DLAYER
10
87.5999894982553
20
109.99400074844651
30
2.0379561607422185e-14
 70
     32
  0
VERTEX
  8
MY3DLAYER
10
87.2169678169547
20
109.80117354434535
30
2.0939819054775546e-14
 70
     32
  0
VERTEX
  8
MY3DLAYER
10
86.82944415974752
20
109.6175615782521
30
2.150666167903296e-14
 70
     32
  0
VERTEX
  8
MY3DLAYER
10
86.43764019964358
20
109.44326988070256
30
2.207976523234974e-14
 70
     32
  0
VERTEX
  8
MY3DLAYER
10
86.04178005809088
20
109.27839815081015
30
2.265880188547645e-14
 70
     32
  0
VERTEX
  8
MY3DLAYER
10
85.64209017677223
20
109.12304069923691
30
2.3243440415285483e-14
 70
     32
  0
VERTEX
  8
MY3DLAYER
10
85.23879918807528
20
108.97728639424497
30
2.3833346394238764e-14
 70
     32
  0
VERTEX
  8
MY3DLAYER
10
84.83213778430923
20
108.84121861086157
30
2.442818238168845e-14
 70
     32
  0
VERTEX
  8
MY3DLAYER
10
84.42233858574312
20
108.71491518318669
30
2.5027608116901354e-14
 70
     32
  0
VERTEX
  8
MY3DLAYER
10
84.00963600754137
20
108.59844835987003
30
2.5631280713696146e-14
 70
     32
  0
VERTEX
  8
MY3DLAYER
10
83.59426612567252
20
108.49188476278316
30
2.6238854856583057e-14
 70
     32
  0
VERTEX
  8
MY3DLAYER
10
83.17646654186807
20
108.39528534890991
30
2.6849982998292268e-14
 70
     32
  0
VERTEX
  8
MY3DLAYER
10
82.7564762477084
20
108.30870537547764
30
2.7464315558579836e-14
 70
     32
  0
VERTEX
  8
MY3DLAYER
10
82.3345354879139
20
108.23219436834867
30
2.8081501124196106e-14
 70
     32
  0
VERTEX
  8
MY3DLAYER
10
81.91088562291894
20
108.16579609369029
30
2.8701186649902364e-14
 70
     32
  0
VERTEX
  8
MY3DLAYER
10
81.48576899080791
20
108.10954853293984
30
2.932301766042172e-14
 70
     32
  0
VERTEX
  8
MY3DLAYER
10
81.05942876869172
20
108.06348386107746
30
2.994663845320759e-14
 70
     32
  0
VERTEX
  8
MY3DLAYER
10
80.6321088336049
20
108.02762842822224
30
3.057169230191405e-14
 70
     32
  0
VERTEX
  8
MY3DLAYER
10
80.20405362300163
20
108.00200274455877
30
3.119782166045202e-14
 70
     32
  0
VERTEX
  8
MY3DLAYER
10
79.77550799493166
20
107.98662146860487
30
3.1824668367514786e-14
 70
     32
  0
VERTEX
  8
MY3DLAYER
10
79.34671708797565
20
107.98149339882634
30
3.2451873851454387e-14
 70
     32
  0
VERTEX
  8
MY3DLAYER
10
78.91792618101958
20
107.98662146860487
30
3.307907933539406e-14
 70
     32
  0
VERTEX
  8
MY3DLAYER
10
78.48938055294961
20
108.00200274455877
30
3.370592604245675e-14
 70
     32
  0
VERTEX
  8
MY3DLAYER
10
78.06132534234634
20
108.02762842822233
30
3.4332055400994715e-14
 70
     32
  0
VERTEX
  8
MY3DLAYER
10
77.63400540725952
20
108.06348386107746
30
3.495710924970118e-14
 70
     32
  0
VERTEX
  8
MY3DLAYER
10
77.20766518514333
20
108.10954853293984
30
3.5580730042487044e-14
 70
     32
  0
VERTEX
  8
MY3DLAYER
10
76.7825485530323
20
108.16579609369039
30
3.6202561053006403e-14
 70
     32
  0
VERTEX
  8
MY3DLAYER
10
76.35889868803734
20
108.23219436834867
30
3.6822246578712665e-14
 70
     32
  0
VERTEX
  8
MY3DLAYER
10
75.93695792824283
20
108.30870537547764
30
3.743943214432893e-14
 70
     32
  0
VERTEX
  8
MY3DLAYER
10
75.51696763408322
20
108.39528534891001
30
3.80537647046165e-14
 70
     32
  0
VERTEX
  8
MY3DLAYER
10
75.09916805027872
20
108.49188476278334
30
3.866489284632571e-14
 70
     32
  0
VERTEX
  8
MY3DLAYER
10
74.68379816840991
20
108.5984483598702
30
3.927246698921262e-14
 70
     32
  0
VERTEX
  8
MY3DLAYER
10
74.27109559020812
20
108.71491518318679
30
3.987613958600741e-14
 70
     32
  0
VERTEX
  8
MY3DLAYER
10
73.86129639164206
20
108.84121861086166
30
4.0475565321220316e-14
 70
     32
  0
VERTEX
  8
MY3DLAYER
10
73.454634987876
20
108.97728639424516
30
4.107040130867e-14
 70
     32
  0
VERTEX
  8
MY3DLAYER
10
73.05134399917907
20
109.1230406992371
30
4.1660307287623284e-14
 70
     32
  0
VERTEX
  8
MY3DLAYER
10
72.6516541178604
20
109.27839815081023
30
4.224494581743224e-14
 70
     32
  0
VERTEX
  8
MY3DLAYER
10
72.25579397630766
20
109.44326988070264
30
4.282398247055895e-14
 70
     32
  0
VERTEX
  8
MY3DLAYER
10
71.86399001620376
20
109.61756157825226
30
4.339708602387573e-14
 70
     32
  0
VERTEX
  8
MY3DLAYER
10
71.47646635899657
20
109.80117354434552
30
4.396392864813322e-14
 70
     32
  0
VERTEX
  8
MY3DLAYER
10
71.09344467769594
20
109.99400074844668
30
4.45241860954865e-14
 70
     32
  0
VERTEX
  8
MY3DLAYER
10
70.71514407007162
20
110.19593288867927
30
4.5077537884973084e-14
 70
     32
  0
VERTEX
  8
MY3DLAYER
10
70.34178093332343
20
110.40685445491997
30
4.5623667485835565e-14
 70
     32
  0
VERTEX
  8
MY3DLAYER
10
69.97356884029742
20
110.6266447948742
30
4.616226249858498e-14
 70
     32
  0
VERTEX
  8
MY3DLAYER
10
69.61071841731635
20
110.85517818309206
30
4.669301483370117e-14
 70
     32
  0
VERTEX
  8
MY3DLAYER
10
69.2534372236968
20
111.09232389288594
30
4.7215620887867454e-14
 70
     32
  0
VERTEX
  8
MY3DLAYER
10
68.90192963301986
20
111.33794627110977
30
4.772978171763895e-14
 70
     32
  0
VERTEX
  8
MY3DLAYER
10
68.5563967162245
20
111.59190481575578
30
4.823520321044572e-14
 70
     32
  0
VERTEX
  8
MY3DLAYER
10
68.21703612659014
20
111.85405425632524
30
4.8731596252832464e-14
 70
     32
  0
VERTEX
  8
MY3DLAYER
10
67.88404198667412
20
112.12424463692645
30
4.921867689583809e-14
 70
     32
  0
VERTEX
  8
MY3DLAYER
10
67.55760477726872
20
112.40232140205339
30
4.96961665174218e-14
 70
     32
  0
VERTEX
  8
MY3DLAYER
10
67.23791122844173
20
112.68812548499527
30
5.01637919818418e-14
 70
     32
  0
VERTEX
  8
MY3DLAYER
10
66.92514421272215
20
112.98149339882647
30
5.062128579589533e-14
 70
     32
  0
VERTEX
  8
MY3DLAYER
10
25.606601717798213
20
154.30003589375028
30
8.571369285607732e-14
 70
     32
  0
VERTEX
  8
MY3DLAYER
10
25.073384322705245
20
154.80770105627633
30
8.571369285607732e-14
 70
     32
  0
VERTEX
  8
MY3DLAYER
10
24.515899262454656
20
155.288590976393
30
8.571369285607732e-14
 70
     32
  0
VERTEX
  8
MY3DLAYER
10
23.93548956738647
20
155.74154714816166
30
8.571369285607732e-14
 70
     32
  0
VERTEX
  8
MY3DLAYER
10
23.333553495294023
20
156.16547836049017
30
8.571369285607732e-14
 70
     32
  0
VERTEX
  8
MY3DLAYER
10
22.71154116289831
20
156.55936332595604
30
8.571369285607732e-14
 70
     32
  0
VERTEX
  8
MY3DLAYER
10
22.07095105238989
20
156.92225314117735
30
8.571369285607732e-14
 70
     32
  0
VERTEX
  8
MY3DLAYER
10
21.413326401454214
20
157.2532735728036
30
8.571369285607732e-14
 70
     32
  0
VERTEX
  8
MY3DLAYER
10
20.740251485476353
20
157.55162716362128
30
8.571369285607732e-14
 70
     32
  0
VERTEX
  8
MY3DLAYER
10
20.053347800883227
20
157.81659515369734
30
8.571369285607732e-14
 70
     32
  0
VERTEX
  8
MY3DLAYER
10
19.35427015881688
20
158.04753921193515
30
8.571369285607732e-14
 70
     32
  0
VERTEX
  8
MY3DLAYER
10
18.644702698548954
20
158.2439029738702
30
8.571369285607732e-14
 70
     32
  0
VERTEX
  8
MY3DLAYER
10
17.926354830241863
20
158.40521338200043
30
8.571369285607732e-14
 70
     32
  0
VERTEX
  8
MY3DLAYER
10
17.200957116830402
20
158.53108182542377
30
8.571369285607732e-14
 70
     32
  0
VERTEX
  8
MY3DLAYER
10
16.470257104943386
20
158.62120507603487
30
8.571369285607732e-14
 70
     32
  0
VERTEX
  8
MY3DLAYER
10
15.736015114911208
20
158.67536601902952
30
8.571369285607732e-14
 70
     32
  0
VERTEX
  8
MY3DLAYER
10
15.000000000000018
20
158.69343417595192
30
8.571369285607732e-14
 70
     32
  0
VERTEX
  8
MY3DLAYER
10
14.263984885088737
20
158.67536601902952
30
8.571369285607732e-14
 70
     32
  0
VERTEX
  8
MY3DLAYER
10
13.529742895056604
20
158.62120507603487
30
8.571369285607732e-14
 70
     32
  0
VERTEX
  8
MY3DLAYER
10
12.799042883169589
20
158.53108182542377
30
8.571369285607732e-14
 70
     32
  0
VERTEX
  8
MY3DLAYER
10
12.073645169758084
20
158.40521338200043
30
8.571369285607732e-14
 70
     32
  0
VERTEX
  8
MY3DLAYER
10
11.355297301451035
20
158.24390297387012
30
8.571369285607732e-14
 70
     32
  0
VERTEX
  8
MY3DLAYER
10
10.64572984118302
20
158.04753921193515
30
8.571369285607732e-14
 70
     32
  0
VERTEX
  8
MY3DLAYER
10
9.946652199116718
20
157.81659515369734
30
8.571369285607732e-14
 70
     32
  0
VERTEX
  8
MY3DLAYER
10
9.259748514523638
20
157.55162716362128
30
8.571369285607732e-14
 70
     32
  0
VERTEX
  8
MY3DLAYER
10
8.586673598545778
20
157.2532735728036
30
8.571369285607732e-14
 70
     32
  0
VERTEX
  8
MY3DLAYER
10
7.92904894761001
20
156.92225314117726
30
8.571369285607732e-14
 70
     32
  0
VERTEX
  8
MY3DLAYER
10
7.288458837101682
20
156.55936332595604
30
8.571369285607732e-14
 70
     32
  0
VERTEX
  8
MY3DLAYER
10
6.666446504705968
20
156.16547836049017
30
8.571369285607732e-14
 70
     32
  0
VERTEX
  8
MY3DLAYER
10
6.06451043261352
20
155.74154714816166
30
8.571369285607732e-14
 70
     32
  0
VERTEX
  8
MY3DLAYER
10
5.484100737545333
20
155.288590976393
30
8.571369285607732e-14
 70
     32
  0
VERTEX
  8
MY3DLAYER
10
4.926615677294701
20
154.80770105627633
30
8.571369285607732e-14
 70
     32
  0
VERTEX
  8
MY3DLAYER
10
4.393398282201779
20
154.30003589375028
30
8.571369285607732e-14
 70
     32
  0
VERTEX
  8
MY3DLAYER
10
3.8857331196755864
20
153.76681849865722
30
8.571369285607732e-14
 70
     32
  0
VERTEX
  8
MY3DLAYER
10
3.4048431995589183
20
153.20933343840667
30
8.571369285607732e-14
 70
     32
  0
VERTEX
  8
MY3DLAYER
10
2.9518870277903595
20
152.6289237433384
30
8.571369285607732e-14
 70
     32
  0
VERTEX
  8
MY3DLAYER
10
2.5279558154618025
20
152.02698767124605
30
8.571369285607732e-14
 70
     32
  0
VERTEX
  8
MY3DLAYER
10
2.134070849995926
20
151.40497533885022
30
8.571369285607732e-14
 70
     32
  0
VERTEX
  8
MY3DLAYER
10
1.771181034774662
20
150.7643852283419
30
8.571369285607732e-14
 70
     32
  0
VERTEX
  8
MY3DLAYER
10
1.440160603148304
20
150.1067605774062
30
8.571369285607732e-14
 70
     32
  0
VERTEX
  8
MY3DLAYER
10
1.1418070123306787
20
149.4336856614283
30
8.571369285607732e-14
 70
     32
  0
VERTEX
  8
MY3DLAYER
10
0.8768390222547029
20
148.74678197683528
30
8.571369285607732e-14
 70
     32
  0
VERTEX
  8
MY3DLAYER
10
0.6458949640168146
20
148.04770433476898
30
8.571369285607732e-14
 70
     32
  0
VERTEX
  8
MY3DLAYER
10
0.44953120208184066
20
147.33813687450083
30
8.571369285607732e-14
 70
     32
  0
VERTEX
  8
MY3DLAYER
10
0.28822079395152933
20
146.61978900619383
30
8.571369285607732e-14
 70
     32
  0
VERTEX
  8
MY3DLAYER
10
0.16235235052824704
20
145.89439129278242
30
8.571369285607732e-14
 70
     32
  0
VERTEX
  8
MY3DLAYER
10
0.07222909991696795
20
145.1636912808954
30
8.571369285607732e-14
 70
     32
  0
VERTEX
  8
MY3DLAYER
10
0.018068156922386436
20
144.42944929086332
30
8.571369285607732e-14
 70
     32
  0
VERTEX
  8
MY3DLAYER
10
0.0
20
143.6934341759519
30
8.571369285607732e-14
 70
     32
  0
VERTEX
  8
MY3DLAYER
10
0.018068156922386436
20
142.95741906104067
30
8.571369285607732e-14
 70
     32
  0
VERTEX
  8
MY3DLAYER
10
0.07222909991701307
20
142.22317707100856
30
8.571369285607732e-14
 70
     32
  0
VERTEX
  8
MY3DLAYER
10
0.16235235052824704
20
141.49247705912157
30
8.571369285607732e-14
 70
     32
  0
VERTEX
  8
MY3DLAYER
10
0.2882207939514842
20
140.76707934571004
30
8.571369285607732e-14
 70
     32
  0
VERTEX
  8
MY3DLAYER
10
0.44953120208179553
20
140.04873147740295
30
8.571369285607732e-14
 70
     32
  0
VERTEX
  8
MY3DLAYER
10
0.6458949640168146
20
139.33916401713498
30
8.571369285607732e-14
 70
     32
  0
VERTEX
  8
MY3DLAYER
10
0.8768390222547029
20
138.64008637506868
30
8.571369285607732e-14
 70
     32
  0
VERTEX
  8
MY3DLAYER
10
1.1418070123306787
20
137.95318269047556
30
8.571369285607732e-14
 70
     32
  0
VERTEX
  8
MY3DLAYER
10
1.440160603148304
20
137.2801077744978
30
8.571369285607732e-14
 70
     32
  0
VERTEX
  8
MY3DLAYER
10
1.771181034774662
20
136.62248312356198
30
8.571369285607732e-14
 70
     32
  0
VERTEX
  8
MY3DLAYER
10
2.134070849995926
20
135.98189301305356
30
8.571369285607732e-14
 70
     32
  0
VERTEX
  8
MY3DLAYER
10
2.5279558154618025
20
135.35988068065794
30
8.571369285607732e-14
 70
     32
  0
VERTEX
  8
MY3DLAYER
10
2.951887027790314
20
134.7579446085654
30
8.571369285607732e-14
 70
     32
  0
VERTEX
  8
MY3DLAYER
10
3.4048431995589183
20
134.1775349134973
30
8.571369285607732e-14
 70
     32
  0
VERTEX
  8
MY3DLAYER
10
3.8857331196756313
20
133.62004985324668
30
8.571369285607732e-14
 70
     32
  0
VERTEX
  8
MY3DLAYER
10
4.393398282201779
20
133.0868324581537
30
8.571369285607732e-14
 70
     32
  0
VERTEX
  8
MY3DLAYER
10
45.71194077712572
20
91.76828996323009
30
5.062128579589533e-14
 70
     32
  0
VERTEX
  8
MY3DLAYER
10
46.00530869095696
20
91.45552294751045
30
5.1436451128940566e-14
 70
     32
  0
VERTEX
  8
MY3DLAYER
10
46.29111277389888
20
91.13582939868347
30
5.2269669099839275e-14
 70
     32
  0
VERTEX
  8
MY3DLAYER
10
46.56918953902583
20
90.80939218927816
30
5.312046308753348e-14
 70
     32
  0
VERTEX
  8
MY3DLAYER
10
46.83937991962699
20
90.47639804936203
30
5.3988346417053456e-14
 70
     32
  0
VERTEX
  8
MY3DLAYER
10
47.10152936019641
20
90.13703745972765
30
5.487282263790834e-14
 70
     32
  0
VERTEX
  8
MY3DLAYER
10
47.35548790484246
20
89.79150454293223
30
5.577338580806721e-14
 70
     32
  0
VERTEX
  8
MY3DLAYER
10
47.60111028306629
20
89.43999695225524
30
5.668952078337091e-14
 70
     32
  0
VERTEX
  8
MY3DLAYER
10
47.83825599286017
20
89.08271575863574
30
5.762070351220683e-14
 70
     32
  0
VERTEX
  8
MY3DLAYER
10
48.066789381077996
20
88.71986533565473
30
5.856640133527942e-14
 70
     32
  0
VERTEX
  8
MY3DLAYER
10
48.286579721032275
20
88.35165324262867
30
5.952607329030408e-14
 70
     32
  0
VERTEX
  8
MY3DLAYER
10
48.49750128727296
20
87.97829010588048
30
6.049917042145096e-14
 70
     32
  0
VERTEX
  8
MY3DLAYER
10
48.699433427505454
20
87.59998949825615
30
6.148513609336115e-14
 70
     32
  0
VERTEX
  8
MY3DLAYER
10
48.89226063160671
20
87.21696781695556
30
6.248340630955568e-14
 70
     32
  0
VERTEX
  8
MY3DLAYER
10
49.07587259769987
20
86.82944415974823
30
6.34934100350553e-14
 70
     32
  0
VERTEX
  8
MY3DLAYER
10
49.25016429524954
20
86.4376401996443
30
6.451456952302659e-14
 70
     32
  0
VERTEX
  8
MY3DLAYER
10
49.41503602514191
20
86.04178005809169
30
6.55463006452669e-14
 70
     32
  0
VERTEX
  8
MY3DLAYER
10
49.5703934767151
20
85.64209017677294
30
6.658801322634047e-14
 70
     32
  0
VERTEX
  8
MY3DLAYER
10
49.71614778170703
20
85.23879918807594
30
6.76391113811727e-14
 70
     32
  0
VERTEX
  8
MY3DLAYER
10
49.85221556509048
20
84.83213778430995
30
6.869899385591158e-14
 70
     32
  0
VERTEX
  8
MY3DLAYER
10
49.9785189927654
20
84.42233858574384
30
6.97670543718589e-14
 70
     32
  0
VERTEX
  8
MY3DLAYER
10
50.09498581608202
20
84.0096360075421
30
7.084268197227712e-14
 70
     32
  0
VERTEX
  8
MY3DLAYER
10
50.20154941316889
20
83.59426612567314
30
7.192526137187127e-14
 70
     32
  0
VERTEX
  8
MY3DLAYER
10
50.29814882704218
20
83.17646654186875
30
7.301417330874707e-14
 70
     32
  0
VERTEX
  8
MY3DLAYER
10
50.38472880047449
20
82.75647624770913
30
7.410879489864434e-14
 70
     32
  0
VERTEX
  8
MY3DLAYER
10
50.46123980760347
20
82.33453548791458
30
7.520849999124132e-14
 70
     32
  0
VERTEX
  8
MY3DLAYER
10
50.5276380822618
20
81.91088562291966
30
7.631265952832872e-14
 70
     32
  0
VERTEX
  8
MY3DLAYER
10
50.58388564301235
20
81.4857689908085
30
7.742064190364596e-14
 70
     32
  0
VERTEX
  8
MY3DLAYER
10
50.62995031487464
20
81.05942876869244
30
7.853181332417532e-14
 70
     32
  0
VERTEX
  8
MY3DLAYER
10
50.665805747729856
20
80.63210883360554
30
7.964553817268741e-14
 70
     32
  0
VERTEX
  8
MY3DLAYER
10
50.69143143139333
20
80.20405362300225
30
8.076117937132969e-14
 70
     32
  0
VERTEX
  8
MY3DLAYER
10
50.706812707347325
20
79.77550799493224
30
8.187809874605003e-14
 70
     32
  0
VERTEX
  8
MY3DLAYER
10
50.711940777125754
20
79.34671708797623
30
8.29956573916489e-14
 70
     32
  0
VERTEX
  8
MY3DLAYER
10
50.706812707347325
20
78.9179261810202
30
8.411321603724767e-14
 70
     32
  0
VERTEX
  8
MY3DLAYER
10
50.69143143139333
20
78.4893805529502
30
8.52301354119681e-14
 70
     32
  0
VERTEX
  8
MY3DLAYER
10
50.665805747729856
20
78.06132534234692
30
8.63457766106103e-14
 70
     32
  0
VERTEX
  8
MY3DLAYER
10
50.62995031487469
20
77.63400540726002
30
8.745950145912247e-14
 70
     32
  0
VERTEX
  8
MY3DLAYER
10
50.58388564301235
20
77.20766518514388
30
8.857067287965183e-14
 70
     32
  0
VERTEX
  8
MY3DLAYER
10
50.5276380822618
20
76.7825485530328
30
8.967865525496898e-14
 70
     32
  0
VERTEX
  8
MY3DLAYER
10
50.46123980760351
20
76.35889868803778
30
9.078281479205639e-14
 70
     32
  0
VERTEX
  8
MY3DLAYER
10
50.384728800474534
20
75.93695792824333
30
9.188251988465344e-14
 70
     32
  0
VERTEX
  8
MY3DLAYER
10
50.29814882704218
20
75.51696763408371
30
9.297714147455064e-14
 70
     32
  0
VERTEX
  8
MY3DLAYER
10
50.20154941316894
20
75.09916805027922
30
9.406605341142651e-14
 70
     32
  0
VERTEX
  8
MY3DLAYER
10
50.094985816082065
20
74.68379816841036
30
9.514863281102066e-14
 70
     32
  0
VERTEX
  8
MY3DLAYER
10
49.97851899276545
20
74.27109559020852
30
9.62242604114389e-14
 70
     32
  0
VERTEX
  8
MY3DLAYER
10
49.852215565090525
20
73.86129639164251
30
9.72923209273862e-14
 70
     32
  0
VERTEX
  8
MY3DLAYER
10
49.71614778170707
20
73.45463498787642
30
9.835220340212501e-14
 70
     32
  0
VERTEX
  8
MY3DLAYER
10
49.57039347671514
20
73.05134399917942
30
9.940330155695732e-14
 70
     32
  0
VERTEX
  8
MY3DLAYER
10
49.41503602514195
20
72.65165411786077
30
1.0044501413803089e-13
 70
     32
  0
VERTEX
  8
MY3DLAYER
10
49.25016429524958
20
72.25579397630807
30
1.0147674526027119e-13
 70
     32
  0
VERTEX
  8
MY3DLAYER
10
49.07587259769996
20
71.86399001620413
30
1.0249790474824249e-13
 70
     32
  0
VERTEX
  8
MY3DLAYER
10
48.8922606316068
20
71.4764663589969
30
1.035079084737421e-13
 70
     32
  0
VERTEX
  8
MY3DLAYER
10
48.69943342750555
20
71.09344467769631
30
1.0450617868993671e-13
 70
     32
  0
VERTEX
  8
MY3DLAYER
10
48.49750128727305
20
70.71514407007189
30
1.054921443618469e-13
 70
     32
  0
VERTEX
  8
MY3DLAYER
10
48.28657972103236
20
70.34178093332379
30
1.0646524149299372e-13
 70
     32
  0
VERTEX
  8
MY3DLAYER
10
48.06678938107808
20
69.97356884029773
30
1.0742491344801837e-13
 70
     32
  0
VERTEX
  8
MY3DLAYER
10
47.83825599286026
20
69.61071841731662
30
1.0837061127109095e-13
 70
     32
  0
VERTEX
  8
MY3DLAYER
10
47.60111028306638
20
69.25343722369712
30
1.0930179399992696e-13
 70
     32
  0
VERTEX
  8
MY3DLAYER
10
47.355487904842555
20
68.90192963302013
30
1.1021792897523066e-13
 70
     32
  0
VERTEX
  8
MY3DLAYER
10
47.1015293601965
20
68.55639671622473
30
1.1111849214538953e-13
 70
     32
  0
VERTEX
  8
MY3DLAYER
10
46.83937991962708
20
68.21703612659041
30
1.1200296836624441e-13
 70
     32
  0
VERTEX
  8
MY3DLAYER
10
46.56918953902591
20
67.8840419866743
30
1.1287085169576438e-13
 70
     32
  0
VERTEX
  8
MY3DLAYER
10
46.29111277389897
20
67.55760477726889
30
1.1372164568345858e-13
 70
     32
  0
VERTEX
  8
MY3DLAYER
10
46.00530869095705
20
67.23791122844192
30
1.1455486365435739e-13
 70
     32
  0
VERTEX
  8
MY3DLAYER
10
45.711940777125804
20
66.92514421272237
30
1.1537002898740254e-13
 70
     32
  0
VERTEX
  8
MY3DLAYER
10
4.393398282201914
20
25.60660171779839
30
8.127687992569867e-14
 70
     32
  0
VERTEX
  8
MY3DLAYER
10
3.8857331196756766
20
25.073384322705426
30
8.127687992569867e-14
 70
     32
  0
VERTEX
  8
MY3DLAYER
10
3.4048431995590533
20
24.51589926245479
30
8.127687992569867e-14
 70
     32
  0
VERTEX
  8
MY3DLAYER
10
2.9518870277904496
20
23.935489567386604
30
8.127687992569867e-14
 70
     32
  0
VERTEX
  8
MY3DLAYER
10
2.527955815461938
20
23.333553495294158
30
8.127687992569867e-14
 70
     32
  0
VERTEX
  8
MY3DLAYER
10
2.134070849996061
20
22.711541162898445
30
8.127687992569867e-14
 70
     32
  0
VERTEX
  8
MY3DLAYER
10
1.7711810347747523
20
22.070951052390114
30
8.127687992569867e-14
 70
     32
  0
VERTEX
  8
MY3DLAYER
10
1.4401606031484393
20
21.413326401454395
30
8.127687992569867e-14
 70
     32
  0
VERTEX
  8
MY3DLAYER
10
1.141807012330814
20
20.740251485476534
30
8.127687992569867e-14
 70
     32
  0
VERTEX
  8
MY3DLAYER
10
0.8768390222547481
20
20.053347800883408
30
8.127687992569867e-14
 70
     32
  0
VERTEX
  8
MY3DLAYER
10
0.64589496401695
20
19.354270158817105
30
8.127687992569867e-14
 70
     32
  0
VERTEX
  8
MY3DLAYER
10
0.4495312020818858
20
18.644702698549136
30
8.127687992569867e-14
 70
     32
  0
VERTEX
  8
MY3DLAYER
10
0.28822079395161954
20
17.92635483024204
30
8.127687992569867e-14
 70
     32
  0
VERTEX
  8
MY3DLAYER
10
0.1623523505283373
20
17.200957116830626
30
8.127687992569867e-14
 70
     32
  0
VERTEX
  8
MY3DLAYER
10
0.07222909991710331
20
16.470257104943613
30
8.127687992569867e-14
 70
     32
  0
VERTEX
  8
MY3DLAYER
10
0.018068156922476673
20
15.736015114911433
30
8.127687992569867e-14
 70
     32
  0
VERTEX
  8
MY3DLAYER
10
9.023892744153272e-14
20
15.000000000000199
30
8.127687992569867e-14
 70
     32
  0
VERTEX
  8
MY3DLAYER
10
0.018068156922476673
20
14.263984885088963
30
8.127687992569867e-14
 70
     32
  0
VERTEX
  8
MY3DLAYER
10
0.07222909991714843
20
13.529742895056783
30
8.127687992569867e-14
 70
     32
  0
VERTEX
  8
MY3DLAYER
10
0.1623523505283373
20
12.79904288316977
30
8.127687992569867e-14
 70
     32
  0
VERTEX
  8
MY3DLAYER
10
0.28822079395157446
20
12.073645169758265
30
8.127687992569867e-14
 70
     32
  0
VERTEX
  8
MY3DLAYER
10
0.4495312020818858
20
11.35529730145126
30
8.127687992569867e-14
 70
     32
  0
VERTEX
  8
MY3DLAYER
10
0.6458949640168598
20
10.6457298411832
30
8.127687992569867e-14
 70
     32
  0
VERTEX
  8
MY3DLAYER
10
0.8768390222547029
20
9.9466521991169
30
8.127687992569867e-14
 70
     32
  0
VERTEX
  8
MY3DLAYER
10
1.1418070123307238
20
9.259748514523864
30
8.127687992569867e-14
 70
     32
  0
VERTEX
  8
MY3DLAYER
10
1.4401606031483942
20
8.586673598546003
30
8.127687992569867e-14
 70
     32
  0
VERTEX
  8
MY3DLAYER
10
1.771181034774662
20
7.929048947610191
30
8.127687992569867e-14
 70
     32
  0
VERTEX
  8
MY3DLAYER
10
2.134070849995926
20
7.288458837101862
30
8.127687992569867e-14
 70
     32
  0
VERTEX
  8
MY3DLAYER
10
2.5279558154618478
20
6.6664465047061485
30
8.127687992569867e-14
 70
     32
  0
VERTEX
  8
MY3DLAYER
10
2.9518870277903595
20
6.064510432613702
30
8.127687992569867e-14
 70
     32
  0
VERTEX
  8
MY3DLAYER
10
3.4048431995589183
20
5.484100737545423
30
8.127687992569867e-14
 70
     32
  0
VERTEX
  8
MY3DLAYER
10
3.8857331196755864
20
4.926615677294791
30
8.127687992569867e-14
 70
     32
  0
VERTEX
  8
MY3DLAYER
10
4.3933982822017335
20
4.393398282201914
30
8.127687992569867e-14
 70
     32
  0
VERTEX
  8
MY3DLAYER
10
4.926615677294656
20
3.8857331196756766
30
8.127687992569867e-14
 70
     32
  0
VERTEX
  8
MY3DLAYER
10
5.484100737545288
20
3.4048431995590986
30
8.127687992569867e-14
 70
     32
  0
VERTEX
  8
MY3DLAYER
10
6.064510432613476
20
2.95188702779054
30
8.127687992569867e-14
 70
     32
  0
VERTEX
  8
MY3DLAYER
10
6.666446504705968
20
2.527955815461938
30
8.127687992569867e-14
 70
     32
  0
VERTEX
  8
MY3DLAYER
10
7.288458837101682
20
2.134070849996061
30
8.127687992569867e-14
 70
     32
  0
VERTEX
  8
MY3DLAYER
10
7.92904894761001
20
1.7711810347747523
30
8.127687992569867e-14
 70
     32
  0
VERTEX
  8
MY3DLAYER
10
8.586673598545731
20
1.4401606031483942
30
8.127687992569867e-14
 70
     32
  0
VERTEX
  8
MY3DLAYER
10
9.259748514523592
20
1.141807012330814
30
8.127687992569867e-14
 70
     32
  0
VERTEX
  8
MY3DLAYER
10
9.946652199116674
20
0.8768390222548383
30
8.127687992569867e-14
 70
     32
  0
VERTEX
  8
MY3DLAYER
10
10.64572984118302
20
0.64589496401695
30
8.127687992569867e-14
 70
     32
  0
VERTEX
  8
MY3DLAYER
10
11.355297301451035
20
0.449531202081976
30
8.127687992569867e-14
 70
     32
  0
VERTEX
  8
MY3DLAYER
10
12.07364516975804
20
0.28822079395166467
30
8.127687992569867e-14
 70
     32
  0
VERTEX
  8
MY3DLAYER
10
12.799042883169545
20
0.16235235052842753
30
8.127687992569867e-14
 70
     32
  0
VERTEX
  8
MY3DLAYER
10
13.529742895056513
20
0.07222909991714843
30
8.127687992569867e-14
 70
     32
  0
VERTEX
  8
MY3DLAYER
10
14.263984885088647
20
0.018068156922476673
30
8.127687992569867e-14
 70
     32
  0
VERTEX
  8
MY3DLAYER
10
14.999999999999973
20
9.023892744153272e-14
30
8.127687992569867e-14
 70
     32
  0
VERTEX
  8
MY3DLAYER
10
15.736015114911208
20
0.018068156922476673
30
8.127687992569867e-14
 70
     32
  0
VERTEX
  8
MY3DLAYER
10
16.470257104943343
20
0.07222909991714843
30
8.127687992569867e-14
 70
     32
  0
VERTEX
  8
MY3DLAYER
10
17.200957116830402
20
0.1623523505283373
30
8.127687992569867e-14
 70
     32
  0
VERTEX
  8
MY3DLAYER
10
17.926354830241863
20
0.28822079395157446
30
8.127687992569867e-14
 70
     32
  0
VERTEX
  8
MY3DLAYER
10
18.644702698548908
20
0.4495312020818858
30
8.127687992569867e-14
 70
     32
  0
VERTEX
  8
MY3DLAYER
10
19.35427015881688
20
0.6458949640168598
30
8.127687992569867e-14
 70
     32
  0
VERTEX
  8
MY3DLAYER
10
20.053347800883316
20
0.8768390222547481
30
8.127687992569867e-14
 70
     32
  0
VERTEX
  8
MY3DLAYER
10
20.740251485476353
20
1.1418070123307238
30
8.127687992569867e-14
 70
     32
  0
VERTEX
  8
MY3DLAYER
10
21.413326401454214
20
1.4401606031483942
30
8.127687992569867e-14
 70
     32
  0
VERTEX
  8
MY3DLAYER
10
22.070951052389933
20
1.7711810347747523
30
8.127687992569867e-14
 70
     32
  0
VERTEX
  8
MY3DLAYER
10
22.71154116289831
20
2.134070849995971
30
8.127687992569867e-14
 70
     32
  0
VERTEX
  8
MY3DLAYER
10
23.333553495294023
20
2.5279558154618478
30
8.127687992569867e-14
 70
     32
  0
VERTEX
  8
MY3DLAYER
10
23.935489567386515
20
2.9518870277903595
30
8.127687992569867e-14
 70
     32
  0
VERTEX
  8
MY3DLAYER
10
24.515899262454656
20
3.4048431995589183
30
8.127687992569867e-14
 70
     32
  0
VERTEX
  8
MY3DLAYER
10
25.07338432270529
20
3.8857331196756766
30
8.127687992569867e-14
 70
     32
  0
VERTEX
  8
MY3DLAYER
10
25.606601717798213
20
4.3933982822017335
30
8.127687992569867e-14
 70
     32
  0
VERTEX
  8
MY3DLAYER
10
66.9251442127221
20
45.711940777125804
30
1.1537002898740254e-13
 70
     32
  0
VERTEX
  8
MY3DLAYER
10
67.23791122844173
20
46.00530869095701
30
1.1441524770798891e-13
 70
     32
  0
VERTEX
  8
MY3DLAYER
10
67.55760477726866
20
46.29111277389897
30
1.1343932185830493e-13
 70
     32
  0
VERTEX
  8
MY3DLAYER
10
67.88404198667408
20
46.56918953902583
30
1.124428096918056e-13
 70
     32
  0
VERTEX
  8
MY3DLAYER
10
68.21703612659014
20
46.83937991962713
30
1.1142628123782274e-13
 70
     32
  0
VERTEX
  8
MY3DLAYER
10
68.5563967162245
20
47.1015293601965
30
1.1039031797549423e-13
 70
     32
  0
VERTEX
  8
MY3DLAYER
10
68.90192963301986
20
47.355487904842505
30
1.0933551250114347e-13
 70
     32
  0
VERTEX
  8
MY3DLAYER
10
69.2534372236968
20
47.60111028306633
30
1.082624681893002e-13
 70
     32
  0
VERTEX
  8
MY3DLAYER
10
69.61071841731635
20
47.83825599286021
30
1.0717179884755513e-13
 70
     32
  0
VERTEX
  8
MY3DLAYER
10
69.97356884029742
20
48.06678938107808
30
1.0606412836544715e-13
 70
     32
  0
VERTEX
  8
MY3DLAYER
10
70.34178093332348
20
48.28657972103232
30
1.0494009035758337e-13
 70
     32
  0
VERTEX
  8
MY3DLAYER
10
70.71514407007162
20
48.497501287273
30
1.0380032780119588e-13
 70
     32
  0
VERTEX
  8
MY3DLAYER
10
71.09344467769598
20
48.6994334275055
30
1.0264549266834305e-13
 70
     32
  0
VERTEX
  8
MY3DLAYER
10
71.47646635899657
20
48.89226063160675
30
1.0147624555296571e-13
 70
     32
  0
VERTEX
  8
MY3DLAYER
10
71.86399001620376
20
49.07587259769992
30
1.002932552930112e-13
 70
     32
  0
VERTEX
  8
MY3DLAYER
10
72.2557939763077
20
49.25016429524954
30
9.909719858784167e-14
 70
     32
  0
VERTEX
  8
MY3DLAYER
10
72.6516541178604
20
49.41503602514195
30
9.788875961114534e-14
 70
     32
  0
VERTEX
  8
MY3DLAYER
10
73.05134399917911
20
49.5703934767151
30
9.666862961957294e-14
 70
     32
  0
VERTEX
  8
MY3DLAYER
10
73.454634987876
20
49.71614778170712
30
9.543750655732128e-14
 70
     32
  0
VERTEX
  8
MY3DLAYER
10
73.86129639164206
20
49.85221556509043
30
9.419609465689267e-14
 70
     32
  0
VERTEX
  8
MY3DLAYER
10
74.27109559020816
20
49.9785189927654
30
9.294510403625651e-14
 70
     32
  0
VERTEX
  8
MY3DLAYER
10
74.68379816840991
20
50.094985816082065
30
9.16852502926443e-14
 70
     32
  0
VERTEX
  8
MY3DLAYER
10
75.09916805027876
20
50.20154941316894
30
9.04172540932108e-14
 70
     32
  0
VERTEX
  8
MY3DLAYER
10
75.51696763408326
20
50.29814882704218
30
8.914184076279459e-14
 70
     32
  0
VERTEX
  8
MY3DLAYER
10
75.93695792824288
20
50.38472880047445
30
8.785973986901448e-14
 70
     32
  0
VERTEX
  8
MY3DLAYER
10
76.35889868803739
20
50.46123980760342
30
8.657168480493932e-14
 70
     32
  0
VERTEX
  8
MY3DLAYER
10
76.78254855303234
20
50.5276380822618
30
8.527841236956877e-14
 70
     32
  0
VERTEX
  8
MY3DLAYER
10
77.20766518514343
20
50.58388564301226
30
8.398066234636658e-14
 70
     32
  0
VERTEX
  8
MY3DLAYER
10
77.63400540725956
20
50.62995031487464
30
8.26791770800862e-14
 70
     32
  0
VERTEX
  8
MY3DLAYER
10
78.06132534234642
20
50.665805747729856
30
8.137470105213164e-14
 70
     32
  0
VERTEX
  8
MY3DLAYER
10
78.4893805529497
20
50.69143143139333
30
8.00679804546954e-14
 70
     32
  0
VERTEX
  8
MY3DLAYER
10
78.91792618101967
20
50.70681270734723
30
7.875976276391903e-14
 70
     32
  0
VERTEX
  8
MY3DLAYER
10
79.34671708797569
20
50.711940777125754
30
7.745079631231774e-14
 70
     32
  0
VERTEX
  8
MY3DLAYER
10
79.77550799493176
20
50.70681270734723
30
7.614182986071654e-14
 70
     32
  0
VERTEX
  8
MY3DLAYER
10
80.20405362300171
20
50.69143143139333
30
7.483361216994009e-14
 70
     32
  0
VERTEX
  8
MY3DLAYER
10
80.63210883360499
20
50.665805747729856
30
7.352689157250393e-14
 70
     32
  0
VERTEX
  8
MY3DLAYER
10
81.05942876869182
20
50.62995031487464
30
7.222241554454937e-14
 70
     32
  0
VERTEX
  8
MY3DLAYER
10
81.485768990808
20
50.58388564301226
30
7.092093027826898e-14
 70
     32
  0
VERTEX
  8
MY3DLAYER
10
81.91088562291908
20
50.5276380822618
30
6.96231802550668e-14
 70
     32
  0
VERTEX
  8
MY3DLAYER
10
82.33453548791404
20
50.46123980760342
30
6.832990781969625e-14
 70
     32
  0
VERTEX
  8
MY3DLAYER
10
82.75647624770849
20
50.38472880047445
30
6.704185275562108e-14
 70
     32
  0
VERTEX
  8
MY3DLAYER
10
83.17646654186815
20
50.29814882704218
30
6.575975186184098e-14
 70
     32
  0
VERTEX
  8
MY3DLAYER
10
83.5942661256726
20
50.20154941316885
30
6.448433853142475e-14
 70
     32
  0
VERTEX
  8
MY3DLAYER
10
84.00963600754146
20
50.09498581608197
30
6.321634233199125e-14
 70
     32
  0
VERTEX
  8
MY3DLAYER
10
84.42233858574326
20
49.9785189927654
30
6.195648858837906e-14
 70
     32
  0
VERTEX
  8
MY3DLAYER
10
84.83213778430932
20
49.85221556509043
30
6.07054979677429e-14
 70
     32
  0
VERTEX
  8
MY3DLAYER
10
85.23879918807536
20
49.71614778170703
30
5.946408606731429e-14
 70
     32
  0
VERTEX
  8
MY3DLAYER
10
85.64209017677231
20
49.570393476715005
30
5.823296300506263e-14
 70
     32
  0
VERTEX
  8
MY3DLAYER
10
86.04178005809096
20
49.415036025141866
30
5.701283301349023e-14
 70
     32
  0
VERTEX
  8
MY3DLAYER
10
86.43764019964371
20
49.25016429524954
30
5.58043940367939e-14
 70
     32
  0
VERTEX
  8
MY3DLAYER
10
86.82944415974761
20
49.07587259769983
30
5.4608337331624373e-14
 70
     32
  0
VERTEX
  8
MY3DLAYER
10
87.21696781695483
20
48.89226063160675
30
5.3425347071669854e-14
 70
     32
  0
VERTEX
  8
MY3DLAYER
10
87.59998949825543
20
48.69943342750541
30
5.225609995629251e-14
 70
     32
  0
VERTEX
  8
MY3DLAYER
10
87.97829010587981
20
48.497501287273
30
5.110126482343976e-14
 70
     32
  0
VERTEX
  8
MY3DLAYER
10
88.35165324262795
20
48.286579721032226
30
4.9961502267052196e-14
 70
     32
  0
VERTEX
  8
MY3DLAYER
10
88.719865335654
20
48.0667893810779
30
4.88374642591885e-14
 70
     32
  0
VERTEX
  8
MY3DLAYER
10
89.08271575863502
20
47.83825599286013
30
4.7729793777080525e-14
 70
     32
  0
VERTEX
  8
MY3DLAYER
10
89.43999695225457
20
47.60111028306625
30
4.663912443533545e-14
 70
     32
  0
VERTEX
  8
MY3DLAYER
10
89.79150454293156
20
47.35548790484242
30
4.556608012349209e-14
 70
     32
  0
VERTEX
  8
MY3DLAYER
10
90.13703745972693
20
47.10152936019641
30
4.451127464914141e-14
 70
     32
  0
VERTEX
  8
MY3DLAYER
10
90.47639804936126
20
46.83937991962694
30
4.3475311386812827e-14
 70
     32
  0
VERTEX
  8
MY3DLAYER
10
90.80939218927735
20
46.56918953902583
30
4.245878293283005e-14
 70
     32
  0
VERTEX
  8
MY3DLAYER
10
91.1358293986827
20
46.29111277389879
30
4.146227076633071e-14
 70
     32
  0
VERTEX
  8
MY3DLAYER
10
91.45552294750968
20
46.005308690956916
30
4.048634491664673e-14
 70
     32
  0
VERTEX
  8
MY3DLAYER
10
91.76828996322926
20
45.711940777125626
30
3.9531563637233186e-14
 70
     32
  0
SEQEND
  0
POLYLINE
 8
Layer0
 66
     1
70
    8
 10
0.0
 20
 0.0
 30
0.0
  0
VERTEX
  8
MY3DLAYER
10
153.99835623195077
20
15.721798591697288
30
1.0358403020173314e-14
 70
     32
  0
VERTEX
  8
MY3DLAYER
10
154.14820686570775
20
15.360027159349816
30
1.0417343772989787e-14
 70
     32
  0
VERTEX
  8
MY3DLAYER
10
154.19931812627271
20
14.971798591695203
30
1.0526649552765096e-14
 70
     32
  0
VERTEX
  8
MY3DLAYER
10
154.1482068657073
20
14.583570024043567
30
1.0678871351241593e-14
 70
     32
  0
VERTEX
  8
MY3DLAYER
10
153.99835623194957
20
14.221798591696727
30
1.0863635504415082e-14
 70
     32
  0
VERTEX
  8
MY3DLAYER
10
153.75997829805297
20
13.911138419917839
30
1.1068350640581379e-14
 70
     32
  0
VERTEX
  8
MY3DLAYER
10
153.44931812627362
20
13.672760486019794
30
1.1279065761520146e-14
 70
     32
  0
VERTEX
  8
MY3DLAYER
10
153.0875466939277
20
13.522909852262774
30
1.1481420979961537e-14
 70
     32
  0
VERTEX
  8
MY3DLAYER
10
152.69931812627416
20
13.471798591696537
30
1.166162612217695e-14
 70
     32
  0
VERTEX
  8
MY3DLAYER
10
151.1993181262729
20
13.471798591696176
30
1.229137020734944e-14
 70
     32
  0
VERTEX
  8
MY3DLAYER
10
150.81108955862155
20
13.522909852262684
30
1.2437144590699103e-14
 70
     32
  0
VERTEX
  8
MY3DLAYER
10
150.44931812627402
20
13.672760486021147
30
1.2538553931863204e-14
 70
     32
  0
VERTEX
  8
MY3DLAYER
10
150.13865795449414
20
13.911138419916213
30
1.2588687351827776e-14
 70
     32
  0
VERTEX
  8
MY3DLAYER
10
149.90028002059705
20
14.221798591697178
30
1.2584128340870101e-14
 70
     32
  0
VERTEX
  8
MY3DLAYER
10
149.75042938683873
20
14.583570024042485
30
1.252518758805499e-14
 70
     32
  0
VERTEX
  8
MY3DLAYER
10
149.69931812627294
20
14.971798591696196
30
1.2415881808280243e-14
 70
     32
  0
VERTEX
  8
MY3DLAYER
10
149.7504293868398
20
15.360027159350539
30
1.2263660009802304e-14
 70
     32
  0
VERTEX
  8
MY3DLAYER
10
149.90028002059628
20
15.721798591696386
30
1.2078895856629616e-14
 70
     32
  0
VERTEX
  8
MY3DLAYER
10
150.13865795449428
20
16.032458763475365
30
1.1874180720462679e-14
 70
     32
  0
VERTEX
  8
MY3DLAYER
10
150.44931812627345
20
16.27083669737422
30
1.166346559952383e-14
 70
     32
  0
VERTEX
  8
MY3DLAYER
10
150.81108955862055
20
16.42068733113097
30
1.1461110381081959e-14
 70
     32
  0
VERTEX
  8
MY3DLAYER
10
151.1993181262739
20
16.471798591695133
30
1.1280905238867349e-14
 70
     32
  0
VERTEX
  8
MY3DLAYER
10
152.6993181262741
20
16.471798591696846
30
1.0651161153694777e-14
 70
     32
  0
VERTEX
  8
MY3DLAYER
10
153.087546693928
20
16.42068733113097
30
1.0505386770343831e-14
 70
     32
  0
VERTEX
  8
MY3DLAYER
10
153.44931812627323
20
16.27083669737296
30
1.040397742918061e-14
 70
     32
  0
VERTEX
  8
MY3DLAYER
10
153.75997829805297
20
16.03245876347636
30
1.03538440092166e-14
 70
     32
  0
VERTEX
  8
MY3DLAYER
10
153.99835623195077
20
15.721798591697288
30
1.0358403020173314e-14
 70
     32
  0
SEQEND
  0
POLYLINE
 8
Layer0
 66
     1
70
    8
 10
0.0
 20
 0.0
 30
0.0
  0
VERTEX
  8
MY3DLAYER
10
133.40028002059782
20
15.721798591696025
30
1.9006080793519556e-14
 70
     32
  0
VERTEX
  8
MY3DLAYER
10
133.6386579544931
20
16.03245876347735
30
1.880136565735302e-14
 70
     32
  0
VERTEX
  8
MY3DLAYER
10
133.94931812627294
20
16.27083669737296
30
1.8590650536414895e-14
 70
     32
  0
VERTEX
  8
MY3DLAYER
10
134.31108955861993
20
16.42068733113025
30
1.8388295317972942e-14
 70
     32
  0
VERTEX
  8
MY3DLAYER
10
134.69931812627374
20
16.47179859169739
30
1.820809017575713e-14
 70
     32
  0
VERTEX
  8
MY3DLAYER
10
136.1993181262731
20
16.471798591697297
30
1.757834609058552e-14
 70
     32
  0
VERTEX
  8
MY3DLAYER
10
136.58754669392792
20
16.42068733113097
30
1.7432571707234336e-14
 70
     32
  0
VERTEX
  8
MY3DLAYER
10
136.94931812627345
20
16.270836697371966
30
1.7331162366071275e-14
 70
     32
  0
VERTEX
  8
MY3DLAYER
10
137.25997829805323
20
16.032458763475997
30
1.7281028946107103e-14
 70
     32
  0
VERTEX
  8
MY3DLAYER
10
137.49835623195034
20
15.721798591697018
30
1.728558795706406e-14
 70
     32
  0
VERTEX
  8
MY3DLAYER
10
137.64820686570556
20
15.36002715935099
30
1.7344528709880774e-14
 70
     32
  0
VERTEX
  8
MY3DLAYER
10
137.6993181262729
20
14.971798591695654
30
1.745383448965536e-14
 70
     32
  0
VERTEX
  8
MY3DLAYER
10
137.64820686570687
20
14.583570024041041
30
1.7606056288133137e-14
 70
     32
  0
VERTEX
  8
MY3DLAYER
10
137.49835623195148
20
14.221798591696006
30
1.7790820441305025e-14
 70
     32
  0
VERTEX
  8
MY3DLAYER
10
137.2599782980528
20
13.911138419916034
30
1.7995535577472523e-14
 70
     32
  0
VERTEX
  8
MY3DLAYER
10
136.94931812627456
20
13.672760486019524
30
1.8206250698410248e-14
 70
     32
  0
VERTEX
  8
MY3DLAYER
10
136.5875466939276
20
13.522909852262323
30
1.8408605916852198e-14
 70
     32
  0
VERTEX
  8
MY3DLAYER
10
136.19931812627402
20
13.47179859169762
30
1.858881105906713e-14
 70
     32
  0
VERTEX
  8
MY3DLAYER
10
134.69931812627382
20
13.471798591696537
30
1.921855514423938e-14
 70
     32
  0
VERTEX
  8
MY3DLAYER
10
134.31108955862047
20
13.522909852262412
30
1.9364329527590166e-14
 70
     32
  0
VERTEX
  8
MY3DLAYER
10
133.94931812627354
20
13.672760486019975
30
1.946573886875427e-14
 70
     32
  0
VERTEX
  8
MY3DLAYER
10
133.63865795449388
20
13.911138419916936
30
1.9515872288718036e-14
 70
     32
  0
VERTEX
  8
MY3DLAYER
10
133.40028002059643
20
14.221798591696547
30
1.9511313277761005e-14
 70
     32
  0
VERTEX
  8
MY3DLAYER
10
133.2504293868391
20
14.583570024042395
30
1.9452372524945332e-14
 70
     32
  0
VERTEX
  8
MY3DLAYER
10
133.1993181262756
20
14.97179859169764
30
1.934306674516906e-14
 70
     32
  0
VERTEX
  8
MY3DLAYER
10
133.25042938683922
20
15.36002715935135
30
1.9190844946692646e-14
 70
     32
  0
VERTEX
  8
MY3DLAYER
10
133.40028002059782
20
15.721798591696025
30
1.9006080793519556e-14
 70
     32
  0
SEQEND
  0
POLYLINE
 8
Layer0
 66
     1
70
    8
 10
0.0
 20
 0.0
 30
0.0
  0
VERTEX
  8
MY3DLAYER
10
139.69961981574014
20
14.777633509310494
30
1.6679448055938735e-14
 70
     32
  0
VERTEX
  8
MY3DLAYER
10
139.7781530572355
20
15.818885682767723
30
1.6295761211513223e-14
 70
     32
  0
VERTEX
  8
MY3DLAYER
10
140.12350623666418
20
16.804332150217665
30
1.581885208559532e-14
 70
     32
  0
VERTEX
  8
MY3DLAYER
10
140.71214410556982
20
17.666816363428225
30
1.528122124698829e-14
 70
     32
  0
VERTEX
  8
MY3DLAYER
10
141.5039519659583
20
18.34756144859586
30
1.4719507348864105e-14
 70
     32
  0
VERTEX
  8
MY3DLAYER
10
142.4449694206661
20
18.80017575314629
30
1.4171990265106247e-14
 70
     32
  0
VERTEX
  8
MY3DLAYER
10
143.4710676852613
20
18.993814360208926
30
1.3675982380156126e-14
 70
     32
  0
VERTEX
  8
MY3DLAYER
10
144.5123198587192
20
18.915281118713292
30
1.3265285811682006e-14
 70
     32
  0
VERTEX
  8
MY3DLAYER
10
145.49776632616766
20
18.56992793928376
30
1.2967888852118382e-14
 70
     32
  0
VERTEX
  8
MY3DLAYER
10
146.36025053937917
20
17.981290070379128
30
1.2804058612785717e-14
 70
     32
  0
VERTEX
  8
MY3DLAYER
10
147.04099562454547
20
17.18948220999164
30
1.2784959853753659e-14
 70
     32
  0
VERTEX
  8
MY3DLAYER
10
147.49360992909834
20
16.248464755283187
30
1.2911894123887131e-14
 70
     32
  0
VERTEX
  8
MY3DLAYER
10
147.68724853615905
20
15.222366490687646
30
1.3176211062446888e-14
 70
     32
  0
VERTEX
  8
MY3DLAYER
10
147.608715294663
20
14.181114317230598
30
1.3559897906872642e-14
 70
     32
  0
VERTEX
  8
MY3DLAYER
10
147.26336211523483
20
13.195667849780927
30
1.4036807032790146e-14
 70
     32
  0
VERTEX
  8
MY3DLAYER
10
146.67472424632834
20
12.333183636569734
30
1.4574437871397737e-14
 70
     32
  0
VERTEX
  8
MY3DLAYER
10
145.88291638594166
20
11.652438551402188
30
1.51361517695212e-14
 70
     32
  0
VERTEX
  8
MY3DLAYER
10
144.94189893123317
20
11.199824246851216
30
1.5683668853279537e-14
 70
     32
  0
VERTEX
  8
MY3DLAYER
10
143.91580066663786
20
11.00618563979057
30
1.6179676738229018e-14
 70
     32
  0
VERTEX
  8
MY3DLAYER
10
142.8745484931813
20
11.084718881285482
30
1.6590373306702737e-14
 70
     32
  0
VERTEX
  8
MY3DLAYER
10
141.88910202573186
20
11.430072060714108
30
1.6887770266267082e-14
 70
     32
  0
VERTEX
  8
MY3DLAYER
10
141.02661781251985
20
12.018709929621087
30
1.7051600505599265e-14
 70
     32
  0
VERTEX
  8
MY3DLAYER
10
140.3458727273534
20
12.810517790007586
30
1.7070699264631725e-14
 70
     32
  0
VERTEX
  8
MY3DLAYER
10
139.89325842280292
20
13.751535244715043
30
1.6943764994497612e-14
 70
     32
  0
VERTEX
  8
MY3DLAYER
10
139.69961981574014
20
14.777633509310494
30
1.6679448055938735e-14
 70
     32
  0
SEQEND
  0
POLYLINE
 8
Layer0
 66
     1
70
    8
 10
0.0
 20
 0.0
 30
0.0
  0
VERTEX
  8
MY3DLAYER
10
4.69507794400055
20
142.97163558425498
30
8.925996399153192e-14
 70
     32
  0
VERTEX
  8
MY3DLAYER
10
4.545227310243621
20
143.33340701660237
30
8.920102323871553e-14
 70
     32
  0
VERTEX
  8
MY3DLAYER
10
4.494116049678602
20
143.7216355842571
30
8.909171745894014e-14
 70
     32
  0
VERTEX
  8
MY3DLAYER
10
4.545227310244027
20
144.1098641519087
30
8.893949566046364e-14
 70
     32
  0
VERTEX
  8
MY3DLAYER
10
4.695077944001813
20
144.47163558425555
30
8.875473150729016e-14
 70
     32
  0
VERTEX
  8
MY3DLAYER
10
4.933455877898414
20
144.78229575603444
30
8.855001637112386e-14
 70
     32
  0
VERTEX
  8
MY3DLAYER
10
5.244116049677754
20
145.02067368993238
30
8.833930125018516e-14
 70
     32
  0
VERTEX
  8
MY3DLAYER
10
5.605887482023692
20
145.17052432368942
30
8.81369460317437e-14
 70
     32
  0
VERTEX
  8
MY3DLAYER
10
5.994116049677222
20
145.22163558425575
30
8.795674088952828e-14
 70
     32
  0
VERTEX
  8
MY3DLAYER
10
7.494116049678506
20
145.22163558425592
30
8.732699680435579e-14
 70
     32
  0
VERTEX
  8
MY3DLAYER
10
7.882344617329825
20
145.17052432368942
30
8.718122242100614e-14
 70
     32
  0
VERTEX
  8
MY3DLAYER
10
8.244116049677343
20
145.02067368993104
30
8.707981307984211e-14
 70
     32
  0
VERTEX
  8
MY3DLAYER
10
8.554776221457224
20
144.78229575603606
30
8.702967965987754e-14
 70
     32
  0
VERTEX
  8
MY3DLAYER
10
8.793154155354276
20
144.471635584255
30
8.703423867083521e-14
 70
     32
  0
VERTEX
  8
MY3DLAYER
10
8.94300478911265
20
144.10986415190962
30
8.709317942365033e-14
 70
     32
  0
VERTEX
  8
MY3DLAYER
10
8.994116049678391
20
143.7216355842559
30
8.7202485203425e-14
 70
     32
  0
VERTEX
  8
MY3DLAYER
10
8.943004789111567
20
143.33340701660165
30
8.735470700190302e-14
 70
     32
  0
VERTEX
  8
MY3DLAYER
10
8.793154155355088
20
142.9716355842558
30
8.75394711550757e-14
 70
     32
  0
VERTEX
  8
MY3DLAYER
10
8.554776221457043
20
142.66097541247683
30
8.774418629124264e-14
 70
     32
  0
VERTEX
  8
MY3DLAYER
10
8.244116049677885
20
142.42259747857804
30
8.795490141218149e-14
 70
     32
  0
VERTEX
  8
MY3DLAYER
10
7.882344617330773
20
142.2727468448213
30
8.815725663062336e-14
 70
     32
  0
VERTEX
  8
MY3DLAYER
10
7.494116049677423
20
142.22163558425714
30
8.833746177283797e-14
 70
     32
  0
VERTEX
  8
MY3DLAYER
10
5.994116049677222
20
142.22163558425535
30
8.896720585801054e-14
 70
     32
  0
VERTEX
  8
MY3DLAYER
10
5.6058874820233315
20
142.2727468448213
30
8.91129802413614e-14
 70
     32
  0
VERTEX
  8
MY3DLAYER
10
5.244116049678115
20
142.42259747857932
30
8.921438958252471e-14
 70
     32
  0
VERTEX
  8
MY3DLAYER
10
4.933455877898369
20
142.66097541247592
30
8.926452300248864e-14
 70
     32
  0
VERTEX
  8
MY3DLAYER
10
4.69507794400055
20
142.97163558425498
30
8.925996399153192e-14
 70
     32
  0
SEQEND
  0
POLYLINE
 8
Layer0
 66
     1
70
    8
 10
0.0
 20
 0.0
 30
0.0
  0
VERTEX
  8
MY3DLAYER
10
25.293154155353502
20
142.9716355842558
30
8.061228621818581e-14
 70
     32
  0
VERTEX
  8
MY3DLAYER
10
25.05477622145821
20
142.66097541247456
30
8.081700135435244e-14
 70
     32
  0
VERTEX
  8
MY3DLAYER
10
24.74411604967837
20
142.42259747857895
30
8.102771647529048e-14
 70
     32
  0
VERTEX
  8
MY3DLAYER
10
24.3823446173314
20
142.27274684482165
30
8.123007169373244e-14
 70
     32
  0
VERTEX
  8
MY3DLAYER
10
23.99411604967755
20
142.22163558425453
30
8.141027683594833e-14
 70
     32
  0
VERTEX
  8
MY3DLAYER
10
22.494116049678208
20
142.2216355842546
30
8.204002092111985e-14
 70
     32
  0
VERTEX
  8
MY3DLAYER
10
22.105887482023412
20
142.27274684482094
30
8.218579530447096e-14
 70
     32
  0
VERTEX
  8
MY3DLAYER
10
21.74411604967788
20
142.42259747858003
30
8.228720464563403e-14
 70
     32
  0
VERTEX
  8
MY3DLAYER
10
21.43345587789809
20
142.660975412476
30
8.23373380655982e-14
 70
     32
  0
VERTEX
  8
MY3DLAYER
10
21.195077944000992
20
142.97163558425498
30
8.233277905464131e-14
 70
     32
  0
VERTEX
  8
MY3DLAYER
10
21.045227310245824
20
143.33340701660103
30
8.227383830182452e-14
 70
     32
  0
VERTEX
  8
MY3DLAYER
10
20.994116049678414
20
143.72163558425626
30
8.216453252205001e-14
 70
     32
  0
VERTEX
  8
MY3DLAYER
10
21.04522731024447
20
144.10986415191095
30
8.201231072357224e-14
 70
     32
  0
VERTEX
  8
MY3DLAYER
10
21.195077943999866
20
144.471635584256
30
8.182754657040036e-14
 70
     32
  0
VERTEX
  8
MY3DLAYER
10
21.433455877898588
20
144.7822957560359
30
8.162283143423285e-14
 70
     32
  0
VERTEX
  8
MY3DLAYER
10
21.744116049676798
20
145.02067368993238
30
8.141211631329513e-14
 70
     32
  0
VERTEX
  8
MY3DLAYER
10
22.10588748202382
20
145.1705243236896
30
8.12097610948531e-14
 70
     32
  0
VERTEX
  8
MY3DLAYER
10
22.494116049677352
20
145.2216355842543
30
8.102955595263824e-14
 70
     32
  0
VERTEX
  8
MY3DLAYER
10
23.99411604967755
20
145.22163558425538
30
8.039981186746591e-14
 70
     32
  0
VERTEX
  8
MY3DLAYER
10
24.3823446173309
20
145.17052432368942
30
8.025403748411521e-14
 70
     32
  0
VERTEX
  8
MY3DLAYER
10
24.74411604967783
20
145.02067368993195
30
8.015262814295111e-14
 70
     32
  0
VERTEX
  8
MY3DLAYER
10
25.054776221457534
20
144.78229575603498
30
8.010249472298726e-14
 70
     32
  0
VERTEX
  8
MY3DLAYER
10
25.293154155354944
20
144.47163558425538
30
8.010705373394429e-14
 70
     32
  0
VERTEX
  8
MY3DLAYER
10
25.443004789112237
20
144.10986415190942
30
8.016599448676012e-14
 70
     32
  0
VERTEX
  8
MY3DLAYER
10
25.49411604967572
20
143.72163558425427
30
8.027530026653623e-14
 70
     32
  0
VERTEX
  8
MY3DLAYER
10
25.443004789112102
20
143.33340701660046
30
8.042752206501274e-14
 70
     32
  0
VERTEX
  8
MY3DLAYER
10
25.293154155353502
20
142.9716355842558
30
8.061228621818581e-14
 70
     32
  0
SEQEND
  0
POLYLINE
 8
Layer0
 66
     1
70
    8
 10
0.0
 20
 0.0
 30
0.0
  0
VERTEX
  8
MY3DLAYER
10
18.993814360211225
20
143.9158006666415
30
8.293891895576656e-14
 70
     32
  0
VERTEX
  8
MY3DLAYER
10
18.915281118715818
20
142.87454849318428
30
8.332260580019215e-14
 70
     32
  0
VERTEX
  8
MY3DLAYER
10
18.569927939287144
20
141.88910202573433
30
8.379951492611e-14
 70
     32
  0
VERTEX
  8
MY3DLAYER
10
17.98129007038152
20
141.02661781252377
30
8.433714576471704e-14
 70
     32
  0
VERTEX
  8
MY3DLAYER
10
17.189482209993038
20
140.34587272735615
30
8.489885966284129e-14
 70
     32
  0
VERTEX
  8
MY3DLAYER
10
16.248464755285216
20
139.8932584228057
30
8.544637674659915e-14
 70
     32
  0
VERTEX
  8
MY3DLAYER
10
15.222366490689993
20
139.69961981574318
30
8.594238463154927e-14
 70
     32
  0
VERTEX
  8
MY3DLAYER
10
14.181114317232087
20
139.7781530572388
30
8.63530812000233e-14
 70
     32
  0
VERTEX
  8
MY3DLAYER
10
13.195667849783678
20
140.12350623666833
30
8.665047815958693e-14
 70
     32
  0
VERTEX
  8
MY3DLAYER
10
12.33318363657217
20
140.71214410557306
30
8.68143083989196e-14
 70
     32
  0
VERTEX
  8
MY3DLAYER
10
11.652438551405842
20
141.50395196596045
30
8.683340715795166e-14
 70
     32
  0
VERTEX
  8
MY3DLAYER
10
11.199824246852977
20
142.444969420669
30
8.670647288781819e-14
 70
     32
  0
VERTEX
  8
MY3DLAYER
10
11.006185639792283
20
143.47106768526453
30
8.644215594925843e-14
 70
     32
  0
VERTEX
  8
MY3DLAYER
10
11.084718881288325
20
144.5123198587215
30
8.605846910483268e-14
 70
     32
  0
VERTEX
  8
MY3DLAYER
10
11.430072060716544
20
145.49776632617127
30
8.558155997891517e-14
 70
     32
  0
VERTEX
  8
MY3DLAYER
10
12.018709929623073
20
146.36025053938246
30
8.50439291403075e-14
 70
     32
  0
VERTEX
  8
MY3DLAYER
10
12.81051779000975
20
147.0409956245499
30
8.448221524218404e-14
 70
     32
  0
VERTEX
  8
MY3DLAYER
10
13.751535244718248
20
147.49360992910087
30
8.393469815842578e-14
 70
     32
  0
VERTEX
  8
MY3DLAYER
10
14.777633509313562
20
147.68724853616152
30
8.34386902734762e-14
 70
     32
  0
VERTEX
  8
MY3DLAYER
10
15.818885682770114
20
147.6087152946666
30
8.302799370500256e-14
 70
     32
  0
VERTEX
  8
MY3DLAYER
10
16.80433215021956
20
147.2633621152378
30
8.273059674543821e-14
 70
     32
  0
VERTEX
  8
MY3DLAYER
10
17.666816363431565
20
146.67472424633092
30
8.256676650610603e-14
 70
     32
  0
VERTEX
  8
MY3DLAYER
10
18.347561448597983
20
145.88291638594433
30
8.254766774707358e-14
 70
     32
  0
VERTEX
  8
MY3DLAYER
10
18.80017575314846
20
144.94189893123706
30
8.267460201720776e-14
 70
     32
  0
VERTEX
  8
MY3DLAYER
10
18.993814360211225
20
143.9158006666415
30
8.293891895576656e-14
 70
     32
  0
SEQEND
  0
POLYLINE
 8
Layer0
 66
     1
70
    8
 10
0.0
 20
 0.0
 30
0.0
  0
VERTEX
  8
MY3DLAYER
10
143.91580066664096
20
139.69961981574065
30
2.657261888881755e-14
 70
     32
  0
VERTEX
  8
MY3DLAYER
10
142.8745484931837
20
139.778153057236
30
2.6983315457291426e-14
 70
     32
  0
VERTEX
  8
MY3DLAYER
10
141.88910202573385
20
140.12350623666472
30
2.728071241685593e-14
 70
     32
  0
VERTEX
  8
MY3DLAYER
10
141.02661781252323
20
140.71214410557036
30
2.7444542656187877e-14
 70
     32
  0
VERTEX
  8
MY3DLAYER
10
140.34587272735564
20
141.50395196595883
30
2.7463641415220173e-14
 70
     32
  0
VERTEX
  8
MY3DLAYER
10
139.89325842280522
20
142.44496942066667
30
2.7336707145085903e-14
 70
     32
  0
VERTEX
  8
MY3DLAYER
10
139.69961981574264
20
143.47106768526191
30
2.7072390206527026e-14
 70
     32
  0
VERTEX
  8
MY3DLAYER
10
139.77815305723834
20
144.5123198587198
30
2.6688703362101192e-14
 70
     32
  0
VERTEX
  8
MY3DLAYER
10
140.1235062366678
20
145.4977663261683
30
2.6211794236183448e-14
 70
     32
  0
VERTEX
  8
MY3DLAYER
10
140.71214410557252
20
146.36025053937973
30
2.5674163397576497e-14
 70
     32
  0
VERTEX
  8
MY3DLAYER
10
141.50395196595997
20
147.040995624546
30
2.5112449499453115e-14
 70
     32
  0
VERTEX
  8
MY3DLAYER
10
142.4449694206685
20
147.49360992909888
30
2.4564932415694135e-14
 70
     32
  0
VERTEX
  8
MY3DLAYER
10
143.47106768526405
20
147.68724853615964
30
2.4068924530744576e-14
 70
     32
  0
VERTEX
  8
MY3DLAYER
10
144.5123198587211
20
147.60871529466345
30
2.365822796227094e-14
 70
     32
  0
VERTEX
  8
MY3DLAYER
10
145.49776632617076
20
147.26336211523528
30
2.336083100270643e-14
 70
     32
  0
VERTEX
  8
MY3DLAYER
10
146.36025053938195
20
146.67472424632876
30
2.3197000763374487e-14
 70
     32
  0
VERTEX
  8
MY3DLAYER
10
147.04099562454942
20
145.88291638594208
30
2.317790200434163e-14
 70
     32
  0
VERTEX
  8
MY3DLAYER
10
147.4936099291004
20
144.94189893123354
30
2.33048362744759e-14
 70
     32
  0
VERTEX
  8
MY3DLAYER
10
147.68724853616104
20
143.91580066663826
30
2.356915321303566e-14
 70
     32
  0
VERTEX
  8
MY3DLAYER
10
147.60871529466604
20
142.87454849318166
30
2.3952840057460772e-14
 70
     32
  0
VERTEX
  8
MY3DLAYER
10
147.26336211523736
20
141.88910202573226
30
2.4429749183378433e-14
 70
     32
  0
VERTEX
  8
MY3DLAYER
10
146.6747242463304
20
141.02661781252027
30
2.4967380021986505e-14
 70
     32
  0
VERTEX
  8
MY3DLAYER
10
145.88291638594384
20
140.3458727273538
30
2.5529093920109568e-14
 70
     32
  0
VERTEX
  8
MY3DLAYER
10
144.94189893123647
20
139.89325842280337
30
2.6076611003867266e-14
 70
     32
  0
VERTEX
  8
MY3DLAYER
10
143.91580066664096
20
139.69961981574065
30
2.657261888881755e-14
 70
     32
  0
SEQEND
  0
POLYLINE
 8
Layer0
 66
     1
70
    8
 10
0.0
 20
 0.0
 30
0.0
  0
VERTEX
  8
MY3DLAYER
10
142.9716355842552
20
133.40028002059836
30
2.90907612020418e-14
 70
     32
  0
VERTEX
  8
MY3DLAYER
10
142.660975412474
20
133.63865795449362
30
2.914089462200685e-14
 70
     32
  0
VERTEX
  8
MY3DLAYER
10
142.42259747857833
20
133.9493181262734
30
2.913633561104902e-14
 70
     32
  0
VERTEX
  8
MY3DLAYER
10
142.27274684482109
20
134.31108955862044
30
2.907739485823286e-14
 70
     32
  0
VERTEX
  8
MY3DLAYER
10
142.22163558425393
20
134.6993181262743
30
2.896808907845868e-14
 70
     32
  0
VERTEX
  8
MY3DLAYER
10
142.22163558425407
20
136.19931812627362
30
2.846285659421779e-14
 70
     32
  0
VERTEX
  8
MY3DLAYER
10
142.27274684482046
20
136.5875466939284
30
2.8310634795739773e-14
 70
     32
  0
VERTEX
  8
MY3DLAYER
10
142.42259747857946
20
136.949318126274
30
2.8125870642566282e-14
 70
     32
  0
VERTEX
  8
MY3DLAYER
10
142.66097541247547
20
137.25997829805377
30
2.7921155506399826e-14
 70
     32
  0
VERTEX
  8
MY3DLAYER
10
142.97163558425441
20
137.49835623195094
30
2.771044038546162e-14
 70
     32
  0
VERTEX
  8
MY3DLAYER
10
143.33340701660043
20
137.64820686570604
30
2.750808516702079e-14
 70
     32
  0
VERTEX
  8
MY3DLAYER
10
143.72163558425578
20
137.69931812627345
30
2.7327880024804256e-14
 70
     32
  0
VERTEX
  8
MY3DLAYER
10
144.10986415191041
20
137.64820686570732
30
2.718210564145299e-14
 70
     32
  0
VERTEX
  8
MY3DLAYER
10
144.4716355842554
20
137.49835623195202
30
2.708069630028897e-14
 70
     32
  0
VERTEX
  8
MY3DLAYER
10
144.78229575603538
20
137.25997829805323
30
2.70305628803256e-14
 70
     32
  0
VERTEX
  8
MY3DLAYER
10
145.02067368993184
20
136.94931812627507
30
2.7035121891282634e-14
 70
     32
  0
VERTEX
  8
MY3DLAYER
10
145.17052432368905
20
136.58754669392806
30
2.7094062644098787e-14
 70
     32
  0
VERTEX
  8
MY3DLAYER
10
145.2216355842538
20
136.19931812627453
30
2.7203368423873935e-14
 70
     32
  0
VERTEX
  8
MY3DLAYER
10
145.22163558425478
20
134.6993181262743
30
2.770860090811458e-14
 70
     32
  0
VERTEX
  8
MY3DLAYER
10
145.17052432368888
20
134.31108955862098
30
2.7860822706591877e-14
 70
     32
  0
VERTEX
  8
MY3DLAYER
10
145.02067368993136
20
133.94931812627405
30
2.8045586859765286e-14
 70
     32
  0
VERTEX
  8
MY3DLAYER
10
144.7822957560344
20
133.63865795449433
30
2.8250301995931985e-14
 70
     32
  0
VERTEX
  8
MY3DLAYER
10
144.47163558425473
20
133.40028002059682
30
2.846101711687067e-14
 70
     32
  0
VERTEX
  8
MY3DLAYER
10
144.10986415190888
20
133.25042938683956
30
2.8663372335312143e-14
 70
     32
  0
VERTEX
  8
MY3DLAYER
10
143.7216355842536
20
133.1993181262761
30
2.8843577477527394e-14
 70
     32
  0
VERTEX
  8
MY3DLAYER
10
143.3334070165999
20
133.25042938683973
30
2.898935186087898e-14
 70
     32
  0
VERTEX
  8
MY3DLAYER
10
142.9716355842552
20
133.40028002059836
30
2.90907612020418e-14
 70
     32
  0
SEQEND
  0
POLYLINE
 8
Layer0
 66
     1
70
    8
 10
0.0
 20
 0.0
 30
0.0
  0
VERTEX
  8
MY3DLAYER
10
142.97163558425459
20
153.99835623195133
30
2.2152883058809953e-14
 70
     32
  0
VERTEX
  8
MY3DLAYER
10
143.333407016602
20
154.14820686570826
30
2.195052784036784e-14
 70
     32
  0
VERTEX
  8
MY3DLAYER
10
143.72163558425666
20
154.19931812627323
30
2.1770322698152428e-14
 70
     32
  0
VERTEX
  8
MY3DLAYER
10
144.10986415190823
20
154.1482068657078
30
2.1624548314802286e-14
 70
     32
  0
VERTEX
  8
MY3DLAYER
10
144.47163558425515
20
153.99835623195005
30
2.1523138973638262e-14
 70
     32
  0
VERTEX
  8
MY3DLAYER
10
144.78229575603393
20
153.75997829805345
30
2.1473005553674652e-14
 70
     32
  0
VERTEX
  8
MY3DLAYER
10
145.02067368993198
20
153.44931812627402
30
2.1477564564631368e-14
 70
     32
  0
VERTEX
  8
MY3DLAYER
10
145.170524323689
20
153.08754669392818
30
2.153650531744728e-14
 70
     32
  0
VERTEX
  8
MY3DLAYER
10
145.22163558425524
20
152.69931812627456
30
2.1645811097221706e-14
 70
     32
  0
VERTEX
  8
MY3DLAYER
10
145.22163558425552
20
151.19931812627337
30
2.2151043581463072e-14
 70
     32
  0
VERTEX
  8
MY3DLAYER
10
145.170524323689
20
150.8110895586221
30
2.230326537993989e-14
 70
     32
  0
VERTEX
  8
MY3DLAYER
10
145.0206736899306
20
150.44931812627453
30
2.248802953311394e-14
 70
     32
  0
VERTEX
  8
MY3DLAYER
10
144.78229575603558
20
150.13865795449456
30
2.2692744669279917e-14
 70
     32
  0
VERTEX
  8
MY3DLAYER
10
144.4716355842545
20
149.9002800205976
30
2.2903459790219003e-14
 70
     32
  0
VERTEX
  8
MY3DLAYER
10
144.1098641519092
20
149.75042938683922
30
2.3105815008660634e-14
 70
     32
  0
VERTEX
  8
MY3DLAYER
10
143.7216355842555
20
149.69931812627343
30
2.3286020150875967e-14
 70
     32
  0
VERTEX
  8
MY3DLAYER
10
143.33340701660114
20
149.7504293868403
30
2.3431794534226753e-14
 70
     32
  0
VERTEX
  8
MY3DLAYER
10
142.9716355842553
20
149.9002800205968
30
2.3533203875390773e-14
 70
     32
  0
VERTEX
  8
MY3DLAYER
10
142.66097541247632
20
150.13865795449482
30
2.3583337295353904e-14
 70
     32
  0
VERTEX
  8
MY3DLAYER
10
142.4225974785775
20
150.449318126274
30
2.357877828439767e-14
 70
     32
  0
VERTEX
  8
MY3DLAYER
10
142.2727468448208
20
150.811089558621
30
2.3519837531581196e-14
 70
     32
  0
VERTEX
  8
MY3DLAYER
10
142.22163558425666
20
151.19931812627445
30
2.341053175180597e-14
 70
     32
  0
VERTEX
  8
MY3DLAYER
10
142.22163558425493
20
152.69931812627465
30
2.2905299267565565e-14
 70
     32
  0
VERTEX
  8
MY3DLAYER
10
142.2727468448208
20
153.08754669392846
30
2.2753077469088106e-14
 70
     32
  0
VERTEX
  8
MY3DLAYER
10
142.42259747857887
20
153.44931812627365
30
2.2568313315915098e-14
 70
     32
  0
VERTEX
  8
MY3DLAYER
10
142.6609754124754
20
153.75997829805345
30
2.236359817974848e-14
 70
     32
  0
VERTEX
  8
MY3DLAYER
10
142.97163558425459
20
153.99835623195133
30
2.2152883058809953e-14
 70
     32
  0
SEQEND
  0
POLYLINE
 8
Layer0
 66
     1
70
    8
 10
0.0
 20
 0.0
 30
0.0
  0
VERTEX
  8
MY3DLAYER
10
14.77763350931045
20
18.99381436021136
30
7.328493451130392e-14
 70
     32
  0
VERTEX
  8
MY3DLAYER
10
15.818885682767723
20
18.915281118715907
30
7.287423794283004e-14
 70
     32
  0
VERTEX
  8
MY3DLAYER
10
16.804332150217576
20
18.569927939287282
30
7.257684098326553e-14
 70
     32
  0
VERTEX
  8
MY3DLAYER
10
17.666816363428183
20
17.981290070381654
30
7.241301074393359e-14
 70
     32
  0
VERTEX
  8
MY3DLAYER
10
18.347561448595773
20
17.18948220999308
30
7.239391198490129e-14
 70
     32
  0
VERTEX
  8
MY3DLAYER
10
18.800175753146203
20
16.248464755285262
30
7.252084625503556e-14
 70
     32
  0
VERTEX
  8
MY3DLAYER
10
18.993814360208788
20
15.222366490690083
30
7.278516319359445e-14
 70
     32
  0
VERTEX
  8
MY3DLAYER
10
18.91528111871311
20
14.181114317232222
30
7.316885003802028e-14
 70
     32
  0
VERTEX
  8
MY3DLAYER
10
18.569927939283673
20
13.195667849783813
30
7.364575916393803e-14
 70
     32
  0
VERTEX
  8
MY3DLAYER
10
17.981290070378947
20
12.33318363657226
30
7.418339000254497e-14
 70
     32
  0
VERTEX
  8
MY3DLAYER
10
17.189482209991457
20
11.652438551405979
30
7.474510390066836e-14
 70
     32
  0
VERTEX
  8
MY3DLAYER
10
16.248464755282917
20
11.199824246853112
30
7.529262098442726e-14
 70
     32
  0
VERTEX
  8
MY3DLAYER
10
15.222366490687376
20
11.006185639792465
30
7.578862886937689e-14
 70
     32
  0
VERTEX
  8
MY3DLAYER
10
14.181114317230328
20
11.08471888128846
30
7.619932543785045e-14
 70
     32
  0
VERTEX
  8
MY3DLAYER
10
13.195667849780701
20
11.430072060716725
30
7.649672239741503e-14
 70
     32
  0
VERTEX
  8
MY3DLAYER
10
12.333183636569462
20
12.018709929623252
30
7.666055263674698e-14
 70
     32
  0
VERTEX
  8
MY3DLAYER
10
11.652438551402007
20
12.810517790009932
30
7.667965139577983e-14
 70
     32
  0
VERTEX
  8
MY3DLAYER
10
11.199824246851037
20
13.751535244718383
30
7.655271712564557e-14
 70
     32
  0
VERTEX
  8
MY3DLAYER
10
11.006185639790388
20
14.777633509313743
30
7.62884001870858e-14
 70
     32
  0
VERTEX
  8
MY3DLAYER
10
11.084718881285392
20
15.818885682770249
30
7.590471334266069e-14
 70
     32
  0
VERTEX
  8
MY3DLAYER
10
11.430072060714108
20
16.80433215021974
30
7.542780421674303e-14
 70
     32
  0
VERTEX
  8
MY3DLAYER
10
12.018709929620996
20
17.666816363431657
30
7.489017337813496e-14
 70
     32
  0
VERTEX
  8
MY3DLAYER
10
12.810517790007586
20
18.347561448598118
30
7.43284594800119e-14
 70
     32
  0
VERTEX
  8
MY3DLAYER
10
13.751535244714955
20
18.800175753148547
30
7.378094239625421e-14
 70
     32
  0
VERTEX
  8
MY3DLAYER
10
14.77763350931045
20
18.99381436021136
30
7.328493451130392e-14
 70
     32
  0
SEQEND
  0
POLYLINE
 8
Layer0
 66
     1
70
    8
 10
0.0
 20
 0.0
 30
0.0
  0
VERTEX
  8
MY3DLAYER
10
15.721798591696206
20
25.293154155353637
30
7.076679219807967e-14
 70
     32
  0
VERTEX
  8
MY3DLAYER
10
16.03245876347744
20
25.0547762214583
30
7.071665877811462e-14
 70
     32
  0
VERTEX
  8
MY3DLAYER
10
16.270836697373095
20
24.744116049678507
30
7.072121778907245e-14
 70
     32
  0
VERTEX
  8
MY3DLAYER
10
16.42068733113034
20
24.382344617331487
30
7.078015854188861e-14
 70
     32
  0
VERTEX
  8
MY3DLAYER
10
16.47179859169748
20
23.994116049677686
30
7.088946432166279e-14
 70
     32
  0
VERTEX
  8
MY3DLAYER
10
16.47179859169739
20
22.494116049678297
30
7.139469680590367e-14
 70
     32
  0
VERTEX
  8
MY3DLAYER
10
16.420687331131017
20
22.105887482023505
30
7.154691860438161e-14
 70
     32
  0
VERTEX
  8
MY3DLAYER
10
16.270836697371966
20
21.744116049678016
30
7.173168275755518e-14
 70
     32
  0
VERTEX
  8
MY3DLAYER
10
16.032458763475997
20
21.433455877898226
30
7.193639789372157e-14
 70
     32
  0
VERTEX
  8
MY3DLAYER
10
15.721798591697018
20
21.195077944001174
30
7.214711301465985e-14
 70
     32
  0
VERTEX
  8
MY3DLAYER
10
15.36002715935099
20
21.04522731024596
30
7.234946823310068e-14
 70
     32
  0
VERTEX
  8
MY3DLAYER
10
14.971798591695654
20
20.99411604967855
30
7.252967337531721e-14
 70
     32
  0
VERTEX
  8
MY3DLAYER
10
14.583570024041041
20
21.045227310244606
30
7.26754477586684e-14
 70
     32
  0
VERTEX
  8
MY3DLAYER
10
14.221798591696006
20
21.195077944
30
7.27768570998325e-14
 70
     32
  0
VERTEX
  8
MY3DLAYER
10
13.911138419916078
20
21.433455877898677
30
7.282699051979579e-14
 70
     32
  0
VERTEX
  8
MY3DLAYER
10
13.672760486019568
20
21.744116049676933
30
7.282243150883883e-14
 70
     32
  0
VERTEX
  8
MY3DLAYER
10
13.522909852262368
20
22.105887482023956
30
7.276349075602268e-14
 70
     32
  0
VERTEX
  8
MY3DLAYER
10
13.47179859169762
20
22.494116049677487
30
7.265418497624753e-14
 70
     32
  0
VERTEX
  8
MY3DLAYER
10
13.471798591696627
20
23.994116049677775
30
7.214895249200689e-14
 70
     32
  0
VERTEX
  8
MY3DLAYER
10
13.522909852262549
20
24.382344617331036
30
7.199673069352959e-14
 70
     32
  0
VERTEX
  8
MY3DLAYER
10
13.672760486020064
20
24.744116049677967
30
7.181196654035619e-14
 70
     32
  0
VERTEX
  8
MY3DLAYER
10
13.911138419917071
20
25.05477622145767
30
7.160725140418949e-14
 70
     32
  0
VERTEX
  8
MY3DLAYER
10
14.221798591696682
20
25.29315415535508
30
7.139653628325079e-14
 70
     32
  0
VERTEX
  8
MY3DLAYER
10
14.58357002404253
20
25.443004789112372
30
7.119418106480932e-14
 70
     32
  0
VERTEX
  8
MY3DLAYER
10
14.97179859169782
20
25.49411604967581
30
7.101397592259407e-14
 70
     32
  0
VERTEX
  8
MY3DLAYER
10
15.360027159351532
20
25.44300478911219
30
7.086820153924249e-14
 70
     32
  0
VERTEX
  8
MY3DLAYER
10
15.721798591696206
20
25.293154155353637
30
7.076679219807967e-14
 70
     32
  0
SEQEND
  0
POLYLINE
 8
Layer0
 66
     1
70
    8
 10
0.0
 20
 0.0
 30
0.0
  0
VERTEX
  8
MY3DLAYER
10
15.721798591696883
20
4.695077944000685
30
7.770467034131152e-14
 70
     32
  0
VERTEX
  8
MY3DLAYER
10
15.36002715934941
20
4.545227310243665
30
7.790702555975363e-14
 70
     32
  0
VERTEX
  8
MY3DLAYER
10
14.971798591694798
20
4.494116049678782
30
7.808723070196904e-14
 70
     32
  0
VERTEX
  8
MY3DLAYER
10
14.583570024043206
20
4.545227310244207
30
7.823300508531919e-14
 70
     32
  0
VERTEX
  8
MY3DLAYER
10
14.221798591696276
20
4.695077944001949
30
7.83344144264832e-14
 70
     32
  0
VERTEX
  8
MY3DLAYER
10
13.911138419917478
20
4.933455877898549
30
7.838454784644682e-14
 70
     32
  0
VERTEX
  8
MY3DLAYER
10
13.672760486019477
20
5.244116049677889
30
7.83799888354901e-14
 70
     32
  0
VERTEX
  8
MY3DLAYER
10
13.522909852262412
20
5.605887482023828
30
7.832104808267419e-14
 70
     32
  0
VERTEX
  8
MY3DLAYER
10
13.471798591696176
20
5.994116049677358
30
7.821174230289976e-14
 70
     32
  0
VERTEX
  8
MY3DLAYER
10
13.471798591695904
20
7.494116049678642
30
7.77065098186584e-14
 70
     32
  0
VERTEX
  8
MY3DLAYER
10
13.522909852262412
20
7.882344617330006
30
7.755428802018158e-14
 70
     32
  0
VERTEX
  8
MY3DLAYER
10
13.672760486020831
20
8.244116049677478
30
7.73695238670076e-14
 70
     32
  0
VERTEX
  8
MY3DLAYER
10
13.911138419915853
20
8.55477622145736
30
7.716480873084155e-14
 70
     32
  0
VERTEX
  8
MY3DLAYER
10
14.221798591696908
20
8.793154155354411
30
7.695409360990246e-14
 70
     32
  0
VERTEX
  8
MY3DLAYER
10
14.583570024042213
20
8.943004789112786
30
7.675173839146083e-14
 70
     32
  0
VERTEX
  8
MY3DLAYER
10
14.97179859169597
20
8.99411604967848
30
7.65715332492455e-14
 70
     32
  0
VERTEX
  8
MY3DLAYER
10
15.360027159350267
20
8.943004789111612
30
7.642575886589471e-14
 70
     32
  0
VERTEX
  8
MY3DLAYER
10
15.721798591696116
20
8.793154155355223
30
7.63243495247307e-14
 70
     32
  0
VERTEX
  8
MY3DLAYER
10
16.032458763475095
20
8.55477622145718
30
7.627421610476757e-14
 70
     32
  0
VERTEX
  8
MY3DLAYER
10
16.270836697373905
20
8.24411604967802
30
7.62787751157238e-14
 70
     32
  0
VERTEX
  8
MY3DLAYER
10
16.420687331130612
20
7.882344617330908
30
7.633771586854027e-14
 70
     32
  0
VERTEX
  8
MY3DLAYER
10
16.47179859169477
20
7.494116049677558
30
7.644702164831558e-14
 70
     32
  0
VERTEX
  8
MY3DLAYER
10
16.47179859169653
20
5.994116049677358
30
7.695225413255591e-14
 70
     32
  0
VERTEX
  8
MY3DLAYER
10
16.420687331130612
20
5.6058874820234665
30
7.710447593103336e-14
 70
     32
  0
VERTEX
  8
MY3DLAYER
10
16.270836697372552
20
5.244116049678251
30
7.728924008420637e-14
 70
     32
  0
VERTEX
  8
MY3DLAYER
10
16.032458763475997
20
4.933455877898459
30
7.749395522037298e-14
 70
     32
  0
VERTEX
  8
MY3DLAYER
10
15.721798591696883
20
4.695077944000685
30
7.770467034131152e-14
 70
     32
  0
SEQEND
  0
POLYLINE
 8
Layer0
 66
     1
70
    8
 10
0.0
 20
 0.0
 30
0.0
  0
VERTEX
  8
MY3DLAYER
10
62.596717087975705
20
94.5967170879761
30
5.684694710985468e-14
 70
     32
  0
VERTEX
  8
MY3DLAYER
10
62.60393999796742
20
94.74374279847041
30
5.679439327665111e-14
 70
     32
  0
VERTEX
  8
MY3DLAYER
10
62.62553916737088
20
94.88935257100029
30
5.673628078579678e-14
 70
     32
  0
VERTEX
  8
MY3DLAYER
10
62.6613065843774
20
95.03214410385776
30
5.667316929234617e-14
 70
     32
  0
VERTEX
  8
MY3DLAYER
10
62.71089778920879
20
95.17074223652374
30
5.6605666594481384e-14
 70
     32
  0
VERTEX
  8
MY3DLAYER
10
62.77383519145318
20
95.3038121932151
30
5.653442278008378e-14
 70
     32
  0
VERTEX
  8
MY3DLAYER
10
62.84951266952189
20
95.43007243750542
30
5.6460123966031596e-14
 70
     32
  0
VERTEX
  8
MY3DLAYER
10
62.937201407931596
20
95.54830701422149
30
5.6383485690520185e-14
 70
     32
  0
VERTEX
  8
MY3DLAYER
10
63.03605691619588
20
95.6573772597558
30
5.6305246022037435e-14
 70
     32
  0
VERTEX
  8
MY3DLAYER
10
63.14512716173024
20
95.75623276802014
30
5.622615845136086e-14
 70
     32
  0
VERTEX
  8
MY3DLAYER
10
63.263361738446314
20
95.8439215064298
30
5.614698463502992e-14
 70
     32
  0
VERTEX
  8
MY3DLAYER
10
63.38962198273673
20
95.9195989844985
30
5.606848706017658e-14
 70
     32
  0
VERTEX
  8
MY3DLAYER
10
63.52269193942809
20
95.98253638674298
30
5.599142170135787e-14
 70
     32
  0
VERTEX
  8
MY3DLAYER
10
63.661290072094026
20
96.03212759157438
30
5.591653074010738e-14
 70
     32
  0
VERTEX
  8
MY3DLAYER
10
63.804081604951534
20
96.0678950085809
30
5.5844535417321526e-14
 70
     32
  0
VERTEX
  8
MY3DLAYER
10
63.949691377481365
20
96.08949417798426
30
5.577612908731547e-14
 70
     32
  0
VERTEX
  8
MY3DLAYER
10
64.09671708797572
20
96.09671708797593
30
5.5711970540441786e-14
 70
     32
  0
VERTEX
  8
MY3DLAYER
10
64.24374279847008
20
96.08949417798426
30
5.5652677658579485e-14
 70
     32
  0
VERTEX
  8
MY3DLAYER
10
64.38935257099992
20
96.0678950085809
30
5.5598821464593656e-14
 70
     32
  0
VERTEX
  8
MY3DLAYER
10
64.53214410385742
20
96.03212759157438
30
5.555092062307333e-14
 70
     32
  0
VERTEX
  8
MY3DLAYER
10
64.67074223652335
20
95.98253638674298
30
5.550943644530751e-14
 70
     32
  0
VERTEX
  8
MY3DLAYER
10
64.80381219321472
20
95.9195989844985
30
5.547476844660558e-14
 70
     32
  0
VERTEX
  8
MY3DLAYER
10
64.93007243750515
20
95.8439215064298
30
5.544725049874664e-14
 70
     32
  0
VERTEX
  8
MY3DLAYER
10
65.04830701422121
20
95.75623276802014
30
5.542714761461126e-14
 70
     32
  0
VERTEX
  8
MY3DLAYER
10
65.15737725975558
20
95.6573772597558
30
5.541465339596313e-14
 70
     32
  0
VERTEX
  8
MY3DLAYER
10
65.25623276801986
20
95.54830701422149
30
5.5409888168957795e-14
 70
     32
  0
VERTEX
  8
MY3DLAYER
10
65.34392150642957
20
95.43007243750542
30
5.541289782533626e-14
 70
     32
  0
VERTEX
  8
MY3DLAYER
10
65.41959898449826
20
95.3038121932151
30
5.542365338046241e-14
 70
     32
  0
VERTEX
  8
MY3DLAYER
10
65.48253638674265
20
95.17074223652374
30
5.544205125246077e-14
 70
     32
  0
VERTEX
  8
MY3DLAYER
10
65.53212759157405
20
95.03214410385776
30
5.54679142597667e-14
 70
     32
  0
VERTEX
  8
MY3DLAYER
10
65.56789500858056
20
94.88935257100029
30
5.550099332748162e-14
 70
     32
  0
VERTEX
  8
MY3DLAYER
10
65.58949417798404
20
94.74374279847041
30
5.554096988610076e-14
 70
     32
  0
VERTEX
  8
MY3DLAYER
10
65.59671708797575
20
94.5967170879761
30
5.55874589395109e-14
 70
     32
  0
VERTEX
  8
MY3DLAYER
10
65.58949417798404
20
94.44969137748178
30
5.5640012772714463e-14
 70
     32
  0
VERTEX
  8
MY3DLAYER
10
65.56789500858056
20
94.3040816049519
30
5.569812526356879e-14
 70
     32
  0
VERTEX
  8
MY3DLAYER
10
65.53212759157405
20
94.16129007209445
30
5.576123675701941e-14
 70
     32
  0
VERTEX
  8
MY3DLAYER
10
65.48253638674265
20
94.02269193942847
30
5.5828739454884196e-14
 70
     32
  0
VERTEX
  8
MY3DLAYER
10
65.41959898449826
20
93.88962198273718
30
5.58999832692818e-14
 70
     32
  0
VERTEX
  8
MY3DLAYER
10
65.34392150642957
20
93.76336173844669
30
5.5974282083333984e-14
 70
     32
  0
VERTEX
  8
MY3DLAYER
10
65.25623276801986
20
93.64512716173061
30
5.6050920358845477e-14
 70
     32
  0
VERTEX
  8
MY3DLAYER
10
65.15737725975558
20
93.5360569161963
30
5.612916002732823e-14
 70
     32
  0
VERTEX
  8
MY3DLAYER
10
65.04830701422121
20
93.43720140793206
30
5.620824759800471e-14
 70
     32
  0
VERTEX
  8
MY3DLAYER
10
64.93007243750515
20
93.3495126695224
30
5.628742141433566e-14
 70
     32
  0
VERTEX
  8
MY3DLAYER
10
64.80381219321472
20
93.27383519145351
30
5.6365918989189084e-14
 70
     32
  0
VERTEX
  8
MY3DLAYER
10
64.67074223652335
20
93.21089778920921
30
5.644298434800771e-14
 70
     32
  0
VERTEX
  8
MY3DLAYER
10
64.53214410385742
20
93.16130658437783
30
5.6517875309258194e-14
 70
     32
  0
VERTEX
  8
MY3DLAYER
10
64.38935257099992
20
93.1255391673713
30
5.658987063204405e-14
 70
     32
  0
VERTEX
  8
MY3DLAYER
10
64.24374279847008
20
93.10393999796774
30
5.66582769620501e-14
 70
     32
  0
VERTEX
  8
MY3DLAYER
10
64.09671708797572
20
93.09671708797607
30
5.6722435508923794e-14
 70
     32
  0
VERTEX
  8
MY3DLAYER
10
63.949691377481365
20
93.10393999796774
30
5.6781728390786095e-14
 70
     32
  0
VERTEX
  8
MY3DLAYER
10
63.804081604951534
20
93.1255391673713
30
5.6835584584771924e-14
 70
     32
  0
VERTEX
  8
MY3DLAYER
10
63.661290072094026
20
93.16130658437783
30
5.688348542629225e-14
 70
     32
  0
VERTEX
  8
MY3DLAYER
10
63.52269193942809
20
93.21089778920921
30
5.692496960405806e-14
 70
     32
  0
VERTEX
  8
MY3DLAYER
10
63.38962198273673
20
93.27383519145351
30
5.695963760276e-14
 70
     32
  0
VERTEX
  8
MY3DLAYER
10
63.263361738446314
20
93.3495126695224
30
5.698715555061894e-14
 70
     32
  0
VERTEX
  8
MY3DLAYER
10
63.14512716173024
20
93.43720140793206
30
5.700725843475431e-14
 70
     32
  0
VERTEX
  8
MY3DLAYER
10
63.03605691619588
20
93.5360569161963
30
5.701975265340246e-14
 70
     32
  0
VERTEX
  8
MY3DLAYER
10
62.937201407931596
20
93.64512716173061
30
5.702451788040785e-14
 70
     32
  0
VERTEX
  8
MY3DLAYER
10
62.84951266952189
20
93.76336173844669
30
5.702150822402933e-14
 70
     32
  0
VERTEX
  8
MY3DLAYER
10
62.77383519145318
20
93.88962198273718
30
5.701075266890316e-14
 70
     32
  0
VERTEX
  8
MY3DLAYER
10
62.71089778920879
20
94.02269193942847
30
5.699235479690481e-14
 70
     32
  0
VERTEX
  8
MY3DLAYER
10
62.6613065843774
20
94.16129007209445
30
5.696649178959888e-14
 70
     32
  0
VERTEX
  8
MY3DLAYER
10
62.62553916737088
20
94.3040816049519
30
5.693341272188396e-14
 70
     32
  0
VERTEX
  8
MY3DLAYER
10
62.60393999796742
20
94.44969137748178
30
5.68934361632649e-14
 70
     32
  0
VERTEX
  8
MY3DLAYER
10
62.596717087975705
20
94.5967170879761
30
5.684694710985468e-14
 70
     32
  0
SEQEND
  0
POLYLINE
 8
Layer0
 66
     1
70
    8
 10
0.0
 20
 0.0
 30
0.0
  0
VERTEX
  8
MY3DLAYER
10
64.38935257099992
20
62.6255391673712
30
6.686293114494532e-14
 70
     32
  0
VERTEX
  8
MY3DLAYER
10
64.24374279847008
20
62.60393999796783
30
6.693133747495146e-14
 70
     32
  0
VERTEX
  8
MY3DLAYER
10
64.09671708797572
20
62.59671708797616
30
6.699549602182515e-14
 70
     32
  0
VERTEX
  8
MY3DLAYER
10
63.949691377481365
20
62.60393999796783
30
6.705478890368745e-14
 70
     32
  0
VERTEX
  8
MY3DLAYER
10
63.804081604951534
20
62.6255391673712
30
6.71086450976732e-14
 70
     32
  0
VERTEX
  8
MY3DLAYER
10
63.661290072094026
20
62.66130658437772
30
6.715654593919352e-14
 70
     32
  0
VERTEX
  8
MY3DLAYER
10
63.52269193942809
20
62.71089778920911
30
6.719803011695942e-14
 70
     32
  0
VERTEX
  8
MY3DLAYER
10
63.38962198273673
20
62.773835191453585
30
6.723269811566126e-14
 70
     32
  0
VERTEX
  8
MY3DLAYER
10
63.263361738446314
20
62.8495126695223
30
6.726021606352029e-14
 70
     32
  0
VERTEX
  8
MY3DLAYER
10
63.14512716173024
20
62.93720140793196
30
6.728031894765566e-14
 70
     32
  0
VERTEX
  8
MY3DLAYER
10
63.03605691619588
20
63.03605691619638
30
6.729281316630381e-14
 70
     32
  0
VERTEX
  8
MY3DLAYER
10
62.937201407931596
20
63.14512716173069
30
6.729757839330913e-14
 70
     32
  0
VERTEX
  8
MY3DLAYER
10
62.84951266952189
20
63.26336173844676
30
6.729456873693068e-14
 70
     32
  0
VERTEX
  8
MY3DLAYER
10
62.77383519145318
20
63.38962198273709
30
6.728381318180444e-14
 70
     32
  0
VERTEX
  8
MY3DLAYER
10
62.71089778920879
20
63.52269193942854
30
6.726541530980616e-14
 70
     32
  0
VERTEX
  8
MY3DLAYER
10
62.6613065843774
20
63.66129007209452
30
6.723955230250023e-14
 70
     32
  0
VERTEX
  8
MY3DLAYER
10
62.62553916737088
20
63.80408160495198
30
6.720647323478523e-14
 70
     32
  0
VERTEX
  8
MY3DLAYER
10
62.60393999796742
20
63.94969137748186
30
6.716649667616617e-14
 70
     32
  0
VERTEX
  8
MY3DLAYER
10
62.596717087975705
20
64.09671708797617
30
6.712000762275596e-14
 70
     32
  0
VERTEX
  8
MY3DLAYER
10
62.60393999796742
20
64.24374279847049
30
6.706745378955239e-14
 70
     32
  0
VERTEX
  8
MY3DLAYER
10
62.62553916737088
20
64.38935257100037
30
6.700934129869805e-14
 70
     32
  0
VERTEX
  8
MY3DLAYER
10
62.6613065843774
20
64.53214410385783
30
6.694622980524744e-14
 70
     32
  0
VERTEX
  8
MY3DLAYER
10
62.71089778920879
20
64.67074223652381
30
6.687872710738266e-14
 70
     32
  0
VERTEX
  8
MY3DLAYER
10
62.77383519145318
20
64.8038121932151
30
6.680748329298505e-14
 70
     32
  0
VERTEX
  8
MY3DLAYER
10
62.84951266952189
20
64.93007243750559
30
6.673318447893287e-14
 70
     32
  0
VERTEX
  8
MY3DLAYER
10
62.937201407931596
20
65.04830701422166
30
6.665654620342145e-14
 70
     32
  0
VERTEX
  8
MY3DLAYER
10
63.03605691619588
20
65.15737725975598
30
6.65783065349387e-14
 70
     32
  0
VERTEX
  8
MY3DLAYER
10
63.14512716173024
20
65.25623276802021
30
6.649921896426213e-14
 70
     32
  0
VERTEX
  8
MY3DLAYER
10
63.263361738446314
20
65.34392150642988
30
6.642004514793119e-14
 70
     32
  0
VERTEX
  8
MY3DLAYER
10
63.38962198273673
20
65.41959898449876
30
6.634154757307785e-14
 70
     32
  0
VERTEX
  8
MY3DLAYER
10
63.52269193942809
20
65.48253638674306
30
6.626448221425914e-14
 70
     32
  0
VERTEX
  8
MY3DLAYER
10
63.661290072094026
20
65.53212759157445
30
6.618959125300865e-14
 70
     32
  0
VERTEX
  8
MY3DLAYER
10
63.804081604951534
20
65.56789500858098
30
6.611759593022288e-14
 70
     32
  0
VERTEX
  8
MY3DLAYER
10
63.949691377481365
20
65.58949417798453
30
6.604918960021674e-14
 70
     32
  0
VERTEX
  8
MY3DLAYER
10
64.09671708797572
20
65.5967170879762
30
6.598503105334297e-14
 70
     32
  0
VERTEX
  8
MY3DLAYER
10
64.24374279847008
20
65.58949417798453
30
6.592573817148068e-14
 70
     32
  0
VERTEX
  8
MY3DLAYER
10
64.38935257099992
20
65.56789500858098
30
6.5871881977495e-14
 70
     32
  0
VERTEX
  8
MY3DLAYER
10
64.53214410385742
20
65.53212759157445
30
6.58239811359746e-14
 70
     32
  0
VERTEX
  8
MY3DLAYER
10
64.67074223652335
20
65.48253638674306
30
6.57824969582087e-14
 70
     32
  0
VERTEX
  8
MY3DLAYER
10
64.80381219321472
20
65.41959898449876
30
6.574782895950685e-14
 70
     32
  0
VERTEX
  8
MY3DLAYER
10
64.93007243750515
20
65.34392150642988
30
6.572031101164791e-14
 70
     32
  0
VERTEX
  8
MY3DLAYER
10
65.04830701422121
20
65.25623276802021
30
6.570020812751254e-14
 70
     32
  0
VERTEX
  8
MY3DLAYER
10
65.15737725975558
20
65.15737725975598
30
6.568771390886432e-14
 70
     32
  0
VERTEX
  8
MY3DLAYER
10
65.25623276801986
20
65.04830701422166
30
6.568294868185907e-14
 70
     32
  0
VERTEX
  8
MY3DLAYER
10
65.34392150642957
20
64.93007243750559
30
6.568595833823752e-14
 70
     32
  0
VERTEX
  8
MY3DLAYER
10
65.41959898449826
20
64.8038121932151
30
6.569671389336369e-14
 70
     32
  0
VERTEX
  8
MY3DLAYER
10
65.48253638674265
20
64.67074223652381
30
6.571511176536204e-14
 70
     32
  0
VERTEX
  8
MY3DLAYER
10
65.53212759157405
20
64.53214410385783
30
6.574097477266797e-14
 70
     32
  0
VERTEX
  8
MY3DLAYER
10
65.56789500858056
20
64.38935257100037
30
6.577405384038289e-14
 70
     32
  0
VERTEX
  8
MY3DLAYER
10
65.58949417798404
20
64.24374279847049
30
6.581403039900203e-14
 70
     32
  0
VERTEX
  8
MY3DLAYER
10
65.59671708797575
20
64.09671708797617
30
6.586051945241217e-14
 70
     32
  0
VERTEX
  8
MY3DLAYER
10
65.58949417798404
20
63.94969137748186
30
6.591307328561574e-14
 70
     32
  0
VERTEX
  8
MY3DLAYER
10
65.56789500858056
20
63.80408160495198
30
6.597118577647006e-14
 70
     32
  0
VERTEX
  8
MY3DLAYER
10
65.53212759157405
20
63.66129007209452
30
6.603429726992067e-14
 70
     32
  0
VERTEX
  8
MY3DLAYER
10
65.48253638674265
20
63.52269193942854
30
6.610179996778547e-14
 70
     32
  0
VERTEX
  8
MY3DLAYER
10
65.41959898449826
20
63.38962198273709
30
6.617304378218315e-14
 70
     32
  0
VERTEX
  8
MY3DLAYER
10
65.34392150642957
20
63.26336173844676
30
6.624734259623525e-14
 70
     32
  0
VERTEX
  8
MY3DLAYER
10
65.25623276801986
20
63.14512716173069
30
6.632398087174675e-14
 70
     32
  0
VERTEX
  8
MY3DLAYER
10
65.15737725975558
20
63.03605691619638
30
6.64022205402295e-14
 70
     32
  0
VERTEX
  8
MY3DLAYER
10
65.04830701422121
20
62.93720140793196
30
6.648130811090598e-14
 70
     32
  0
VERTEX
  8
MY3DLAYER
10
64.93007243750515
20
62.8495126695223
30
6.656048192723701e-14
 70
     32
  0
VERTEX
  8
MY3DLAYER
10
64.80381219321472
20
62.773835191453585
30
6.663897950209035e-14
 70
     32
  0
VERTEX
  8
MY3DLAYER
10
64.67074223652335
20
62.71089778920911
30
6.671604486090906e-14
 70
     32
  0
VERTEX
  8
MY3DLAYER
10
64.53214410385742
20
62.66130658437772
30
6.679093582215955e-14
 70
     32
  0
VERTEX
  8
MY3DLAYER
10
64.38935257099992
20
62.6255391673712
30
6.686293114494532e-14
 70
     32
  0
SEQEND
  0
POLYLINE
 8
Layer0
 66
     1
70
    8
 10
0.0
 20
 0.0
 30
0.0
  0
VERTEX
  8
MY3DLAYER
10
93.10393999796739
20
94.44969137748178
30
4.4088639764770416e-14
 70
     32
  0
VERTEX
  8
MY3DLAYER
10
93.09671708797568
20
94.5967170879761
30
4.40421507113602e-14
 70
     32
  0
VERTEX
  8
MY3DLAYER
10
93.10393999796739
20
94.74374279847041
30
4.398959687815663e-14
 70
     32
  0
VERTEX
  8
MY3DLAYER
10
93.12553916737085
20
94.88935257100029
30
4.39314843873023e-14
 70
     32
  0
VERTEX
  8
MY3DLAYER
10
93.16130658437737
20
95.03214410385776
30
4.386837289385169e-14
 70
     32
  0
VERTEX
  8
MY3DLAYER
10
93.21089778920876
20
95.17074223652374
30
4.38008701959869e-14
 70
     32
  0
VERTEX
  8
MY3DLAYER
10
93.27383519145314
20
95.3038121932151
30
4.37296263815893e-14
 70
     32
  0
VERTEX
  8
MY3DLAYER
10
93.34951266952186
20
95.43007243750542
30
4.3655327567537114e-14
 70
     32
  0
VERTEX
  8
MY3DLAYER
10
93.43720140793157
20
95.54830701422149
30
4.3578689292025703e-14
 70
     32
  0
VERTEX
  8
MY3DLAYER
10
93.53605691619585
20
95.6573772597558
30
4.350044962354295e-14
 70
     32
  0
VERTEX
  8
MY3DLAYER
10
93.6451271617302
20
95.75623276802014
30
4.342136205286638e-14
 70
     32
  0
VERTEX
  8
MY3DLAYER
10
93.76336173844628
20
95.8439215064298
30
4.3342188236535435e-14
 70
     32
  0
VERTEX
  8
MY3DLAYER
10
93.8896219827367
20
95.9195989844985
30
4.3263690661682096e-14
 70
     32
  0
VERTEX
  8
MY3DLAYER
10
94.02269193942806
20
95.98253638674298
30
4.318662530286339e-14
 70
     32
  0
VERTEX
  8
MY3DLAYER
10
94.16129007209399
20
96.03212759157438
30
4.31117343416129e-14
 70
     32
  0
VERTEX
  8
MY3DLAYER
10
94.3040816049515
20
96.0678950085809
30
4.3039739018827044e-14
 70
     32
  0
VERTEX
  8
MY3DLAYER
10
94.44969137748133
20
96.08949417798426
30
4.297133268882099e-14
 70
     32
  0
VERTEX
  8
MY3DLAYER
10
94.59671708797569
20
96.09671708797593
30
4.29071741419473e-14
 70
     32
  0
VERTEX
  8
MY3DLAYER
10
94.74374279847005
20
96.08949417798426
30
4.2847881260085e-14
 70
     32
  0
VERTEX
  8
MY3DLAYER
10
94.88935257099989
20
96.0678950085809
30
4.2794025066099174e-14
 70
     32
  0
VERTEX
  8
MY3DLAYER
10
95.03214410385739
20
96.03212759157438
30
4.2746124224578847e-14
 70
     32
  0
VERTEX
  8
MY3DLAYER
10
95.17074223652332
20
95.98253638674298
30
4.2704640046813027e-14
 70
     32
  0
VERTEX
  8
MY3DLAYER
10
95.3038121932147
20
95.9195989844985
30
4.26699720481111e-14
 70
     32
  0
VERTEX
  8
MY3DLAYER
10
95.4300724375051
20
95.8439215064298
30
4.2642454100252156e-14
 70
     32
  0
VERTEX
  8
MY3DLAYER
10
95.54830701422118
20
95.75623276802014
30
4.262235121611678e-14
 70
     32
  0
VERTEX
  8
MY3DLAYER
10
95.65737725975553
20
95.6573772597558
30
4.260985699746864e-14
 70
     32
  0
VERTEX
  8
MY3DLAYER
10
95.75623276801981
20
95.54830701422149
30
4.2605091770463313e-14
 70
     32
  0
VERTEX
  8
MY3DLAYER
10
95.84392150642952
20
95.43007243750542
30
4.2608101426841777e-14
 70
     32
  0
VERTEX
  8
MY3DLAYER
10
95.91959898449824
20
95.3038121932151
30
4.261885698196793e-14
 70
     32
  0
VERTEX
  8
MY3DLAYER
10
95.98253638674262
20
95.17074223652374
30
4.263725485396629e-14
 70
     32
  0
VERTEX
  8
MY3DLAYER
10
96.03212759157402
20
95.03214410385776
30
4.266311786127222e-14
 70
     32
  0
VERTEX
  8
MY3DLAYER
10
96.06789500858054
20
94.88935257100029
30
4.269619692898714e-14
 70
     32
  0
VERTEX
  8
MY3DLAYER
10
96.089494177984
20
94.74374279847041
30
4.2736173487606276e-14
 70
     32
  0
VERTEX
  8
MY3DLAYER
10
96.09671708797572
20
94.5967170879761
30
4.278266254101642e-14
 70
     32
  0
VERTEX
  8
MY3DLAYER
10
96.089494177984
20
94.44969137748178
30
4.283521637421998e-14
 70
     32
  0
VERTEX
  8
MY3DLAYER
10
96.06789500858054
20
94.3040816049519
30
4.289332886507431e-14
 70
     32
  0
VERTEX
  8
MY3DLAYER
10
96.03212759157402
20
94.16129007209445
30
4.295644035852493e-14
 70
     32
  0
VERTEX
  8
MY3DLAYER
10
95.98253638674262
20
94.02269193942847
30
4.3023943056389714e-14
 70
     32
  0
VERTEX
  8
MY3DLAYER
10
95.91959898449824
20
93.88962198273718
30
4.309518687078731e-14
 70
     32
  0
VERTEX
  8
MY3DLAYER
10
95.84392150642952
20
93.76336173844669
30
4.31694856848395e-14
 70
     32
  0
VERTEX
  8
MY3DLAYER
10
95.75623276801981
20
93.64512716173061
30
4.3246123960350995e-14
 70
     32
  0
VERTEX
  8
MY3DLAYER
10
95.65737725975553
20
93.5360569161963
30
4.3324363628833745e-14
 70
     32
  0
VERTEX
  8
MY3DLAYER
10
95.54830701422118
20
93.43720140793206
30
4.340345119951023e-14
 70
     32
  0
VERTEX
  8
MY3DLAYER
10
95.4300724375051
20
93.3495126695224
30
4.348262501584118e-14
 70
     32
  0
VERTEX
  8
MY3DLAYER
10
95.3038121932147
20
93.27383519145351
30
4.35611225906946e-14
 70
     32
  0
VERTEX
  8
MY3DLAYER
10
95.17074223652332
20
93.21089778920921
30
4.3638187949513226e-14
 70
     32
  0
VERTEX
  8
MY3DLAYER
10
95.03214410385739
20
93.16130658437783
30
4.371307891076371e-14
 70
     32
  0
VERTEX
  8
MY3DLAYER
10
94.88935257099989
20
93.1255391673713
30
4.3785074233549565e-14
 70
     32
  0
VERTEX
  8
MY3DLAYER
10
94.74374279847005
20
93.10393999796774
30
4.385348056355562e-14
 70
     32
  0
VERTEX
  8
MY3DLAYER
10
94.59671708797569
20
93.09671708797607
30
4.391763911042931e-14
 70
     32
  0
VERTEX
  8
MY3DLAYER
10
94.44969137748133
20
93.10393999796774
30
4.3976931992291613e-14
 70
     32
  0
VERTEX
  8
MY3DLAYER
10
94.3040816049515
20
93.1255391673713
30
4.403078818627736e-14
 70
     32
  0
VERTEX
  8
MY3DLAYER
10
94.16129007209399
20
93.16130658437783
30
4.407868902779777e-14
 70
     32
  0
VERTEX
  8
MY3DLAYER
10
94.02269193942806
20
93.21089778920921
30
4.412017320556359e-14
 70
     32
  0
VERTEX
  8
MY3DLAYER
10
93.8896219827367
20
93.27383519145351
30
4.4154841204265515e-14
 70
     32
  0
VERTEX
  8
MY3DLAYER
10
93.76336173844628
20
93.3495126695224
30
4.418235915212446e-14
 70
     32
  0
VERTEX
  8
MY3DLAYER
10
93.6451271617302
20
93.43720140793206
30
4.420246203625983e-14
 70
     32
  0
VERTEX
  8
MY3DLAYER
10
93.53605691619585
20
93.5360569161963
30
4.421495625490797e-14
 70
     32
  0
VERTEX
  8
MY3DLAYER
10
93.43720140793157
20
93.64512716173061
30
4.421972148191338e-14
 70
     32
  0
VERTEX
  8
MY3DLAYER
10
93.34951266952186
20
93.76336173844669
30
4.421671182553484e-14
 70
     32
  0
VERTEX
  8
MY3DLAYER
10
93.27383519145314
20
93.88962198273718
30
4.4205956270408686e-14
 70
     32
  0
VERTEX
  8
MY3DLAYER
10
93.21089778920876
20
94.02269193942847
30
4.418755839841032e-14
 70
     32
  0
VERTEX
  8
MY3DLAYER
10
93.16130658437737
20
94.16129007209445
30
4.416169539110439e-14
 70
     32
  0
VERTEX
  8
MY3DLAYER
10
93.12553916737085
20
94.3040816049519
30
4.4128616323389477e-14
 70
     32
  0
VERTEX
  8
MY3DLAYER
10
93.10393999796739
20
94.44969137748178
30
4.4088639764770416e-14
 70
     32
  0
SEQEND
  0
POLYLINE
 8
Layer0
 66
     1
70
    8
 10
0.0
 20
 0.0
 30
0.0
  0
VERTEX
  8
MY3DLAYER
10
96.089494177984
20
64.24374279847049
30
5.300923400050755e-14
 70
     32
  0
VERTEX
  8
MY3DLAYER
10
96.09671708797572
20
64.09671708797617
30
5.305572305391769e-14
 70
     32
  0
VERTEX
  8
MY3DLAYER
10
96.089494177984
20
63.94969137748186
30
5.310827688712125e-14
 70
     32
  0
VERTEX
  8
MY3DLAYER
10
96.06789500858054
20
63.80408160495198
30
5.3166389377975586e-14
 70
     32
  0
VERTEX
  8
MY3DLAYER
10
96.03212759157402
20
63.66129007209452
30
5.32295008714262e-14
 70
     32
  0
VERTEX
  8
MY3DLAYER
10
95.98253638674262
20
63.52269193942854
30
5.3297003569290983e-14
 70
     32
  0
VERTEX
  8
MY3DLAYER
10
95.91959898449824
20
63.38962198273709
30
5.3368247383688664e-14
 70
     32
  0
VERTEX
  8
MY3DLAYER
10
95.84392150642952
20
63.26336173844676
30
5.344254619774077e-14
 70
     32
  0
VERTEX
  8
MY3DLAYER
10
95.75623276801981
20
63.14512716173069
30
5.3519184473252264e-14
 70
     32
  0
VERTEX
  8
MY3DLAYER
10
95.65737725975553
20
63.03605691619638
30
5.3597424141735014e-14
 70
     32
  0
VERTEX
  8
MY3DLAYER
10
95.54830701422118
20
62.93720140793196
30
5.3676511712411507e-14
 70
     32
  0
VERTEX
  8
MY3DLAYER
10
95.4300724375051
20
62.8495126695223
30
5.375568552874253e-14
 70
     32
  0
VERTEX
  8
MY3DLAYER
10
95.3038121932147
20
62.773835191453585
30
5.383418310359587e-14
 70
     32
  0
VERTEX
  8
MY3DLAYER
10
95.17074223652332
20
62.71089778920911
30
5.391124846241458e-14
 70
     32
  0
VERTEX
  8
MY3DLAYER
10
95.03214410385739
20
62.66130658437772
30
5.3986139423665063e-14
 70
     32
  0
VERTEX
  8
MY3DLAYER
10
94.88935257099989
20
62.6255391673712
30
5.405813474645084e-14
 70
     32
  0
VERTEX
  8
MY3DLAYER
10
94.74374279847005
20
62.60393999796783
30
5.412654107645697e-14
 70
     32
  0
VERTEX
  8
MY3DLAYER
10
94.59671708797569
20
62.59671708797616
30
5.419069962333066e-14
 70
     32
  0
VERTEX
  8
MY3DLAYER
10
94.44969137748133
20
62.60393999796783
30
5.4249992505192965e-14
 70
     32
  0
VERTEX
  8
MY3DLAYER
10
94.3040816049515
20
62.6255391673712
30
5.430384869917871e-14
 70
     32
  0
VERTEX
  8
MY3DLAYER
10
94.16129007209399
20
62.66130658437772
30
5.435174954069904e-14
 70
     32
  0
VERTEX
  8
MY3DLAYER
10
94.02269193942806
20
62.71089778920911
30
5.439323371846494e-14
 70
     32
  0
VERTEX
  8
MY3DLAYER
10
93.8896219827367
20
62.773835191453585
30
5.4427901717166784e-14
 70
     32
  0
VERTEX
  8
MY3DLAYER
10
93.76336173844628
20
62.8495126695223
30
5.445541966502581e-14
 70
     32
  0
VERTEX
  8
MY3DLAYER
10
93.6451271617302
20
62.93720140793196
30
5.447552254916118e-14
 70
     32
  0
VERTEX
  8
MY3DLAYER
10
93.53605691619585
20
63.03605691619638
30
5.448801676780932e-14
 70
     32
  0
VERTEX
  8
MY3DLAYER
10
93.43720140793157
20
63.14512716173069
30
5.449278199481465e-14
 70
     32
  0
VERTEX
  8
MY3DLAYER
10
93.34951266952186
20
63.26336173844676
30
5.448977233843619e-14
 70
     32
  0
VERTEX
  8
MY3DLAYER
10
93.27383519145314
20
63.38962198273709
30
5.4479016783309955e-14
 70
     32
  0
VERTEX
  8
MY3DLAYER
10
93.21089778920876
20
63.52269193942854
30
5.4460618911311673e-14
 70
     32
  0
VERTEX
  8
MY3DLAYER
10
93.16130658437737
20
63.66129007209452
30
5.443475590400574e-14
 70
     32
  0
VERTEX
  8
MY3DLAYER
10
93.12553916737085
20
63.80408160495198
30
5.4401676836290746e-14
 70
     32
  0
VERTEX
  8
MY3DLAYER
10
93.10393999796739
20
63.94969137748186
30
5.4361700277671685e-14
 70
     32
  0
VERTEX
  8
MY3DLAYER
10
93.09671708797568
20
64.09671708797617
30
5.431521122426147e-14
 70
     32
  0
VERTEX
  8
MY3DLAYER
10
93.10393999796739
20
64.24374279847049
30
5.4262657391057904e-14
 70
     32
  0
VERTEX
  8
MY3DLAYER
10
93.12553916737085
20
64.38935257100037
30
5.4204544900203574e-14
 70
     32
  0
VERTEX
  8
MY3DLAYER
10
93.16130658437737
20
64.53214410385783
30
5.4141433406752956e-14
 70
     32
  0
VERTEX
  8
MY3DLAYER
10
93.21089778920876
20
64.67074223652381
30
5.407393070888817e-14
 70
     32
  0
VERTEX
  8
MY3DLAYER
10
93.27383519145314
20
64.8038121932151
30
5.4002686894490566e-14
 70
     32
  0
VERTEX
  8
MY3DLAYER
10
93.34951266952186
20
64.93007243750559
30
5.392838808043838e-14
 70
     32
  0
VERTEX
  8
MY3DLAYER
10
93.43720140793157
20
65.04830701422166
30
5.385174980492697e-14
 70
     32
  0
VERTEX
  8
MY3DLAYER
10
93.53605691619585
20
65.15737725975598
30
5.377351013644422e-14
 70
     32
  0
VERTEX
  8
MY3DLAYER
10
93.6451271617302
20
65.25623276802021
30
5.3694422565767654e-14
 70
     32
  0
VERTEX
  8
MY3DLAYER
10
93.76336173844628
20
65.34392150642988
30
5.3615248749436704e-14
 70
     32
  0
VERTEX
  8
MY3DLAYER
10
93.8896219827367
20
65.41959898449876
30
5.3536751174583365e-14
 70
     32
  0
VERTEX
  8
MY3DLAYER
10
94.02269193942806
20
65.48253638674306
30
5.345968581576466e-14
 70
     32
  0
VERTEX
  8
MY3DLAYER
10
94.16129007209399
20
65.53212759157445
30
5.3384794854514167e-14
 70
     32
  0
VERTEX
  8
MY3DLAYER
10
94.3040816049515
20
65.56789500858098
30
5.331279953172832e-14
 70
     32
  0
VERTEX
  8
MY3DLAYER
10
94.44969137748133
20
65.58949417798453
30
5.3244393201722266e-14
 70
     32
  0
VERTEX
  8
MY3DLAYER
10
94.59671708797569
20
65.5967170879762
30
5.318023465484849e-14
 70
     32
  0
VERTEX
  8
MY3DLAYER
10
94.74374279847005
20
65.58949417798453
30
5.312094177298619e-14
 70
     32
  0
VERTEX
  8
MY3DLAYER
10
94.88935257099989
20
65.56789500858098
30
5.3067085579000525e-14
 70
     32
  0
VERTEX
  8
MY3DLAYER
10
95.03214410385739
20
65.53212759157445
30
5.3019184737480116e-14
 70
     32
  0
VERTEX
  8
MY3DLAYER
10
95.17074223652332
20
65.48253638674306
30
5.2977700559714214e-14
 70
     32
  0
VERTEX
  8
MY3DLAYER
10
95.3038121932147
20
65.41959898449876
30
5.294303256101237e-14
 70
     32
  0
VERTEX
  8
MY3DLAYER
10
95.4300724375051
20
65.34392150642988
30
5.2915514613153426e-14
 70
     32
  0
VERTEX
  8
MY3DLAYER
10
95.54830701422118
20
65.25623276802021
30
5.289541172901805e-14
 70
     32
  0
VERTEX
  8
MY3DLAYER
10
95.65737725975553
20
65.15737725975598
30
5.2882917510369835e-14
 70
     32
  0
VERTEX
  8
MY3DLAYER
10
95.75623276801981
20
65.04830701422166
30
5.287815228336459e-14
 70
     32
  0
VERTEX
  8
MY3DLAYER
10
95.84392150642952
20
64.93007243750559
30
5.2881161939743046e-14
 70
     32
  0
VERTEX
  8
MY3DLAYER
10
95.91959898449824
20
64.8038121932151
30
5.28919174948692e-14
 70
     32
  0
VERTEX
  8
MY3DLAYER
10
95.98253638674262
20
64.67074223652381
30
5.291031536686756e-14
 70
     32
  0
VERTEX
  8
MY3DLAYER
10
96.03212759157402
20
64.53214410385783
30
5.293617837417349e-14
 70
     32
  0
VERTEX
  8
MY3DLAYER
10
96.06789500858054
20
64.38935257100037
30
5.296925744188841e-14
 70
     32
  0
VERTEX
  8
MY3DLAYER
10
96.089494177984
20
64.24374279847049
30
5.300923400050755e-14
 70
     32
  0
SEQEND
  0
POLYLINE
 8
Layer0
 66
     1
70
    8
 10
0.0
 20
 0.0
 30
0.0
  0
VERTEX
  8
MY3DLAYER
10
68.34671708797566
20
61.34671708797608
30
6.327721958836721e-14
 70
     32
  0
VERTEX
  8
MY3DLAYER
10
90.34671708797566
20
61.34671708797608
30
5.404097300584656e-14
 70
     32
  0
VERTEX
  8
MY3DLAYER
10
90.42031862144279
20
61.344910271204206
30
5.401068149395705e-14
 70
     32
  0
VERTEX
  8
MY3DLAYER
10
90.493742820019
20
61.339494175861994
30
5.398168011565221e-14
 70
     32
  0
VERTEX
  8
MY3DLAYER
10
90.56681282073215
20
61.33048184979728
30
5.3954038728408145e-14
 70
     32
  0
VERTEX
  8
MY3DLAYER
10
90.639352591552
20
61.317895004492854
30
5.39278239227471e-14
 70
     32
  0
VERTEX
  8
MY3DLAYER
10
90.71118737781855
20
61.30176396276108
30
5.390309885243143e-14
 70
     32
  0
VERTEX
  8
MY3DLAYER
10
90.78214412324141
20
61.28212758569428
30
5.387992308232064e-14
 70
     32
  0
VERTEX
  8
MY3DLAYER
10
90.85205188680733
20
61.25903317904409
30
5.3858352444874514e-14
 70
     32
  0
VERTEX
  8
MY3DLAYER
10
90.92074225459234
20
61.232536379258526
30
5.3838438905647235e-14
 70
     32
  0
VERTEX
  8
MY3DLAYER
10
90.9880497454854
20
61.20270101944859
30
5.3820230438098884e-14
 70
     32
  0
VERTEX
  8
MY3DLAYER
10
91.05381220984705
20
61.16959897560831
30
5.380377090802202e-14
 70
     32
  0
VERTEX
  8
MY3DLAYER
10
91.11787122014208
20
61.1333099934604
30
5.3789099967866005e-14
 70
     32
  0
VERTEX
  8
MY3DLAYER
10
91.18007245260522
20
61.09392149634033
30
5.3776252961210294e-14
 70
     32
  0
VERTEX
  8
MY3DLAYER
10
91.24026605902066
20
61.05152837458671
30
5.3765260837618986e-14
 70
     32
  0
VERTEX
  8
MY3DLAYER
10
91.29830702771967
20
61.00623275694219
30
5.3756150078080223e-14
 70
     32
  0
VERTEX
  8
MY3DLAYER
10
91.35405553292611
20
60.95814376451602
30
5.3748942631211685e-14
 70
     32
  0
VERTEX
  8
MY3DLAYER
10
91.40737727160929
20
60.907377247902076
30
5.3743655860383924e-14
 70
     32
  0
VERTEX
  8
MY3DLAYER
10
91.45814378703146
20
60.85405550808423
30
5.37403025018908e-14
 70
     32
  0
VERTEX
  8
MY3DLAYER
10
91.50623277821151
20
60.79830700180287
30
5.373889063426664e-14
 70
     32
  0
VERTEX
  8
MY3DLAYER
10
91.55152839455867
20
60.74026603209137
30
5.373942365882417e-14
 70
     32
  0
VERTEX
  8
MY3DLAYER
10
91.59392151496682
20
60.680072424728365
30
5.374190029146037e-14
 70
     32
  0
VERTEX
  8
MY3DLAYER
10
91.63331001069663
20
60.617871191384864
30
5.374631456575063e-14
 70
     32
  0
VERTEX
  8
MY3DLAYER
10
91.66959899141281
20
60.55381218027868
30
5.375265584732148e-14
 70
     32
  0
VERTEX
  8
MY3DLAYER
10
91.70270103378301
20
60.488049715177205
30
5.376090885947039e-14
 70
     32
  0
VERTEX
  8
MY3DLAYER
10
91.73253639208862
20
60.42074222361718
30
5.377105371996832e-14
 70
     32
  0
VERTEX
  8
MY3DLAYER
10
91.75903319033885
20
60.35205185524008
30
5.3783065988958026e-14
 70
     32
  0
VERTEX
  8
MY3DLAYER
10
91.78212759542643
20
60.28214409115785
30
5.3796916727831686e-14
 70
     32
  0
VERTEX
  8
MY3DLAYER
10
91.80176397090732
20
60.21118734529615
30
5.381257256894643e-14
 70
     32
  0
VERTEX
  8
MY3DLAYER
10
91.81789501103334
20
60.139352558668925
30
5.382999579601018e-14
 70
     32
  0
VERTEX
  8
MY3DLAYER
10
91.8304818547164
20
60.0668127875678
30
5.3849144434943e-14
 70
     32
  0
VERTEX
  8
MY3DLAYER
10
91.83949417914783
20
59.99374278665323
30
5.38699723549972e-14
 70
     32
  0
VERTEX
  8
MY3DLAYER
10
91.8449102728489
20
59.920318587955926
30
5.389242937988926e-14
 70
     32
  0
VERTEX
  8
MY3DLAYER
10
91.84671708797565
20
59.846717076800154
30
5.3916461408680006e-14
 70
     32
  0
VERTEX
  8
MY3DLAYER
10
91.8449102717522
20
59.773115565671354
30
5.394201054610751e-14
 70
     32
  0
VERTEX
  8
MY3DLAYER
10
91.839494176957
20
59.69969136705482
30
5.396901524206246e-14
 70
     32
  0
VERTEX
  8
MY3DLAYER
10
91.8304818514367
20
59.62662136627452
30
5.3997410439867695e-14
 70
     32
  0
VERTEX
  8
MY3DLAYER
10
91.81789500667273
20
59.55408159536091
30
5.402712773300503e-14
 70
     32
  0
VERTEX
  8
MY3DLAYER
10
91.80176396547628
20
59.48224680897408
30
5.405809552991318e-14
 70
     32
  0
VERTEX
  8
MY3DLAYER
10
91.78212758893807
20
59.41129006340494
30
5.409023922645765e-14
 70
     32
  0
VERTEX
  8
MY3DLAYER
10
91.75903318280878
20
59.341382299666975
30
5.41234813856587e-14
 70
     32
  0
VERTEX
  8
MY3DLAYER
10
91.73253638353496
20
59.272691931684484
30
5.415774192424397e-14
 70
     32
  0
VERTEX
  8
MY3DLAYER
10
91.70270102422643
20
59.20538444056916
30
5.419293830557582e-14
 70
     32
  0
VERTEX
  8
MY3DLAYER
10
91.66959898087624
20
59.13962197596093
30
5.422898573848961e-14
 70
     32
  0
VERTEX
  8
MY3DLAYER
10
91.63330999920557
20
59.075562965395456
30
5.4265797381563006e-14
 70
     32
  0
VERTEX
  8
MY3DLAYER
10
91.59392150254887
20
59.01336173263887
30
5.4303284552324196e-14
 70
     32
  0
VERTEX
  8
MY3DLAYER
10
91.55152838124378
20
58.95316812590754
30
5.434135694089631e-14
 70
     32
  0
VERTEX
  8
MY3DLAYER
10
91.50623276403168
20
58.89512715687112
30
5.437992282756134e-14
 70
     32
  0
VERTEX
  8
MY3DLAYER
10
91.45814377202093
20
58.83937865130635
30
5.441888930372125e-14
 70
     32
  0
VERTEX
  8
MY3DLAYER
10
91.40737725580422
20
58.786056912244966
30
5.445816249572277e-14
 70
     32
  0
VERTEX
  8
MY3DLAYER
10
91.35405551636457
20
58.73529039642558
30
5.449764779100736e-14
 70
     32
  0
VERTEX
  8
MY3DLAYER
10
91.29830701044155
20
58.68720140483015
30
5.4537250066041084e-14
 70
     32
  0
VERTEX
  8
MY3DLAYER
10
91.24026604106758
20
58.64190578805057
30
5.457687391547551e-14
 70
     32
  0
VERTEX
  8
MY3DLAYER
10
91.18007243402042
20
58.599512667193835
30
5.461642388198772e-14
 70
     32
  0
VERTEX
  8
MY3DLAYER
10
91.11787120097037
20
58.56012417100061
30
5.465580468624503e-14
 70
     32
  0
VERTEX
  8
MY3DLAYER
10
91.0538121901346
20
58.52383518980715
30
5.469492145644144e-14
 70
     32
  0
VERTEX
  8
MY3DLAYER
10
90.98804972527964
20
58.49073314694705
30
5.473367995685246e-14
 70
     32
  0
VERTEX
  8
MY3DLAYER
10
90.92074223394202
20
58.46089778813994
30
5.477198681485644e-14
 70
     32
  0
VERTEX
  8
MY3DLAYER
10
90.85205186576218
20
58.43440098937796
30
5.4809749745878105e-14
 70
     32
  0
VERTEX
  8
MY3DLAYER
10
90.78214410185213
20
58.41130658376939
30
5.4846877775709794e-14
 70
     32
  0
VERTEX
  8
MY3DLAYER
10
90.71118735613666
20
58.39167020775993
30
5.4883281459676556e-14
 70
     32
  0
VERTEX
  8
MY3DLAYER
10
90.63935256962972
20
58.375539167098744
30
5.49188730981159e-14
 70
     32
  0
VERTEX
  8
MY3DLAYER
10
90.56681279862231
20
58.36295232287511
30
5.4953566947654154e-14
 70
     32
  0
VERTEX
  8
MY3DLAYER
10
90.49374279777487
20
58.35393999789931
30
5.4987279427769865e-14
 70
     32
  0
VERTEX
  8
MY3DLAYER
10
90.42031859911795
20
58.348523903651156
30
5.5019929322146215e-14
 70
     32
  0
VERTEX
  8
MY3DLAYER
10
90.34671708797566
20
58.34671708797604
30
5.505143797432866e-14
 70
     32
  0
VERTEX
  8
MY3DLAYER
10
68.34671708797566
20
58.34671708797604
30
6.428768455684922e-14
 70
     32
  0
VERTEX
  8
MY3DLAYER
10
68.27311557683338
20
58.348523903651156
30
6.43179760597356e-14
 70
     32
  0
VERTEX
  8
MY3DLAYER
10
68.19969137817645
20
58.35393999789931
30
6.434697743844278e-14
 70
     32
  0
VERTEX
  8
MY3DLAYER
10
68.12662137732902
20
58.36295232287511
30
6.437461882611003e-14
 70
     32
  0
VERTEX
  8
MY3DLAYER
10
68.05408160632162
20
58.375539167098744
30
6.44008336322139e-14
 70
     32
  0
VERTEX
  8
MY3DLAYER
10
67.98224681981468
20
58.39167020775993
30
6.442555870299097e-14
 70
     32
  0
VERTEX
  8
MY3DLAYER
10
67.91129007409921
20
58.41130658376939
30
6.444873447358074e-14
 70
     32
  0
VERTEX
  8
MY3DLAYER
10
67.84138231018916
20
58.43440098937796
30
6.447030511152225e-14
 70
     32
  0
VERTEX
  8
MY3DLAYER
10
67.77269194200932
20
58.46089778813994
30
6.449021865126e-14
 70
     32
  0
VERTEX
  8
MY3DLAYER
10
67.70538445067169
20
58.49073314694705
30
6.450842711933284e-14
 70
     32
  0
VERTEX
  8
MY3DLAYER
10
67.63962198581675
20
58.52383518980715
30
6.452488664994686e-14
 70
     32
  0
VERTEX
  8
MY3DLAYER
10
67.57556297498095
20
58.56012417100061
30
6.45395575906514e-14
 70
     32
  0
VERTEX
  8
MY3DLAYER
10
67.51336174193091
20
58.599512667193835
30
6.455240459786575e-14
 70
     32
  0
VERTEX
  8
MY3DLAYER
10
67.45316813488375
20
58.64190578805057
30
6.456339672202434e-14
 70
     32
  0
VERTEX
  8
MY3DLAYER
10
67.39512716550979
20
58.68720140483015
30
6.457250748213778e-14
 70
     32
  0
VERTEX
  8
MY3DLAYER
10
67.33937865958677
20
58.73529039642558
30
6.457971492958699e-14
 70
     32
  0
VERTEX
  8
MY3DLAYER
10
67.2860569201471
20
58.786056912244966
30
6.45850017009999e-14
 70
     32
  0
VERTEX
  8
MY3DLAYER
10
67.23529040393039
20
58.83937865130635
30
6.45883550600814e-14
 70
     32
  0
VERTEX
  8
MY3DLAYER
10
67.18720141191965
20
58.89512715687112
30
6.458976692829578e-14
 70
     32
  0
VERTEX
  8
MY3DLAYER
10
67.14190579470755
20
58.95316812590754
30
6.45892339043287e-14
 70
     32
  0
VERTEX
  8
MY3DLAYER
10
67.09951267340246
20
59.01336173263887
30
6.458675727228176e-14
 70
     32
  0
VERTEX
  8
MY3DLAYER
10
67.06012417674576
20
59.075562965395456
30
6.458234299857834e-14
 70
     32
  0
VERTEX
  8
MY3DLAYER
10
67.02383519507508
20
59.13962197596093
30
6.45760017175904e-14
 70
     32
  0
VERTEX
  8
MY3DLAYER
10
66.9907331517249
20
59.20538444056916
30
6.456774870601904e-14
 70
     32
  0
VERTEX
  8
MY3DLAYER
10
66.96089779241636
20
59.272691931684484
30
6.455760384609192e-14
 70
     32
  0
VERTEX
  8
MY3DLAYER
10
66.93440099314256
20
59.341382299666975
30
6.454559157766486e-14
 70
     32
  0
VERTEX
  8
MY3DLAYER
10
66.91130658701326
20
59.41129006340494
30
6.453174083934446e-14
 70
     32
  0
VERTEX
  8
MY3DLAYER
10
66.89167021047504
20
59.48224680897408
30
6.451608499877225e-14
 70
     32
  0
VERTEX
  8
MY3DLAYER
10
66.87553916927861
20
59.55408159536091
30
6.449866177223891e-14
 70
     32
  0
VERTEX
  8
MY3DLAYER
10
66.86295232451462
20
59.62662136627452
30
6.447951313382297e-14
 70
     32
  0
VERTEX
  8
MY3DLAYER
10
66.85393999899432
20
59.69969136705482
30
6.445868521427122e-14
 70
     32
  0
VERTEX
  8
MY3DLAYER
10
66.84852390419914
20
59.773115565671354
30
6.443622818986558e-14
 70
     32
  0
VERTEX
  8
MY3DLAYER
10
66.84671708797565
20
59.846717076800154
30
6.441219616154435e-14
 70
     32
  0
VERTEX
  8
MY3DLAYER
10
66.84852390310242
20
59.920318587955926
30
6.438664702456823e-14
 70
     32
  0
VERTEX
  8
MY3DLAYER
10
66.8539399968035
20
59.99374278665323
30
6.435964232904545e-14
 70
     32
  0
VERTEX
  8
MY3DLAYER
10
66.86295232123493
20
60.0668127875678
30
6.433124713165217e-14
 70
     32
  0
VERTEX
  8
MY3DLAYER
10
66.87553916491798
20
60.139352558668925
30
6.430152983890539e-14
 70
     32
  0
VERTEX
  8
MY3DLAYER
10
66.89167020504401
20
60.21118734529615
30
6.427056204236569e-14
 70
     32
  0
VERTEX
  8
MY3DLAYER
10
66.91130658052491
20
60.28214409115785
30
6.423841834616657e-14
 70
     32
  0
VERTEX
  8
MY3DLAYER
10
66.93440098561247
20
60.35205185524008
30
6.420517618728692e-14
 70
     32
  0
VERTEX
  8
MY3DLAYER
10
66.9608977838627
20
60.42074222361718
30
6.417091564899844e-14
 70
     32
  0
VERTEX
  8
MY3DLAYER
10
66.99073314216832
20
60.488049715177205
30
6.413571926793789e-14
 70
     32
  0
VERTEX
  8
MY3DLAYER
10
67.02383518453851
20
60.55381218027868
30
6.409967183526935e-14
 70
     32
  0
VERTEX
  8
MY3DLAYER
10
67.06012416525469
20
60.617871191384864
30
6.406286019241461e-14
 70
     32
  0
VERTEX
  8
MY3DLAYER
10
67.0995126609845
20
60.680072424728365
30
6.402537302184481e-14
 70
     32
  0
VERTEX
  8
MY3DLAYER
10
67.14190578139267
20
60.74026603209137
30
6.398730063343652e-14
 70
     32
  0
VERTEX
  8
MY3DLAYER
10
67.18720139773981
20
60.79830700180287
30
6.394873474690726e-14
 70
     32
  0
VERTEX
  8
MY3DLAYER
10
67.23529038891988
20
60.85405550808423
30
6.390976827085475e-14
 70
     32
  0
VERTEX
  8
MY3DLAYER
10
67.28605690434203
20
60.907377247902076
30
6.387049507893201e-14
 70
     32
  0
VERTEX
  8
MY3DLAYER
10
67.33937864302521
20
60.95814376451602
30
6.383100978369736e-14
 70
     32
  0
VERTEX
  8
MY3DLAYER
10
67.39512714823165
20
61.00623275694219
30
6.379140750868472e-14
 70
     32
  0
VERTEX
  8
MY3DLAYER
10
67.45316811693067
20
61.05152837458671
30
6.375178365924227e-14
 70
     32
  0
VERTEX
  8
MY3DLAYER
10
67.51336172334612
20
61.09392149634033
30
6.371223369269319e-14
 70
     32
  0
VERTEX
  8
MY3DLAYER
10
67.57556295580925
20
61.1333099934604
30
6.367285288837017e-14
 70
     32
  0
VERTEX
  8
MY3DLAYER
10
67.63962196610427
20
61.16959897560831
30
6.363373611807917e-14
 70
     32
  0
VERTEX
  8
MY3DLAYER
10
67.70538443046593
20
61.20270101944859
30
6.359497761754529e-14
 70
     32
  0
VERTEX
  8
MY3DLAYER
10
67.772691921359
20
61.232536379258526
30
6.355667075939015e-14
 70
     32
  0
VERTEX
  8
MY3DLAYER
10
67.841382289144
20
61.25903317904409
30
6.351890782818944e-14
 70
     32
  0
VERTEX
  8
MY3DLAYER
10
67.91129005270992
20
61.28212758569428
30
6.348177979815136e-14
 70
     32
  0
VERTEX
  8
MY3DLAYER
10
67.98224679813278
20
61.30176396276108
30
6.344537611395128e-14
 70
     32
  0
VERTEX
  8
MY3DLAYER
10
68.05408158439933
20
61.317895004492854
30
6.340978447525234e-14
 70
     32
  0
VERTEX
  8
MY3DLAYER
10
68.12662135521917
20
61.33048184979728
30
6.337509062542876e-14
 70
     32
  0
VERTEX
  8
MY3DLAYER
10
68.19969135593233
20
61.339494175861994
30
6.334137814500263e-14
 70
     32
  0
VERTEX
  8
MY3DLAYER
10
68.27311555450854
20
61.344910271204206
30
6.330872825029167e-14
 70
     32
  0
VERTEX
  8
MY3DLAYER
10
68.34671708797566
20
61.34671708797608
30
6.327721958836721e-14
 70
     32
  0
SEQEND
  0
POLYLINE
 8
Layer0
 66
     1
70
    8
 10
0.0
 20
 0.0
 30
0.0
  0
VERTEX
  8
MY3DLAYER
10
91.83949417914783
20
98.9937427866532
30
4.691828079013613e-14
 70
     32
  0
VERTEX
  8
MY3DLAYER
10
91.8449102728489
20
98.9203185879559
30
4.694073781502828e-14
 70
     32
  0
VERTEX
  8
MY3DLAYER
10
91.84671708797565
20
98.84671707680012
30
4.6964769843819017e-14
 70
     32
  0
VERTEX
  8
MY3DLAYER
10
91.8449102717522
20
98.77311556567133
30
4.6990318981246444e-14
 70
     32
  0
VERTEX
  8
MY3DLAYER
10
91.839494176957
20
98.6996913670548
30
4.701732367720147e-14
 70
     32
  0
VERTEX
  8
MY3DLAYER
10
91.8304818514367
20
98.62662136627449
30
4.7045718875006624e-14
 70
     32
  0
VERTEX
  8
MY3DLAYER
10
91.81789500667273
20
98.55408159536088
30
4.707543616814397e-14
 70
     32
  0
VERTEX
  8
MY3DLAYER
10
91.80176396547628
20
98.48224680897405
30
4.710640396505219e-14
 70
     32
  0
VERTEX
  8
MY3DLAYER
10
91.78212758893807
20
98.41129006340492
30
4.713854766159658e-14
 70
     32
  0
VERTEX
  8
MY3DLAYER
10
91.75903318280878
20
98.34138229966695
30
4.7171789820797714e-14
 70
     32
  0
VERTEX
  8
MY3DLAYER
10
91.73253638353496
20
98.27269193168446
30
4.72060503593829e-14
 70
     32
  0
VERTEX
  8
MY3DLAYER
10
91.70270102422643
20
98.20538444056913
30
4.7241246740714754e-14
 70
     32
  0
VERTEX
  8
MY3DLAYER
10
91.66959898087624
20
98.1396219759609
30
4.727729417362862e-14
 70
     32
  0
VERTEX
  8
MY3DLAYER
10
91.63330999920557
20
98.07556296539543
30
4.731410581670194e-14
 70
     32
  0
VERTEX
  8
MY3DLAYER
10
91.59392150254887
20
98.01336173263884
30
4.7351592987463125e-14
 70
     32
  0
VERTEX
  8
MY3DLAYER
10
91.55152838124378
20
97.95316812590751
30
4.7389665376035236e-14
 70
     32
  0
VERTEX
  8
MY3DLAYER
10
91.50623276403168
20
97.8951271568711
30
4.742823126270027e-14
 70
     32
  0
VERTEX
  8
MY3DLAYER
10
91.45814377202093
20
97.83937865130632
30
4.746719773886018e-14
 70
     32
  0
VERTEX
  8
MY3DLAYER
10
91.40737725580422
20
97.78605691224494
30
4.750647093086171e-14
 70
     32
  0
VERTEX
  8
MY3DLAYER
10
91.35405551636457
20
97.73529039642555
30
4.754595622614637e-14
 70
     32
  0
VERTEX
  8
MY3DLAYER
10
91.29830701044155
20
97.68720140483012
30
4.7585558501180095e-14
 70
     32
  0
VERTEX
  8
MY3DLAYER
10
91.24026604106758
20
97.64190578805055
30
4.762518235061452e-14
 70
     32
  0
VERTEX
  8
MY3DLAYER
10
91.18007243402042
20
97.5995126671938
30
4.766473231712673e-14
 70
     32
  0
VERTEX
  8
MY3DLAYER
10
91.11787120097037
20
97.56012417100058
30
4.770411312138396e-14
 70
     32
  0
VERTEX
  8
MY3DLAYER
10
91.0538121901346
20
97.52383518980713
30
4.774322989158045e-14
 70
     32
  0
VERTEX
  8
MY3DLAYER
10
90.98804972527964
20
97.49073314694702
30
4.7781988391991397e-14
 70
     32
  0
VERTEX
  8
MY3DLAYER
10
90.92074223394202
20
97.4608977881399
30
4.782029524999537e-14
 70
     32
  0
VERTEX
  8
MY3DLAYER
10
90.85205186576218
20
97.43440098937793
30
4.7858058181017034e-14
 70
     32
  0
VERTEX
  8
MY3DLAYER
10
90.78214410185213
20
97.41130658376936
30
4.789518621084872e-14
 70
     32
  0
VERTEX
  8
MY3DLAYER
10
90.71118735613666
20
97.3916702077599
30
4.793158989481549e-14
 70
     32
  0
VERTEX
  8
MY3DLAYER
10
90.63935256962972
20
97.37553916709871
30
4.796718153325484e-14
 70
     32
  0
VERTEX
  8
MY3DLAYER
10
90.56681279862231
20
97.36295232287509
30
4.8001875382793165e-14
 70
     32
  0
VERTEX
  8
MY3DLAYER
10
90.49374279777487
20
97.35393999789929
30
4.8035587862908794e-14
 70
     32
  0
VERTEX
  8
MY3DLAYER
10
90.42031859911795
20
97.34852390365113
30
4.806823775728515e-14
 70
     32
  0
VERTEX
  8
MY3DLAYER
10
90.34671708797566
20
97.34671708797602
30
4.8099746409467586e-14
 70
     32
  0
VERTEX
  8
MY3DLAYER
10
68.34671708797566
20
97.34671708797602
30
5.733599299198823e-14
 70
     32
  0
VERTEX
  8
MY3DLAYER
10
68.27311557683338
20
97.34852390365113
30
5.736628449487453e-14
 70
     32
  0
VERTEX
  8
MY3DLAYER
10
68.19969137817645
20
97.35393999789929
30
5.739528587358179e-14
 70
     32
  0
VERTEX
  8
MY3DLAYER
10
68.12662137732902
20
97.36295232287509
30
5.742292726124897e-14
 70
     32
  0
VERTEX
  8
MY3DLAYER
10
68.05408160632162
20
97.37553916709871
30
5.744914206735282e-14
 70
     32
  0
VERTEX
  8
MY3DLAYER
10
67.98224681981468
20
97.3916702077599
30
5.747386713812998e-14
 70
     32
  0
VERTEX
  8
MY3DLAYER
10
67.91129007409921
20
97.41130658376936
30
5.749704290871967e-14
 70
     32
  0
VERTEX
  8
MY3DLAYER
10
67.84138231018916
20
97.43440098937793
30
5.751861354666127e-14
 70
     32
  0
VERTEX
  8
MY3DLAYER
10
67.77269194200932
20
97.4608977881399
30
5.753852708639893e-14
 70
     32
  0
VERTEX
  8
MY3DLAYER
10
67.70538445067169
20
97.49073314694702
30
5.755673555447177e-14
 70
     32
  0
VERTEX
  8
MY3DLAYER
10
67.63962198581675
20
97.52383518980713
30
5.757319508508587e-14
 70
     32
  0
VERTEX
  8
MY3DLAYER
10
67.57556297498095
20
97.56012417100058
30
5.758786602579042e-14
 70
     32
  0
VERTEX
  8
MY3DLAYER
10
67.51336174193091
20
97.5995126671938
30
5.760071303300468e-14
 70
     32
  0
VERTEX
  8
MY3DLAYER
10
67.45316813488375
20
97.64190578805055
30
5.761170515716335e-14
 70
     32
  0
VERTEX
  8
MY3DLAYER
10
67.39512716550979
20
97.68720140483012
30
5.76208159172767e-14
 70
     32
  0
VERTEX
  8
MY3DLAYER
10
67.33937865958677
20
97.73529039642555
30
5.762802336472591e-14
 70
     32
  0
VERTEX
  8
MY3DLAYER
10
67.2860569201471
20
97.78605691224494
30
5.763331013613891e-14
 70
     32
  0
VERTEX
  8
MY3DLAYER
10
67.23529040393039
20
97.83937865130632
30
5.763666349522042e-14
 70
     32
  0
VERTEX
  8
MY3DLAYER
10
67.18720141191965
20
97.8951271568711
30
5.76380753634347e-14
 70
     32
  0
VERTEX
  8
MY3DLAYER
10
67.14190579470755
20
97.95316812590751
30
5.763754233946771e-14
 70
     32
  0
VERTEX
  8
MY3DLAYER
10
67.09951267340246
20
98.01336173263884
30
5.763506570742068e-14
 70
     32
  0
VERTEX
  8
MY3DLAYER
10
67.06012417674576
20
98.07556296539543
30
5.763065143371735e-14
 70
     32
  0
VERTEX
  8
MY3DLAYER
10
67.02383519507508
20
98.1396219759609
30
5.762431015272933e-14
 70
     32
  0
VERTEX
  8
MY3DLAYER
10
66.9907331517249
20
98.20538444056913
30
5.761605714115797e-14
 70
     32
  0
VERTEX
  8
MY3DLAYER
10
66.96089779241636
20
98.27269193168446
30
5.760591228123085e-14
 70
     32
  0
VERTEX
  8
MY3DLAYER
10
66.93440099314256
20
98.34138229966695
30
5.759390001280387e-14
 70
     32
  0
VERTEX
  8
MY3DLAYER
10
66.91130658701326
20
98.41129006340492
30
5.758004927448347e-14
 70
     32
  0
VERTEX
  8
MY3DLAYER
10
66.89167021047504
20
98.48224680897405
30
5.756439343391118e-14
 70
     32
  0
VERTEX
  8
MY3DLAYER
10
66.87553916927861
20
98.55408159536088
30
5.754697020737784e-14
 70
     32
  0
VERTEX
  8
MY3DLAYER
10
66.86295232451462
20
98.62662136627449
30
5.75278215689619e-14
 70
     32
  0
VERTEX
  8
MY3DLAYER
10
66.85393999899432
20
98.6996913670548
30
5.750699364941016e-14
 70
     32
  0
VERTEX
  8
MY3DLAYER
10
66.84852390419914
20
98.77311556567133
30
5.74845366250045e-14
 70
     32
  0
VERTEX
  8
MY3DLAYER
10
66.84671708797565
20
98.84671707680012
30
5.746050459668336e-14
 70
     32
  0
VERTEX
  8
MY3DLAYER
10
66.84852390310242
20
98.9203185879559
30
5.743495545970716e-14
 70
     32
  0
VERTEX
  8
MY3DLAYER
10
66.8539399968035
20
98.9937427866532
30
5.740795076418437e-14
 70
     32
  0
VERTEX
  8
MY3DLAYER
10
66.86295232123493
20
99.06681278756777
30
5.73795555667911e-14
 70
     32
  0
VERTEX
  8
MY3DLAYER
10
66.87553916491798
20
99.1393525586689
30
5.73498382740444e-14
 70
     32
  0
VERTEX
  8
MY3DLAYER
10
66.89167020504401
20
99.21118734529612
30
5.731887047750462e-14
 70
     32
  0
VERTEX
  8
MY3DLAYER
10
66.91130658052491
20
99.28214409115782
30
5.728672678130551e-14
 70
     32
  0
VERTEX
  8
MY3DLAYER
10
66.93440098561247
20
99.35205185524005
30
5.725348462242584e-14
 70
     32
  0
VERTEX
  8
MY3DLAYER
10
66.9608977838627
20
99.42074222361715
30
5.721922408413745e-14
 70
     32
  0
VERTEX
  8
MY3DLAYER
10
66.99073314216832
20
99.48804971517718
30
5.71840277030769e-14
 70
     32
  0
VERTEX
  8
MY3DLAYER
10
67.02383518453851
20
99.55381218027865
30
5.714798027040829e-14
 70
     32
  0
VERTEX
  8
MY3DLAYER
10
67.06012416525469
20
99.61787119138484
30
5.711116862755353e-14
 70
     32
  0
VERTEX
  8
MY3DLAYER
10
67.0995126609845
20
99.68007242472834
30
5.707368145698382e-14
 70
     32
  0
VERTEX
  8
MY3DLAYER
10
67.14190578139267
20
99.74026603209134
30
5.703560906857553e-14
 70
     32
  0
VERTEX
  8
MY3DLAYER
10
67.18720139773981
20
99.79830700180284
30
5.699704318204627e-14
 70
     32
  0
VERTEX
  8
MY3DLAYER
10
67.23529038891988
20
99.8540555080842
30
5.695807670599377e-14
 70
     32
  0
VERTEX
  8
MY3DLAYER
10
67.28605690434203
20
99.90737724790205
30
5.691880351407095e-14
 70
     32
  0
VERTEX
  8
MY3DLAYER
10
67.33937864302521
20
99.958143764516
30
5.687931821883629e-14
 70
     32
  0
VERTEX
  8
MY3DLAYER
10
67.39512714823165
20
100.00623275694217
30
5.6839715943823645e-14
 70
     32
  0
VERTEX
  8
MY3DLAYER
10
67.45316811693067
20
100.05152837458668
30
5.6800092094381203e-14
 70
     32
  0
VERTEX
  8
MY3DLAYER
10
67.51336172334612
20
100.0939214963403
30
5.6760542127832126e-14
 70
     32
  0
VERTEX
  8
MY3DLAYER
10
67.57556295580925
20
100.13330999346037
30
5.6721161323509096e-14
 70
     32
  0
VERTEX
  8
MY3DLAYER
10
67.63962196610427
20
100.16959897560828
30
5.668204455321811e-14
 70
     32
  0
VERTEX
  8
MY3DLAYER
10
67.70538443046593
20
100.20270101944857
30
5.6643286052684215e-14
 70
     32
  0
VERTEX
  8
MY3DLAYER
10
67.772691921359
20
100.2325363792585
30
5.660497919452908e-14
 70
     32
  0
VERTEX
  8
MY3DLAYER
10
67.841382289144
20
100.25903317904405
30
5.6567216263328367e-14
 70
     32
  0
VERTEX
  8
MY3DLAYER
10
67.91129005270992
20
100.28212758569425
30
5.653008823329029e-14
 70
     32
  0
VERTEX
  8
MY3DLAYER
10
67.98224679813278
20
100.30176396276104
30
5.649368454909022e-14
 70
     32
  0
VERTEX
  8
MY3DLAYER
10
68.05408158439933
20
100.31789500449283
30
5.645809291039127e-14
 70
     32
  0
VERTEX
  8
MY3DLAYER
10
68.12662135521917
20
100.33048184979725
30
5.6423399060567694e-14
 70
     32
  0
VERTEX
  8
MY3DLAYER
10
68.19969135593233
20
100.33949417586197
30
5.638968658014165e-14
 70
     32
  0
VERTEX
  8
MY3DLAYER
10
68.27311555450854
20
100.34491027120418
30
5.6357036685430597e-14
 70
     32
  0
VERTEX
  8
MY3DLAYER
10
68.34671708797566
20
100.34671708797606
30
5.632552802350614e-14
 70
     32
  0
VERTEX
  8
MY3DLAYER
10
90.34671708797566
20
100.34671708797606
30
4.7089281440985497e-14
 70
     32
  0
VERTEX
  8
MY3DLAYER
10
90.42031862144279
20
100.34491027120418
30
4.705898992909598e-14
 70
     32
  0
VERTEX
  8
MY3DLAYER
10
90.493742820019
20
100.33949417586197
30
4.702998855079122e-14
 70
     32
  0
VERTEX
  8
MY3DLAYER
10
90.56681282073215
20
100.33048184979725
30
4.7002347163547074e-14
 70
     32
  0
VERTEX
  8
MY3DLAYER
10
90.639352591552
20
100.31789500449283
30
4.697613235788603e-14
 70
     32
  0
VERTEX
  8
MY3DLAYER
10
90.71118737781855
20
100.30176396276104
30
4.695140728757037e-14
 70
     32
  0
VERTEX
  8
MY3DLAYER
10
90.78214412324141
20
100.28212758569425
30
4.692823151745965e-14
 70
     32
  0
VERTEX
  8
MY3DLAYER
10
90.85205188680733
20
100.25903317904405
30
4.690666088001345e-14
 70
     32
  0
VERTEX
  8
MY3DLAYER
10
90.92074225459234
20
100.2325363792585
30
4.688674734078625e-14
 70
     32
  0
VERTEX
  8
MY3DLAYER
10
90.9880497454854
20
100.20270101944857
30
4.6868538873237895e-14
 70
     32
  0
VERTEX
  8
MY3DLAYER
10
91.05381220984705
20
100.16959897560828
30
4.685207934316104e-14
 70
     32
  0
VERTEX
  8
MY3DLAYER
10
91.11787122014208
20
100.13330999346037
30
4.6837408403004934e-14
 70
     32
  0
VERTEX
  8
MY3DLAYER
10
91.18007245260522
20
100.0939214963403
30
4.6824561396349305e-14
 70
     32
  0
VERTEX
  8
MY3DLAYER
10
91.24026605902066
20
100.05152837458668
30
4.681356927275792e-14
 70
     32
  0
VERTEX
  8
MY3DLAYER
10
91.29830702771967
20
100.00623275694217
30
4.6804458513219234e-14
 70
     32
  0
VERTEX
  8
MY3DLAYER
10
91.35405553292611
20
99.958143764516
30
4.679725106635062e-14
 70
     32
  0
VERTEX
  8
MY3DLAYER
10
91.40737727160929
20
99.90737724790205
30
4.6791964295522935e-14
 70
     32
  0
VERTEX
  8
MY3DLAYER
10
91.45814378703146
20
99.8540555080842
30
4.6788610937029815e-14
 70
     32
  0
VERTEX
  8
MY3DLAYER
10
91.50623277821151
20
99.79830700180284
30
4.6787199069405574e-14
 70
     32
  0
VERTEX
  8
MY3DLAYER
10
91.55152839455867
20
99.74026603209134
30
4.6787732093963097e-14
 70
     32
  0
VERTEX
  8
MY3DLAYER
10
91.59392151496682
20
99.68007242472834
30
4.679020872659938e-14
 70
     32
  0
VERTEX
  8
MY3DLAYER
10
91.63331001069663
20
99.61787119138484
30
4.679462300088956e-14
 70
     32
  0
VERTEX
  8
MY3DLAYER
10
91.66959899141281
20
99.55381218027865
30
4.680096428246049e-14
 70
     32
  0
VERTEX
  8
MY3DLAYER
10
91.70270103378301
20
99.48804971517718
30
4.6809217294609326e-14
 70
     32
  0
VERTEX
  8
MY3DLAYER
10
91.73253639208862
20
99.42074222361715
30
4.681936215510733e-14
 70
     32
  0
VERTEX
  8
MY3DLAYER
10
91.75903319033885
20
99.35205185524005
30
4.6831374424096955e-14
 70
     32
  0
VERTEX
  8
MY3DLAYER
10
91.78212759542643
20
99.28214409115782
30
4.6845225162970615e-14
 70
     32
  0
VERTEX
  8
MY3DLAYER
10
91.80176397090732
20
99.21118734529612
30
4.686088100408544e-14
 70
     32
  0
VERTEX
  8
MY3DLAYER
10
91.81789501103334
20
99.1393525586689
30
4.687830423114911e-14
 70
     32
  0
VERTEX
  8
MY3DLAYER
10
91.8304818547164
20
99.06681278756777
30
4.689745287008201e-14
 70
     32
  0
VERTEX
  8
MY3DLAYER
10
91.83949417914783
20
98.9937427866532
30
4.691828079013613e-14
 70
     32
  0
SEQEND
 0
ENDSEC
 0
EOF
