0
SECTION
2
HEADER
9
$INSUNITS
70
4
9
$ACADVER
1
AC1014
9
$HANDSEED
5
FFFF
0
ENDSEC
0
SECTION
2
TABLES
0
TABLE
2
VPORT
5
8
100
AcDbSymbolTable
0
ENDTAB
0
TABLE
2
LTYPE
5
5
100
AcDbSymbolTable
0
LTYPE
5
14
100
AcDbSymbolTableRecord
100
AcDbLinetypeTableRecord
2
BYBLOCK
70
0
0
LTYPE
5
15
100
AcDbSymbolTableRecord
100
AcDbLinetypeTableRecord
2
BYLAYER
70
0
0
ENDTAB
0
TABLE
2
LAYER
5
2
100
AcDbSymbolTable
70
2
0
LAYER
5
50
100
AcDbSymbolTableRecord
100
AcDbLayerTableRecord
2
0
70
0
6
CONTINUOUS
0
ENDTAB
0
TABLE
2
STYLE
5
3
100
AcDbSymbolTable
70
1
0
STYLE
5
11
100
AcDbSymbolTableRecord
100
AcDbTextStyleTableRecord
2
STANDARD
70
0
0
ENDTAB
0
TABLE
2
VIEW
5
6
100
AcDbSymbolTable
70
0
0
ENDTAB
0
TABLE
2
UCS
5
7
100
AcDbSymbolTable
70
0
0
ENDTAB
0
TABLE
2
APPID
5
9
100
AcDbSymbolTable
70
2
0
APPID
5
12
100
AcDbSymbolTableRecord
100
AcDbRegAppTableRecord
2
ACAD
70
0
0
ENDTAB
0
TABLE
2
DIMSTYLE
5
A
100
AcDbSymbolTable
70
1
0
ENDTAB
0
TABLE
2
BLOCK_RECORD
5
1
100
AcDbSymbolTable
70
1
0
BLOCK_RECORD
5
1F
100
AcDbSymbolTableRecord
100
AcDbBlockTableRecord
2
*MODEL_SPACE
0
BLOCK_RECORD
5
1B
100
AcDbSymbolTableRecord
100
AcDbBlockTableRecord
2
*PAPER_SPACE
0
ENDTAB
0
ENDSEC
0
SECTION
2
BLOCKS
0
BLOCK
5
20
100
AcDbEntity
100
AcDbBlockBegin
2
*MODEL_SPACE
0
ENDBLK
5
21
100
AcDbEntity
100
AcDbBlockEnd
0
BLOCK
5
1C
100
AcDbEntity
100
AcDbBlockBegin
2
*PAPER_SPACE
0
ENDBLK
5
1D
100
AcDbEntity
100
AcDbBlockEnd
0
ENDSEC
0
SECTION
2
ENTITIES
0
LWPOLYLINE
5
100
100
AcDbEntity
8
0
100
AcDbPolyline
90
4
70
1
43
0.0
10
6.0000000000000018
20
-37.000000610947602
42
-0.99999999999999989
10
8.0000000000000018
20
-37.000000610947602
10
7.9999999999999991
20
-40.000000610947609
42
-0.99999999999999989
10
6
20
-40.000000610947609
0
LWPOLYLINE
5
101
100
AcDbEntity
8
0
100
AcDbPolyline
90
4
70
1
43
0.0
10
-6.0000000000000009
20
-40.000000610947609
10
-6.0000000000000009
20
-37.000000610947609
42
0.99999999999999989
10
-8
20
-37.000000610947609
10
-8.0000000000000018
20
-40.000000610947609
42
0.99999999999999989
0
CIRCLE
5
102
100
AcDbEntity
8
0
100
AcDbCircle
10
0
20
24.000000298023224
30
0
40
6
0
CIRCLE
5
103
100
AcDbEntity
8
0
100
AcDbCircle
10
0
20
0
30
0
40
6.0000000000000009
0
CIRCLE
5
104
100
AcDbEntity
8
0
100
AcDbCircle
10
0
20
-24.000000298023224
30
0
40
6.0000000000000009
0
CIRCLE
5
105
100
AcDbEntity
8
0
100
AcDbCircle
10
-12.000000238418579
20
-41.000000670552254
30
0
40
1.5000000000000002
0
CIRCLE
5
106
100
AcDbEntity
8
0
100
AcDbCircle
10
12.000000238418579
20
-41.000000670552254
30
0
40
1.5000000000000002
0
LWPOLYLINE
5
107
100
AcDbEntity
8
0
100
AcDbPolyline
90
72
70
1
43
0.0
10
-12.000000238418579
20
-45.000000670552254
42
-0.41421356237309503
10
-16.000000238418583
20
-41.000000670552254
10
-16.000000238418579
20
-31.914165778754334
42
0.63797176740945261
10
-22.578998621285823
20
-28.856590376385949
10
-45.367843285807311
20
-48.078485441243217
42
0.13165249758739661
10
-45.959477002906794
20
-48.928053751925503
10
-48.918432743820844
20
-57.123033307814232
42
-0.26794919243111798
10
-50.44722044500503
20
-58.41253249924786
10
-60.676982274156906
20
-60.243371902042988
42
-0.26794919243111975
10
-62.558115182690017
20
-59.564152511541081
10
-69.258549530336055
20
-51.620338594228755
42
-0.26794919243112192
10
-69.610894737684973
20
-49.651620012293229
10
-66.08156725617917
20
-39.876966692185775
42
-0.26794919243112192
10
-64.55277955499497
20
-38.587467500752147
10
-55.976241205644158
20
-37.05250856311315
42
0.13165249758739564
10
-55.039087221559456
20
-36.612577682361803
10
-21.421001915155983
20
-8.2564535543519355
42
0.22102226655781507
10
-20.000000298023224
20
-5.1988781519835534
10
-20.00000029802322
20
5.1988781519834406
42
0.2210222665578146
10
-21.421001915155973
20
8.2564535543518147
10
-55.03908722155947
20
36.612577682361795
42
0.13165249758739508
10
-55.976241205644172
20
37.052508563113136
10
-64.552779554994984
20
38.587467500752119
42
-0.26794919243112331
10
-66.08156725617917
20
39.876966692185768
10
-69.610894737684987
20
49.651620012293243
42
-0.2679491924311258
10
-69.258549530336069
20
51.62033859422877
10
-62.558115182690024
20
59.56415251154111
42
-0.26794919243111953
10
-60.676982274156906
20
60.243371902043009
10
-50.447220445005023
20
58.412532499247874
42
-0.26794919243113119
10
-48.91843274382083
20
57.123033307814239
10
-45.959477002906787
20
48.928053751925489
42
0.1316524975873952
10
-45.367843285807311
20
48.078485441243203
10
-22.578998621285823
20
28.856590376385924
42
0.63797176740945327
10
-16.000000238418579
20
31.914165778754295
10
-16.000000238418583
20
51.000000819563866
42
-0.41421356237309492
10
-12.000000238418579
20
55.000000819563866
10
12.000000238418579
20
55.000000819563866
42
-0.41421356237309492
10
16.000000238418579
20
51.000000819563866
10
16.000000238418579
20
31.91416577875437
42
0.63797176740945261
10
22.57899862128582
20
28.856590376385995
10
45.367843285807311
20
48.078485441243231
42
0.13165249758739592
10
45.959477002906802
20
48.928053751925511
10
48.918432743820865
20
57.123033307814254
42
-0.26794919243112664
10
50.447220445005044
20
58.412532499247867
10
60.676982274156927
20
60.243371902042995
42
-0.26794919243111787
10
62.558115182690024
20
59.564152511541067
10
69.258549530336069
20
51.620338594228734
42
-0.2679491924311237
10
69.610894737684973
20
49.651620012293201
10
66.081567256179156
20
39.876966692185768
42
-0.26794919243112214
10
64.552779554994956
20
38.58746750075214
10
55.976241205644186
20
37.052508563113165
42
0.13165249758739836
10
55.03908722155947
20
36.612577682361817
10
21.421001915155983
20
8.2564535543519018
42
0.22102226655781498
10
20.000000298023224
20
5.1988781519835232
10
20.00000029802322
20
-5.1988781519834433
42
0.22102226655781468
10
21.421001915155973
20
-8.2564535543518183
10
55.03908722155947
20
-36.612577682361788
42
0.13165249758739531
10
55.976241205644172
20
-37.052508563113136
10
64.552779554994984
20
-38.587467500752119
42
-0.26794919243112331
10
66.08156725617917
20
-39.876966692185768
10
69.610894737684987
20
-49.651620012293243
42
-0.2679491924311258
10
69.258549530336069
20
-51.62033859422877
10
62.558115182690024
20
-59.56415251154111
42
-0.26794919243111953
10
60.676982274156906
20
-60.243371902043009
10
50.447220445005023
20
-58.412532499247874
42
-0.26794919243113119
10
48.91843274382083
20
-57.123033307814239
10
45.959477002906787
20
-48.928053751925489
42
0.1316524975873952
10
45.367843285807311
20
-48.078485441243203
10
22.578998621285823
20
-28.856590376385924
42
0.63797176740945327
10
16.000000238418579
20
-31.914165778754295
10
16.000000238418583
20
-41.000000670552254
42
-0.41421356237309503
10
12.000000238418579
20
-45.000000670552254
0
CIRCLE
5
108
100
AcDbEntity
8
0
100
AcDbCircle
10
10.000000238418579
20
34.000000819563866
30
0
40
1
0
CIRCLE
5
109
100
AcDbEntity
8
0
100
AcDbCircle
10
-10.000000238418583
20
34.000000819563866
30
0
40
1
0
CIRCLE
5
110
100
AcDbEntity
8
0
100
AcDbCircle
10
12.000000238418577
20
51.000000819563866
30
0
40
1.5000000000000002
0
CIRCLE
5
111
100
AcDbEntity
8
0
100
AcDbCircle
10
-12.000000238418577
20
51.000000819563866
30
0
40
1.5000000000000002
0
CIRCLE
5
112
100
AcDbEntity
8
0
100
AcDbCircle
10
-15.249999999999931
20
15.249999999999932
30
0
40
1.4999999999999991
0
LWPOLYLINE
5
113
100
AcDbEntity
8
0
100
AcDbPolyline
90
4
70
1
43
0.0
10
16.5
20
-8.75
10
16.5
20
8.75
42
0.99999999999999989
10
14.000000000000002
20
8.75
10
14.000000000000002
20
-8.75
42
0.99999999999999989
0
CIRCLE
5
114
100
AcDbEntity
8
0
100
AcDbCircle
10
15.250000000000036
20
-15.250000000000071
30
0
40
1.4999999999999991
0
CIRCLE
5
115
100
AcDbEntity
8
0
100
AcDbCircle
10
-15.249999999999931
20
-15.250000000000071
30
0
40
1.4999999999999991
0
LWPOLYLINE
5
116
100
AcDbEntity
8
0
100
AcDbPolyline
90
4
70
1
43
0.0
10
-16.5
20
8.75
10
-16.5
20
-8.75
42
0.99999999999999989
10
-14.000000000000002
20
-8.75
10
-14.000000000000002
20
8.75
42
0.99999999999999989
0
CIRCLE
5
117
100
AcDbEntity
8
0
100
AcDbCircle
10
15.250000000000068
20
15.249999999999932
30
0
40
1.4999999999999991
0
LWPOLYLINE
5
118
100
AcDbEntity
8
0
100
AcDbPolyline
90
4
70
1
43
0.0
10
-52.104319387929479
20
-49.961721838287403
42
-0.99999999999999989
10
-51.935116860024834
20
-47.968892065188186
10
-50.938701973475219
20
-48.053493329140508
42
-0.99999999999999989
10
-51.107904501379871
20
-50.046323102239725
0
ARC
5
119
100
AcDbEntity
8
0
100
AcDbCircle
10
-58.049908215690103
20
54.976696762572459
30
0
40
1.0000000000000004
100
AcDbArc
50
4.8530963869913881
51
184.85309724076515
0
LINE
5
120
100
AcDbEntity
8
0
100
AcDbLine
10
-57.053493329140494
20
55.061298026524767
30
0
11
-56.968892065188179
21
54.064883139975151
31
0
0
ARC
5
121
100
AcDbEntity
8
0
100
AcDbCircle
10
-57.965306951737787
20
53.98028187602285
30
0
40
1.0000000000000004
100
AcDbArc
50
-175.14690361300862
51
4.8530955332174734
0
LINE
5
122
100
AcDbEntity
8
0
100
AcDbLine
10
-58.961721838287396
20
53.895680612070542
30
0
11
-59.046323102239711
21
54.892095498620144
31
0
0
LWPOLYLINE
5
123
100
AcDbEntity
8
0
100
AcDbPolyline
90
4
70
1
43
0.0
10
56.968892065188179
20
-54.064883139975173
42
-0.99999999999999989
10
58.961721838287396
20
-53.895680612070521
10
59.046323102239725
20
-54.892095498620144
42
-0.99999999999999989
10
57.053493329140501
20
-55.061298026524796
0
ARC
5
124
100
AcDbEntity
8
0
100
AcDbCircle
10
56.95009178430989
20
-42.023303237427555
30
0
40
1.0000000000000018
100
AcDbArc
50
4.8530963869925907
51
184.85309638699212
0
LINE
5
125
100
AcDbEntity
8
0
100
AcDbLine
10
57.946506670859499
20
-41.938701973475226
30
0
11
58.031107934811821
21
-42.935116860024849
31
0
0
ARC
5
126
100
AcDbEntity
8
0
100
AcDbCircle
10
57.034693048262213
20
-43.019718123977171
30
0
40
1.0000000000000004
100
AcDbArc
50
-175.14690361300862
51
4.8530972407651518
0
LINE
5
127
100
AcDbEntity
8
0
100
AcDbLine
10
56.038278161712604
20
-43.104319387929479
30
0
11
55.953676897760275
21
-42.107904501379878
31
0
0
LWPOLYLINE
5
128
100
AcDbEntity
8
0
100
AcDbPolyline
90
4
70
1
43
0.0
10
51.107904501379878
20
-50.046323102239739
42
-0.99999999999999989
10
50.938701973475212
20
-48.053493329140515
10
51.935116860024834
20
-47.968892065188186
42
-0.99999999999999989
10
52.104319387929479
20
-49.961721838287403
0
ARC
5
129
100
AcDbEntity
8
0
100
AcDbCircle
10
-62.980281876022843
20
48.03469304826222
30
0
40
1.0000000000000018
100
AcDbArc
50
-85.146903613007794
51
94.853096386992192
0
LINE
5
130
100
AcDbEntity
8
0
100
AcDbLine
10
-62.895680612070521
20
47.038278161712611
30
0
11
-63.892095498620129
21
46.953676897760275
31
0
0
ARC
5
131
100
AcDbEntity
8
0
100
AcDbCircle
10
-63.976696762572452
20
47.95009178430989
30
0
40
1.0000000000000018
100
AcDbArc
50
94.85309638699259
51
274.85309638699221
0
LINE
5
132
100
AcDbEntity
8
0
100
AcDbLine
10
-64.061298026524781
20
48.946506670859506
30
0
11
-63.064883139975166
21
49.031107934811828
31
0
0
LWPOLYLINE
5
133
100
AcDbEntity
8
0
100
AcDbPolyline
90
4
70
1
43
0.0
10
-58.031107934811821
20
42.935116860024834
42
-0.99999999999999989
10
-56.038278161712604
20
43.104319387929486
10
-55.953676897760275
20
42.107904501379878
42
-0.99999999999999989
10
-57.946506670859499
20
41.938701973475226
0
LWPOLYLINE
5
134
100
AcDbEntity
8
0
100
AcDbPolyline
90
4
70
1
43
0.0
10
-51.107904501379871
20
50.046323102239725
42
-0.99999999999999989
10
-50.938701973475219
20
48.053493329140508
10
-51.935116860024834
20
47.968892065188186
42
-0.99999999999999989
10
-52.104319387929479
20
49.961721838287403
0
LWPOLYLINE
5
135
100
AcDbEntity
8
0
100
AcDbPolyline
90
4
70
1
43
0.0
10
-57.946506670859499
20
-41.938701973475226
42
-0.99999999999999989
10
-55.953676897760275
20
-42.107904501379878
10
-56.038278161712604
20
-43.104319387929486
42
-0.99999999999999989
10
-58.031107934811821
20
-42.935116860024834
0
ARC
5
136
100
AcDbEntity
8
0
100
AcDbCircle
10
-62.980281876022843
20
-48.03469304826222
30
0
40
1.0000000000000018
100
AcDbArc
50
-94.853096386992206
51
85.146903613007794
0
LINE
5
137
100
AcDbEntity
8
0
100
AcDbLine
10
-63.064883139975166
20
-49.031107934811828
30
0
11
-64.061298026524753
21
-48.946506670859506
31
0
0
ARC
5
138
100
AcDbEntity
8
0
100
AcDbCircle
10
-63.976696762572452
20
-47.95009178430989
30
0
40
1.0000000000000004
100
AcDbArc
50
85.146903613009016
51
265.14690275923516
0
LINE
5
139
100
AcDbEntity
8
0
100
AcDbLine
10
-63.892095498620151
20
-46.953676897760282
30
0
11
-62.895680612070521
21
-47.038278161712611
31
0
0
LWPOLYLINE
5
140
100
AcDbEntity
8
0
100
AcDbPolyline
90
4
70
1
43
0.0
10
-58.961721838287396
20
-53.895680612070521
42
-0.99999999999999989
10
-56.968892065188179
20
-54.064883139975173
10
-57.053493329140501
20
-55.06129802652481
42
-0.99999999999999989
10
-59.046323102239725
20
-54.892095498620122
0
LWPOLYLINE
5
141
100
AcDbEntity
8
0
100
AcDbPolyline
90
4
70
1
43
0.0
10
52.104319387929472
20
49.96172183828741
42
-0.99999999999999989
10
51.935116860024841
20
47.968892065188193
10
50.938701973475219
20
48.053493329140515
42
-0.99999999999999989
10
51.107904501379871
20
50.046323102239739
0
CIRCLE
5
142
100
AcDbEntity
8
0
100
AcDbCircle
10
57.5
20
48.500000000000007
30
0
40
2.9999999999999982
0
CIRCLE
5
143
100
AcDbEntity
8
0
100
AcDbCircle
10
57.5
20
-48.500000000000007
30
0
40
2.9999999999999982
0
CIRCLE
5
144
100
AcDbEntity
8
0
100
AcDbCircle
10
-57.5
20
48.500000000000007
30
0
40
2.9999999999999982
0
CIRCLE
5
145
100
AcDbEntity
8
0
100
AcDbCircle
10
-57.5
20
-48.500000000000007
30
0
40
2.9999999999999982
0
LWPOLYLINE
5
146
100
AcDbEntity
8
0
100
AcDbPolyline
90
4
70
1
43
0.0
10
57.053493329140508
20
55.061298026524796
42
-0.99999999999999989
10
59.046323102239732
20
54.892095498620122
10
58.961721838287396
20
53.895680612070521
42
-0.99999999999999989
10
56.968892065188179
20
54.064883139975173
0
LWPOLYLINE
5
147
100
AcDbEntity
8
0
100
AcDbPolyline
90
4
70
1
43
0.0
10
56.038278161712597
20
43.104319387929493
42
-0.99999999999999989
10
58.031107934811814
20
42.935116860024827
10
57.946506670859478
20
41.938701973475204
42
-0.99999999999999989
10
55.953676897760261
20
42.107904501379885
0
ARC
5
148
100
AcDbEntity
8
0
100
AcDbCircle
10
63.976696762572445
20
47.950091784309876
30
0
40
1.0000000000000018
100
AcDbArc
50
-94.853096386992206
51
85.146903613007794
0
LINE
5
149
100
AcDbEntity
8
0
100
AcDbLine
10
63.892095498620122
20
46.953676897760268
30
0
11
62.895680612070521
21
47.03827816171259
31
0
0
ARC
5
150
100
AcDbEntity
8
0
100
AcDbCircle
10
62.980281876022843
20
48.034693048262213
30
0
40
1.0000000000000018
100
AcDbArc
50
85.146903613007794
51
265.14690361300785
0
LINE
5
151
100
AcDbEntity
8
0
100
AcDbLine
10
63.064883139975166
20
49.031107934811821
30
0
11
64.061298026524767
21
48.946506670859485
31
0
0
LWPOLYLINE
5
152
100
AcDbEntity
8
0
100
AcDbPolyline
90
4
70
1
43
0.0
10
63.892095498620129
20
-46.953676897760282
42
-0.99999999999999989
10
64.061298026524781
20
-48.946506670859506
10
63.064883139975166
20
-49.031107934811828
42
-0.99999999999999989
10
62.895680612070521
20
-47.038278161712611
0
ENDSEC
0
SECTION
2
OBJECTS
0
DICTIONARY
5
C
100
AcDbDictionary
3
ACAD_GROUP
350
D
3
ACAD_MLINESTYLE
350
17
0
DICTIONARY
5
D
100
AcDbDictionary
0
DICTIONARY
5
1A
330
C
100
AcDbDictionary
0
DICTIONARY
5
17
100
AcDbDictionary
0
ENDSEC
0
EOF
