0
SECTION
2
HEADER
9
$INSUNITS
70
4
9
$ACADVER
1
AC1014
9
$HANDSEED
5
FFFF
0
ENDSEC
0
SECTION
2
TABLES
0
TABLE
2
VPORT
5
8
100
AcDbSymbolTable
0
ENDTAB
0
TABLE
2
LTYPE
5
5
100
AcDbSymbolTable
0
LTYPE
5
14
100
AcDbSymbolTableRecord
100
AcDbLinetypeTableRecord
2
BYBLOCK
70
0
0
LTYPE
5
15
100
AcDbSymbolTableRecord
100
AcDbLinetypeTableRecord
2
BYLAYER
70
0
0
ENDTAB
0
TABLE
2
LAYER
5
2
100
AcDbSymbolTable
70
2
0
LAYER
5
50
100
AcDbSymbolTableRecord
100
AcDbLayerTableRecord
2
0
70
0
6
CONTINUOUS
0
ENDTAB
0
TABLE
2
STYLE
5
3
100
AcDbSymbolTable
70
1
0
STYLE
5
11
100
AcDbSymbolTableRecord
100
AcDbTextStyleTableRecord
2
STANDARD
70
0
0
ENDTAB
0
TABLE
2
VIEW
5
6
100
AcDbSymbolTable
70
0
0
ENDTAB
0
TABLE
2
UCS
5
7
100
AcDbSymbolTable
70
0
0
ENDTAB
0
TABLE
2
APPID
5
9
100
AcDbSymbolTable
70
2
0
APPID
5
12
100
AcDbSymbolTableRecord
100
AcDbRegAppTableRecord
2
ACAD
70
0
0
ENDTAB
0
TABLE
2
DIMSTYLE
5
A
100
AcDbSymbolTable
70
1
0
ENDTAB
0
TABLE
2
BLOCK_RECORD
5
1
100
AcDbSymbolTable
70
1
0
BLOCK_RECORD
5
1F
100
AcDbSymbolTableRecord
100
AcDbBlockTableRecord
2
*MODEL_SPACE
0
BLOCK_RECORD
5
1B
100
AcDbSymbolTableRecord
100
AcDbBlockTableRecord
2
*PAPER_SPACE
0
ENDTAB
0
ENDSEC
0
SECTION
2
BLOCKS
0
BLOCK
5
20
100
AcDbEntity
100
AcDbBlockBegin
2
*MODEL_SPACE
0
ENDBLK
5
21
100
AcDbEntity
100
AcDbBlockEnd
0
BLOCK
5
1C
100
AcDbEntity
100
AcDbBlockBegin
2
*PAPER_SPACE
0
ENDBLK
5
1D
100
AcDbEntity
100
AcDbBlockEnd
0
ENDSEC
0
SECTION
2
ENTITIES
0
ARC
5
100
100
AcDbEntity
8
0
100
AcDbCircle
10
4.4472915627924436e-09
20
48.73832968967271
30
0
40
2.0000000000000031
100
AcDbArc
50
44.999999975597625
51
134.99999997559706
0
LINE
5
101
100
AcDbEntity
8
0
100
AcDbLine
10
-1.4142135573234738
20
50.152543252648137
30
0
11
-6.9999999953999845
21
44.566756819329726
31
0
0
LINE
5
102
100
AcDbEntity
8
0
100
AcDbLine
10
-6.9999999953999845
20
44.566756819329726
30
0
11
-6.9999999954000005
21
30.644222230278647
31
0
0
ARC
5
103
100
AcDbEntity
8
0
100
AcDbCircle
10
-4.9999999953999943
20
30.64422223027865
30
0
40
2.0000000000000058
100
AcDbArc
50
180
51
224.99999988143307
0
LINE
5
104
100
AcDbEntity
8
0
100
AcDbLine
10
-6.4142135606996433
20
29.230008670832103
30
0
11
-4.1224325354636182
21
26.938227636110948
31
0
0
ARC
5
105
100
AcDbEntity
8
0
100
AcDbCircle
10
-5.5366461007632672
20
25.524014076664393
30
0
40
2.0000000000000013
100
AcDbArc
50
-45.000000118566703
51
44.999999881433183
0
LINE
5
106
100
AcDbEntity
8
0
100
AcDbLine
10
-4.1224325413167158
20
24.109800511364753
30
0
11
-6.4142135548465484
21
21.818019507320059
31
0
0
ARC
5
107
100
AcDbEntity
8
0
100
AcDbCircle
10
-4.9999999953999934
20
20.403805942020416
30
0
40
2.0000000000000067
100
AcDbArc
50
134.9999998814333
51
180
0
ARC
5
108
100
AcDbEntity
8
0
100
AcDbCircle
10
-16.999999989399914
20
-58.911625833761725
30
0
40
9.9999999897999921
100
AcDbArc
50
333.23449947141671
51
360
0
LINE
5
109
100
AcDbEntity
8
0
100
AcDbLine
10
-8.0714285628497642
20
-63.415025899367883
30
0
11
-11.428571426763289
21
-70.070994580122914
31
0
0
ARC
5
110
100
AcDbEntity
8
0
100
AcDbCircle
10
-2.5000000038431964
20
-74.57439464987678
30
0
40
9.9999999897999956
100
AcDbArc
50
153.23449944083183
51
180
0
LINE
5
111
100
AcDbEntity
8
0
100
AcDbLine
10
-12.499999993643192
20
-74.574394640599991
30
0
11
-12.499999993599999
21
-82.425605354200002
31
0
0
ARC
5
112
100
AcDbEntity
8
0
100
AcDbCircle
10
-2.5000000037999999
20
-82.42560535030492
30
0
40
9.9999999897999992
100
AcDbArc
50
180
51
206.76550053152573
0
LINE
5
113
100
AcDbEntity
8
0
100
AcDbLine
10
-11.428571426819349
20
-86.929005414705387
30
0
11
-5.3571428519713393
21
-98.966395563175027
31
0
0
ARC
5
114
100
AcDbEntity
8
0
100
AcDbCircle
10
4.5033282658479834e-10
20
-96.264355520979166
30
0
40
5.9999999888000035
100
AcDbArc
50
206.76550056781855
51
333.23449942830814
0
LINE
5
115
100
AcDbEntity
8
0
100
AcDbLine
10
5.3571428522106688
20
-98.966395563295762
30
0
11
11.428571432757867
21
-86.929005417700651
31
0
0
ARC
5
116
100
AcDbEntity
8
0
100
AcDbCircle
10
2.4999999970574787
20
-82.425605346700635
30
0
40
10.000000015199999
100
AcDbArc
50
333.23449946743335
51
360
0
LINE
5
117
100
AcDbEntity
8
0
100
AcDbLine
10
12.49999999981916
20
-82.425605354200002
30
0
11
12.500000005829632
21
-74.574394640599991
31
0
0
ARC
5
118
100
AcDbEntity
8
0
100
AcDbCircle
10
2.4999999962000135
20
-74.574394649695265
30
0
40
10.000000015199999
100
AcDbArc
50
0
51
26.765500538518246
0
LINE
5
119
100
AcDbEntity
8
0
100
AcDbLine
10
11.42857143231611
20
-70.070994577322168
30
0
11
8.0714285613958001
21
-63.415025900101234
31
0
0
ARC
5
120
100
AcDbEntity
8
0
100
AcDbCircle
10
17.00000000901397
20
-58.911625827095293
30
0
40
10.000000015200019
100
AcDbArc
50
180
51
206.76550051207741
0
ARC
5
121
100
AcDbEntity
8
0
100
AcDbCircle
10
17.000000017793816
20
15.277042282257028
30
0
40
10
100
AcDbArc
50
148.12587634762497
51
180
0
ARC
5
122
100
AcDbEntity
8
0
100
AcDbCircle
10
4.4096087281639216
20
23.105983664973589
30
0
40
4.8260000000000058
100
AcDbArc
50
-31.874123652375015
51
31.874123679447006
0
LINE
5
123
100
AcDbEntity
8
0
100
AcDbLine
10
8.5078974335397373
20
25.654376430500335
30
0
11
4.3015794848890128
21
32.418916643206408
31
0
0
ARC
5
124
100
AcDbEntity
8
0
100
AcDbCircle
10
6.000000001000001
20
33.475026367834147
30
0
40
2.0000000000000009
100
AcDbArc
50
180
51
211.87412367944691
0
LINE
5
125
100
AcDbEntity
8
0
100
AcDbLine
10
4.0000000010000001
20
33.475026367834147
30
0
11
4.0000000014278303
21
47.566756815235763
31
0
0
LINE
5
126
100
AcDbEntity
8
0
100
AcDbLine
10
4.0000000014278303
20
47.566756815235763
30
0
11
1.414213567422703
21
50.15254325144349
31
0
0
CIRCLE
5
127
100
AcDbEntity
8
0
100
AcDbCircle
10
4.4096087281639216
20
23.105983664973589
30
0
40
1.5875000000000012
0
CIRCLE
5
128
100
AcDbEntity
8
0
100
AcDbCircle
10
1.3589242629740109e-09
20
9.9999999999999911
30
0
40
1.6000000003999995
0
CIRCLE
5
129
100
AcDbEntity
8
0
100
AcDbCircle
10
2.2393816499205091e-08
20
30
30
0
40
1.6000000003999995
0
CIRCLE
5
130
100
AcDbEntity
8
0
100
AcDbCircle
10
9.9999786229432175e-10
20
-78.499999999999957
30
0
40
4.0000000009999992
0
ARC
5
131
100
AcDbEntity
8
0
100
AcDbCircle
10
5.6568542484924
20
-84.156854243800012
30
0
40
1.5874999999999995
100
AcDbArc
50
44.999999537879795
51
224.99999981389243
0
LINE
5
132
100
AcDbEntity
8
0
100
AcDbLine
10
6.7793862664932778
20
-83.034322243906729
30
0
11
7.8400464482522239
21
-84.094982406747789
31
0
0
ARC
5
133
100
AcDbEntity
8
0
100
AcDbCircle
10
6.7175144273022722
20
-85.217514416656257
30
0
40
1.5875000000000008
100
AcDbArc
50
-134.99999971821296
51
44.999999718212756
0
LINE
5
134
100
AcDbEntity
8
0
100
AcDbLine
10
5.5949824120297906
20
-86.34004644297022
30
0
11
4.5343222260375198
21
-85.279386258962489
31
0
0
ARC
5
135
100
AcDbEntity
8
0
100
AcDbCircle
10
-5.6568542504923744
20
-84.156854255184783
30
0
40
1.5875000000000008
100
AcDbArc
50
-44.999999472303735
51
135.00000012053039
0
LINE
5
136
100
AcDbEntity
8
0
100
AcDbLine
10
-4.5343222250201611
20
-85.279386259979873
30
0
11
-5.5949824120297942
21
-86.34004644297022
31
0
0
ARC
5
137
100
AcDbEntity
8
0
100
AcDbCircle
10
-6.7175144273022669
20
-85.217514416656229
30
0
40
1.5875000000000008
100
AcDbArc
50
135.000000281788
51
314.99999971821177
0
LINE
5
138
100
AcDbEntity
8
0
100
AcDbLine
10
-7.8400464479566629
20
-84.094982407043346
30
0
11
-6.7793862649291459
21
-83.034322245470861
31
0
0
ARC
5
139
100
AcDbEntity
8
0
100
AcDbCircle
10
-5.6568542447601766
20
-72.843145747189652
30
0
40
1.5875000000000017
100
AcDbArc
50
-134.99999981189831
51
44.999999811898086
0
LINE
5
140
100
AcDbEntity
8
0
100
AcDbLine
10
-6.7793862610028546
20
-73.965677770802856
30
0
11
-7.8400464462565855
21
-72.905017586056587
31
0
0
ARC
5
141
100
AcDbEntity
8
0
100
AcDbCircle
10
-6.7175144222722167
20
-71.782485571200013
30
0
40
1.5874999999999999
100
AcDbArc
50
44.999999584720648
51
224.99999976705149
0
LINE
5
142
100
AcDbEntity
8
0
100
AcDbLine
10
-5.5949824058008186
20
-70.659953571000827
30
0
11
-4.5343222247804222
21
-71.720613734580439
31
0
0
ARC
5
143
100
AcDbEntity
8
0
100
AcDbCircle
10
5.6568542447601597
20
-72.843145747189652
30
0
40
1.5874999999999995
100
AcDbArc
50
135.00000018810135
51
314.99999981189876
0
LINE
5
144
100
AcDbEntity
8
0
100
AcDbLine
10
4.5343222247804187
20
-71.720613734580439
30
0
11
5.5949824079767572
21
-70.659953573176779
31
0
0
ARC
5
145
100
AcDbEntity
8
0
100
AcDbCircle
10
6.7175144202722725
20
-71.782485586255603
30
0
40
1.5874999999999995
100
AcDbArc
50
-44.999999331781076
51
134.99999998000902
0
LINE
5
146
100
AcDbEntity
8
0
100
AcDbLine
10
7.8400464484975796
20
-72.905017588297582
30
0
11
6.7793862610028501
21
-73.965677770802856
31
0
0
LINE
5
147
100
AcDbEntity
8
0
100
AcDbLine
10
6.9999999938139501
20
-58.911625839200013
30
0
11
7.0000000177938144
21
15.277042289721624
31
0
0
LINE
5
148
100
AcDbEntity
8
0
100
AcDbLine
10
-6.9999999954000014
20
20.403805942020419
30
0
11
-6.9999999995999218
21
-58.911625839200006
31
0
0
ENDSEC
0
SECTION
2
OBJECTS
0
DICTIONARY
5
C
100
AcDbDictionary
3
ACAD_GROUP
350
D
3
ACAD_MLINESTYLE
350
17
0
DICTIONARY
5
D
100
AcDbDictionary
0
DICTIONARY
5
1A
330
C
100
AcDbDictionary
0
DICTIONARY
5
17
100
AcDbDictionary
0
ENDSEC
0
EOF
