999
dxflib 3.12.2.0
  0
SECTION
  2
HEADER
  9
$ACADVER
  1
AC1015
  9
$HANDSEED
  5
FFFF
  9
$DIMADEC
 70
0
  9
$DIMASZ
 40
2.5
  9
$DIMAUNIT
 70
0
  9
$DIMAZIN
 70
2
  9
$DIMDEC
 70
4
  9
$DIMEXE
 40
1.25
  9
$DIMEXO
 40
0.625
  9
$DIMGAP
 40
0.625
  9
$DIMLUNIT
 70
2
  9
$DIMSCALE
 40
1.0
  9
$DIMTSZ
 40
0.0
  9
$DIMTXT
 40
2.5
  9
$DIMZIN
 70
8
  9
$DWGCODEPAGE
  3
ANSI_1252
  9
$INSUNITS
 70
4
  9
$LTSCALE
 40
0.5
  9
$MEASUREMENT
 70
1
  9
$PDMODE
 70
0
  9
$PDSIZE
 40
0
  0
ENDSEC
  0
SECTION
  2
TABLES
  0
TABLE
  2
VPORT
  5
8
100
AcDbSymbolTable
 70
1
  0
VPORT
  5
30
100
AcDbSymbolTableRecord
100
AcDbViewportTableRecord
  2
*Active
 70
0
 10
0.0
 20
0.0
 11
1.0
 21
1.0
 12
286.30555555555549
 22
148.5
 13
0.0
 23
0.0
 14
10.0
 24
10.0
 15
10.0
 25
10.0
 16
0.0
 26
0.0
 36
1.0
 17
0.0
 27
0.0
 37
0.0
 40
297.0
 41
1.92798353909465
 42
50.0
 43
0.0
 44
0.0
 50
0.0
 51
0.0
 71
0
 72
100
 73
1
 74
3
 75
1
 76
1
 77
0
 78
0
281
0
 65
1
110
0.0
120
0.0
130
0.0
111
1.0
121
0.0
131
0.0
112
0.0
122
1.0
132
0.0
 79
0
146
0.0
  0
ENDTAB
  0
TABLE
  2
LTYPE
  5
5
100
AcDbSymbolTable
 70
41
  0
LTYPE
  5
16
100
AcDbSymbolTableRecord
100
AcDbLinetypeTableRecord
  2
Continuous
 70
0
  3
Solid line
 72
65
 73
0
 40
0.0
  0
LTYPE
  5
31
100
AcDbSymbolTableRecord
100
AcDbLinetypeTableRecord
  2
ACAD_ISO15W100
 70
0
  3
ISO double-dash triple-dot __ __ . . . __ __ . .
 72
65
 73
10
 40
39.000000000000007
 49
12.0
 74
0
 49
-3.0
 74
0
 49
12.0
 74
0
 49
-2.9500000000000002
 74
0
 49
0.1
 74
0
 49
-2.9000000000000004
 74
0
 49
0.1
 74
0
 49
-2.9000000000000004
 74
0
 49
0.1
 74
0
 49
-2.9500000000000002
 74
0
  0
LTYPE
  5
32
100
AcDbSymbolTableRecord
100
AcDbLinetypeTableRecord
  2
DIVIDE
 70
0
  3
Divide ____ . . ____ . . ____ . . ____ . . ____
 72
65
 73
6
 40
31.750000000000004
 49
12.699999999999999
 74
0
 49
-6.2999999999999998
 74
0
 49
0.1
 74
0
 49
-6.25
 74
0
 49
0.1
 74
0
 49
-6.2999999999999998
 74
0
  0
LTYPE
  5
33
100
AcDbSymbolTableRecord
100
AcDbLinetypeTableRecord
  2
ACAD_ISO10W100
 70
0
  3
ISO dash dot __ . __ . __ . __ . __ . __ . __ . 
 72
65
 73
4
 40
18.0
 49
12.0
 74
0
 49
-2.9500000000000002
 74
0
 49
0.1
 74
0
 49
-2.9500000000000002
 74
0
  0
LTYPE
  5
34
100
AcDbSymbolTableRecord
100
AcDbLinetypeTableRecord
  2
ACAD_ISO04W100
 70
0
  3
ISO long-dash dot ____ . ____ . ____ . ____ . _
 72
65
 73
4
 40
30.0
 49
24.0
 74
0
 49
-2.9500000000000002
 74
0
 49
0.1
 74
0
 49
-2.9500000000000002
 74
0
  0
LTYPE
  5
35
100
AcDbSymbolTableRecord
100
AcDbLinetypeTableRecord
  2
CENTER2
 70
0
  3
Center (.5x) ___ _ ___ _ ___ _ ___ _ ___ _ ___
 72
65
 73
4
 40
28.575000000000003
 49
19.050000000000001
 74
0
 49
-3.1749999999999998
 74
0
 49
3.1749999999999998
 74
0
 49
-3.1749999999999998
 74
0
  0
LTYPE
  5
36
100
AcDbSymbolTableRecord
100
AcDbLinetypeTableRecord
  2
ACAD_ISO11W100
 70
0
  3
ISO double-dash dot __ __ . __ __ . __ __ . __ _
 72
65
 73
6
 40
33.0
 49
12.0
 74
0
 49
-3.0
 74
0
 49
12.0
 74
0
 49
-2.9500000000000002
 74
0
 49
0.1
 74
0
 49
-2.9500000000000002
 74
0
  0
LTYPE
  5
37
100
AcDbSymbolTableRecord
100
AcDbLinetypeTableRecord
  2
HIDDEN2
 70
0
  3
Hidden (.5x) _ _ _ _ _ _ _ _ _ _ _ _ _ _ _ _ _ 
 72
65
 73
2
 40
4.7624999999999993
 49
3.1749999999999998
 74
0
 49
-1.5874999999999999
 74
0
  0
LTYPE
  5
38
100
AcDbSymbolTableRecord
100
AcDbLinetypeTableRecord
  2
BORDERX2
 70
0
  3
Border (2x) ____  ____  .  ____  ____  .  ___
 72
65
 73
6
 40
88.899999999999977
 49
25.399999999999999
 74
0
 49
-12.699999999999999
 74
0
 49
25.399999999999999
 74
0
 49
-12.649999999999999
 74
0
 49
0.1
 74
0
 49
-12.649999999999999
 74
0
  0
LTYPE
  5
39
100
AcDbSymbolTableRecord
100
AcDbLinetypeTableRecord
  2
ACAD_ISO05W100
 70
0
  3
ISO long-dash double-dot ____ .. ____ .. ____ . 
 72
65
 73
6
 40
33.000000000000007
 49
24.0
 74
0
 49
-2.9500000000000002
 74
0
 49
0.1
 74
0
 49
-2.9000000000000004
 74
0
 49
0.1
 74
0
 49
-2.9500000000000002
 74
0
  0
LTYPE
  5
3A
100
AcDbSymbolTableRecord
100
AcDbLinetypeTableRecord
  2
DASHDOTX2
 70
0
  3
Dash dot (2x) ____  .  ____  .  ____  .  ___
 72
65
 73
4
 40
50.799999999999997
 49
25.399999999999999
 74
0
 49
-12.649999999999999
 74
0
 49
0.1
 74
0
 49
-12.649999999999999
 74
0
  0
LTYPE
  5
3B
100
AcDbSymbolTableRecord
100
AcDbLinetypeTableRecord
  2
HIDDENX2
 70
0
  3
Hidden (2x) ____ ____ ____ ____ ____ ____ ____ 
 72
65
 73
2
 40
19.049999999999997
 49
12.699999999999999
 74
0
 49
-6.3499999999999996
 74
0
  0
LTYPE
  5
3C
100
AcDbSymbolTableRecord
100
AcDbLinetypeTableRecord
  2
CENTERX2
 70
0
  3
Center (2x) ________  __  ________  __  _____
 72
65
 73
4
 40
101.60000000000001
 49
63.5
 74
0
 49
-12.699999999999999
 74
0
 49
12.699999999999999
 74
0
 49
-12.699999999999999
 74
0
  0
LTYPE
  5
3D
100
AcDbSymbolTableRecord
100
AcDbLinetypeTableRecord
  2
BORDER2
 70
0
  3
Border (.5x) __.__.__.__.__.__.__.__.__.__.__.
 72
65
 73
6
 40
22.225000000000001
 49
6.3499999999999996
 74
0
 49
-3.1749999999999998
 74
0
 49
6.3499999999999996
 74
0
 49
-3.125
 74
0
 49
0.1
 74
0
 49
-3.125
 74
0
  0
LTYPE
  5
3E
100
AcDbSymbolTableRecord
100
AcDbLinetypeTableRecord
  2
DASHDOT2
 70
0
  3
Dash dot (.5x) _._._._._._._._._._._._._._._.
 72
65
 73
4
 40
12.699999999999999
 49
6.3499999999999996
 74
0
 49
-3.125
 74
0
 49
0.1
 74
0
 49
-3.125
 74
0
  0
LTYPE
  5
3F
100
AcDbSymbolTableRecord
100
AcDbLinetypeTableRecord
  2
ACAD_ISO12W100
 70
0
  3
ISO dash double-dot __ . . __ . . __ . . __ . . 
 72
65
 73
6
 40
21.0
 49
12.0
 74
0
 49
-2.9500000000000002
 74
0
 49
0.1
 74
0
 49
-2.9000000000000004
 74
0
 49
0.1
 74
0
 49
-2.9500000000000002
 74
0
  0
LTYPE
  5
40
100
AcDbSymbolTableRecord
100
AcDbLinetypeTableRecord
  2
ACAD_ISO07W100
 70
0
  3
ISO dot . . . . . . . . . . . . . . . . . . . . 
 72
65
 73
2
 40
3.0
 49
0.1
 74
0
 49
-2.8999999999999999
 74
0
  0
LTYPE
  5
41
100
AcDbSymbolTableRecord
100
AcDbLinetypeTableRecord
  2
HIDDEN
 70
0
  3
Hidden __ __ __ __ __ __ __ __ __ __ __ __ __ __
 72
65
 73
2
 40
9.5249999999999986
 49
6.3499999999999996
 74
0
 49
-3.1749999999999998
 74
0
  0
LTYPE
  5
42
100
AcDbSymbolTableRecord
100
AcDbLinetypeTableRecord
  2
ACAD_ISO06W100
 70
0
  3
ISO long-dash triple-dot ____ ... ____ ... ____
 72
65
 73
8
 40
36.000000000000007
 49
24.0
 74
0
 49
-2.9500000000000002
 74
0
 49
0.1
 74
0
 49
-2.9000000000000004
 74
0
 49
0.1
 74
0
 49
-2.9000000000000004
 74
0
 49
0.1
 74
0
 49
-2.9500000000000002
 74
0
  0
LTYPE
  5
43
100
AcDbSymbolTableRecord
100
AcDbLinetypeTableRecord
  2
CENTER
 70
0
  3
Center ____ _ ____ _ ____ _ ____ _ ____ _ ____
 72
65
 73
4
 40
50.800000000000004
 49
31.75
 74
0
 49
-6.3499999999999996
 74
0
 49
6.3499999999999996
 74
0
 49
-6.3499999999999996
 74
0
  0
LTYPE
  5
44
100
AcDbSymbolTableRecord
100
AcDbLinetypeTableRecord
  2
DOTX2
 70
0
  3
Dot (2x) .  .  .  .  .  .  .  .  .  .  .  .  .  .
 72
65
 73
2
 40
12.699999999999999
 49
0.1
 74
0
 49
-12.6
 74
0
  0
LTYPE
  5
45
100
AcDbSymbolTableRecord
100
AcDbLinetypeTableRecord
  2
PHANTOM
 70
0
  3
Phantom ______  __  __  ______  __  __  ______ 
 72
65
 73
6
 40
63.500000000000007
 49
31.75
 74
0
 49
-6.3499999999999996
 74
0
 49
6.3499999999999996
 74
0
 49
-6.3499999999999996
 74
0
 49
6.3499999999999996
 74
0
 49
-6.3499999999999996
 74
0
  0
LTYPE
  5
46
100
AcDbSymbolTableRecord
100
AcDbLinetypeTableRecord
  2
ACAD_ISO08W100
 70
0
  3
ISO long-dash short-dash ____ __ ____ __ ____ _
 72
65
 73
4
 40
36.0
 49
24.0
 74
0
 49
-3.0
 74
0
 49
6.0
 74
0
 49
-3.0
 74
0
  0
LTYPE
  5
47
100
AcDbSymbolTableRecord
100
AcDbLinetypeTableRecord
  2
DASHEDX2
 70
0
  3
Dashed (2x) ____  ____  ____  ____  ____  ___
 72
65
 73
2
 40
38.099999999999994
 49
25.399999999999999
 74
0
 49
-12.699999999999999
 74
0
  0
LTYPE
  5
48
100
AcDbSymbolTableRecord
100
AcDbLinetypeTableRecord
  2
ACAD_ISO02W100
 70
0
  3
ISO dash __ __ __ __ __ __ __ __ __ __ __ __ __
 72
65
 73
2
 40
15.0
 49
12.0
 74
0
 49
-3.0
 74
0
  0
LTYPE
  5
49
100
AcDbSymbolTableRecord
100
AcDbLinetypeTableRecord
  2
PHANTOM2
 70
0
  3
Phantom (.5x) ___ _ _ ___ _ _ ___ _ _ ___ _ _
 72
65
 73
6
 40
31.750000000000004
 49
15.875
 74
0
 49
-3.1749999999999998
 74
0
 49
3.1749999999999998
 74
0
 49
-3.1749999999999998
 74
0
 49
3.1749999999999998
 74
0
 49
-3.1749999999999998
 74
0
  0
LTYPE
  5
4A
100
AcDbSymbolTableRecord
100
AcDbLinetypeTableRecord
  2
DASHED2
 70
0
  3
Dashed (.5x) _ _ _ _ _ _ _ _ _ _ _ _ _ _ _ _ _ 
 72
65
 73
2
 40
9.5249999999999986
 49
6.3499999999999996
 74
0
 49
-3.1749999999999998
 74
0
  0
LTYPE
  5
4B
100
AcDbSymbolTableRecord
100
AcDbLinetypeTableRecord
  2
ACAD_ISO09W100
 70
0
  3
ISO long-dash double-short-dash ____ __ __ ____
 72
65
 73
6
 40
45.0
 49
24.0
 74
0
 49
-3.0
 74
0
 49
6.0
 74
0
 49
-3.0
 74
0
 49
6.0
 74
0
 49
-3.0
 74
0
  0
LTYPE
  5
4C
100
AcDbSymbolTableRecord
100
AcDbLinetypeTableRecord
  2
ACAD_ISO13W100
 70
0
  3
ISO double-dash double-dot __ __ . . __ __ . . _
 72
65
 73
8
 40
36.000000000000007
 49
12.0
 74
0
 49
-3.0
 74
0
 49
12.0
 74
0
 49
-2.9500000000000002
 74
0
 49
0.1
 74
0
 49
-2.9000000000000004
 74
0
 49
0.1
 74
0
 49
-2.9500000000000002
 74
0
  0
LTYPE
  5
4D
100
AcDbSymbolTableRecord
100
AcDbLinetypeTableRecord
  2
DOT2
 70
0
  3
Dot (.5x) ........................................
 72
65
 73
2
 40
3.1749999999999998
 49
0.1
 74
0
 49
-3.0749999999999997
 74
0
  0
LTYPE
  5
4E
100
AcDbSymbolTableRecord
100
AcDbLinetypeTableRecord
  2
DASHED
 70
0
  3
Dashed __ __ __ __ __ __ __ __ __ __ __ __ __ _
 72
65
 73
2
 40
19.049999999999997
 49
12.699999999999999
 74
0
 49
-6.3499999999999996
 74
0
  0
LTYPE
  5
4F
100
AcDbSymbolTableRecord
100
AcDbLinetypeTableRecord
  2
ACAD_ISO14W100
 70
0
  3
ISO dash triple-dot __ . . . __ . . . __ . . . _
 72
65
 73
8
 40
24.000000000000004
 49
12.0
 74
0
 49
-2.9500000000000002
 74
0
 49
0.1
 74
0
 49
-2.9000000000000004
 74
0
 49
0.1
 74
0
 49
-2.9000000000000004
 74
0
 49
0.1
 74
0
 49
-2.9500000000000002
 74
0
  0
LTYPE
  5
15
100
AcDbSymbolTableRecord
100
AcDbLinetypeTableRecord
  2
BYLAYER
 70
0
  3

 72
65
 73
0
 40
0.0
  0
LTYPE
  5
50
100
AcDbSymbolTableRecord
100
AcDbLinetypeTableRecord
  2
PHANTOMX2
 70
0
  3
Phantom (2x) ____________    ____    ____   _
 72
65
 73
6
 40
127.00000000000001
 49
63.5
 74
0
 49
-12.699999999999999
 74
0
 49
12.699999999999999
 74
0
 49
-12.699999999999999
 74
0
 49
12.699999999999999
 74
0
 49
-12.699999999999999
 74
0
  0
LTYPE
  5
14
100
AcDbSymbolTableRecord
100
AcDbLinetypeTableRecord
  2
BYBLOCK
 70
0
  3

 72
65
 73
0
 40
0.0
  0
LTYPE
  5
51
100
AcDbSymbolTableRecord
100
AcDbLinetypeTableRecord
  2
DIVIDEX2
 70
0
  3
Divide (2x) ________  .  .  ________  .  .  _
 72
65
 73
6
 40
63.5
 49
25.399999999999999
 74
0
 49
-12.649999999999999
 74
0
 49
0.1
 74
0
 49
-12.599999999999998
 74
0
 49
0.1
 74
0
 49
-12.649999999999999
 74
0
  0
LTYPE
  5
52
100
AcDbSymbolTableRecord
100
AcDbLinetypeTableRecord
  2
BORDER
 70
0
  3
Border __ __ . __ __ . __ __ . __ __ . __ __ .
 72
65
 73
6
 40
44.449999999999996
 49
12.699999999999999
 74
0
 49
-6.3499999999999996
 74
0
 49
12.699999999999999
 74
0
 49
-6.2999999999999998
 74
0
 49
0.1
 74
0
 49
-6.2999999999999998
 74
0
  0
LTYPE
  5
53
100
AcDbSymbolTableRecord
100
AcDbLinetypeTableRecord
  2
DIVIDE2
 70
0
  3
Divide (.5x) __..__..__..__..__..__..__..__.._
 72
65
 73
6
 40
15.874999999999998
 49
6.3499999999999996
 74
0
 49
-3.125
 74
0
 49
0.1
 74
0
 49
-3.0750000000000002
 74
0
 49
0.1
 74
0
 49
-3.125
 74
0
  0
LTYPE
  5
54
100
AcDbSymbolTableRecord
100
AcDbLinetypeTableRecord
  2
DOT
 70
0
  3
Dot . . . . . . . . . . . . . . . . . . . . . . . .
 72
65
 73
2
 40
6.3499999999999996
 49
0.1
 74
0
 49
-6.25
 74
0
  0
LTYPE
  5
55
100
AcDbSymbolTableRecord
100
AcDbLinetypeTableRecord
  2
DASHDOT
 70
0
  3
Dash dot __ . __ . __ . __ . __ . __ . __ . __
 72
65
 73
4
 40
25.400000000000002
 49
12.699999999999999
 74
0
 49
-6.2999999999999998
 74
0
 49
0.1
 74
0
 49
-6.2999999999999998
 74
0
  0
LTYPE
  5
56
100
AcDbSymbolTableRecord
100
AcDbLinetypeTableRecord
  2
ACAD_ISO03W100
 70
0
  3
ISO dash space __    __    __    __    __    __
 72
65
 73
2
 40
30.0
 49
12.0
 74
0
 49
-18.0
 74
0
  0
ENDTAB
  0
TABLE
  2
LAYER
  5
2
100
AcDbSymbolTable
 70
1
  0
LAYER
  5
10
100
AcDbSymbolTableRecord
100
AcDbLayerTableRecord
  2
0
 70
0
 62
7
420
16777215
  6
Continuous
370
25
390
F
  0
ENDTAB
  0
TABLE
  2
STYLE
  5
3
100
AcDbSymbolTable
 70
1
  0
STYLE
  5
57
100
AcDbSymbolTableRecord
100
AcDbTextStyleTableRecord
  2
Standard
 70
0
 40
0.0
 41
1.0
 50
0.0
 71
0
 42
2.5
  3

  4

1001
ACAD
1000
txt
1071
0
  0
ENDTAB
  0
TABLE
  2
VIEW
  5
6
100
AcDbSymbolTable
 70
0
  0
ENDTAB
  0
TABLE
  2
UCS
  5
7
100
AcDbSymbolTable
 70
0
  0
ENDTAB
  0
TABLE
  2
APPID
  5
9
100
AcDbSymbolTable
 70
1
  0
APPID
  5
12
100
AcDbSymbolTableRecord
100
AcDbRegAppTableRecord
  2
ACAD
 70
0
  0
APPID
  5
58
100
AcDbSymbolTableRecord
100
AcDbRegAppTableRecord
  2
QCAD
 70
0
  0
ENDTAB
  0
TABLE
  2
DIMSTYLE
  5
A
100
AcDbSymbolTable
 70
1
100
AcDbDimStyleTable
 71
0
  0
DIMSTYLE
105
27
100
AcDbSymbolTableRecord
100
AcDbDimStyleTableRecord
  2
Standard
 41
2.5
 42
0.625
 43
3.75
 44
1.25
 70
0
 73
0
 74
0
 77
1
 78
8
140
2.5
141
2.5
143
0.03937007874016
147
0.625
171
3
172
1
271
2
272
2
274
3
278
44
283
0
284
8
340
57
  0
ENDTAB
  0
TABLE
  2
BLOCK_RECORD
  5
1
100
AcDbSymbolTable
 70
1
  0
BLOCK_RECORD
  5
1F
100
AcDbSymbolTableRecord
100
AcDbBlockTableRecord
  2
*Model_Space
340
22
  0
BLOCK_RECORD
  5
1B
100
AcDbSymbolTableRecord
100
AcDbBlockTableRecord
  2
*Paper_Space
340
1E
  0
BLOCK_RECORD
  5
23
100
AcDbSymbolTableRecord
100
AcDbBlockTableRecord
  2
*Paper_Space0
340
26
  0
BLOCK_RECORD
  5
59
100
AcDbSymbolTableRecord
100
AcDbBlockTableRecord
  2
block 1
340
0
  0
ENDTAB
  0
ENDSEC
  0
SECTION
  2
BLOCKS
  0
BLOCK
  5
20
100
AcDbEntity
  8
0
100
AcDbBlockBegin
  2
*Model_Space
 70
0
 10
0.0
 20
0.0
 30
0.0
  3
*Model_Space
  1

  0
ENDBLK
  5
21
100
AcDbEntity
  8
0
100
AcDbBlockEnd
  0
BLOCK
  5
1C
100
AcDbEntity
 67
1
  8
0
100
AcDbBlockBegin
  2
*Paper_Space
 70
0
 10
0.0
 20
0.0
 30
0.0
  3
*Paper_Space
  1

  0
ENDBLK
  5
1D
100
AcDbEntity
 67
1
  8
0
100
AcDbBlockEnd
  0
BLOCK
  5
24
100
AcDbEntity
  8
0
100
AcDbBlockBegin
  2
*Paper_Space0
 70
0
 10
0.0
 20
0.0
 30
0.0
  3
*Paper_Space0
  1

  0
ENDBLK
  5
25
100
AcDbEntity
  8
0
100
AcDbBlockEnd
  0
BLOCK
  5
5A
100
AcDbEntity
  8
0
100
AcDbBlockBegin
  2
block 1
 70
0
 10
0.0
 20
0.0
 30
0.0
  3
block 1
  1

  0
ENDBLK
  5
5B
100
AcDbEntity
  8
0
100
AcDbBlockEnd
  0
ENDSEC
  0
SECTION
  2
ENTITIES
  0
CIRCLE
  5
5C
100
AcDbEntity
100
AcDbCircle
  8
0
 62
256
370
-1
 48
1.0
  6
BYLAYER
 10
40.0
 20
60.0
 30
0.0
 40
1.0
  0
ARC
  5
5D
100
AcDbEntity
  8
0
 62
256
370
-1
 48
1.0
  6
BYLAYER
100
AcDbCircle
 10
39.293394777916696
 20
60.815220401131903
 30
0.0
 40
2.9508196499999997
100
AcDbArc
 50
49.999999999999993
 51
85.000000000000014
  0
ARC
  5
5E
100
AcDbEntity
  8
0
 62
256
370
-1
 48
1.0
  6
BYLAYER
100
AcDbCircle
 10
60.815220401131903
 20
39.293394777916696
 30
0.0
 40
2.9508196499999997
100
AcDbArc
 50
4.9999999999999938
 51
40.000000000000007
  0
ARC
  5
5F
100
AcDbEntity
  8
0
 62
256
370
-1
 48
1.0
  6
BYLAYER
100
AcDbCircle
 10
60.706605222083297
 20
39.184779598868097
 30
0.0
 40
2.9508196499999997
100
AcDbArc
 50
229.99999999999997
 51
265.0
  0
ARC
  5
60
100
AcDbEntity
  8
0
 62
256
370
-1
 48
1.0
  6
BYLAYER
100
AcDbCircle
 10
60.706605222083326
 20
60.815220401131882
 30
0.0
 40
2.9508196499999997
100
AcDbArc
 50
95.0
 51
130.0
  0
ARC
  5
61
100
AcDbEntity
  8
0
 62
256
370
-1
 48
1.0
  6
BYLAYER
100
AcDbCircle
 10
39.184779598868097
 20
60.706605222083304
 30
0.0
 40
2.9508196499999997
100
AcDbArc
 50
184.99999999999997
 51
220.00000000000003
  0
ARC
  5
62
100
AcDbEntity
  8
0
 62
256
370
-1
 48
1.0
  6
BYLAYER
100
AcDbCircle
 10
60.815220401131882
 20
60.706605222083326
 30
0.0
 40
2.9508196499999997
100
AcDbArc
 50
320.0
 51
355.0
  0
ARC
  5
63
100
AcDbEntity
  8
0
 62
256
370
-1
 48
1.0
  6
BYLAYER
100
AcDbCircle
 10
39.184779598868111
 20
39.293394777916674
 30
0.0
 40
2.9508196499999997
100
AcDbArc
 50
140.0
 51
175.0
  0
ARC
  5
64
100
AcDbEntity
  8
0
 62
256
370
-1
 48
1.0
  6
BYLAYER
100
AcDbCircle
 10
39.293394777916674
 20
39.184779598868118
 30
0.0
 40
2.9508196499999997
100
AcDbArc
 50
275.0
 51
310.0
  0
SPLINE
  5
65
  8
0
 62
256
370
-1
 48
1.0
  6
BYLAYER
100
AcDbEntity
100
AcDbSpline
 70
8
 71
3
 72
10
 73
6
 74
0
 40
0.0
 40
0.0
 40
0.0
 40
0.0
 40
1.0
 40
2.0
 40
3.0
 40
3.0
 40
3.0
 40
3.0
 10
63.075679396660689
 20
58.809854912643729
 30
0.0
 10
62.380164535136188
 20
58.02160473624928
 30
0.0
 10
61.803278599999999
 20
57.213114699999998
 30
0.0
 10
61.803278599999999
 20
53.278688500000001
 30
0.0
 10
61.803278599999999
 20
51.311475399999999
 30
0.0
 10
61.803278599999999
 20
50.0
 30
0.0
  0
SPLINE
  5
66
  8
0
 62
256
370
-1
 48
1.0
  6
BYLAYER
100
AcDbEntity
100
AcDbSpline
 70
8
 71
3
 72
10
 73
6
 74
0
 40
0.0
 40
0.0
 40
0.0
 40
0.0
 40
1.0
 40
2.0
 40
3.0
 40
3.0
 40
3.0
 40
3.0
 10
58.809854912643722
 20
36.924320603339311
 30
0.0
 10
58.021604736249273
 20
37.619835464863812
 30
0.0
 10
57.213114700000006
 20
38.196721400000001
 30
0.0
 10
53.278688500000001
 20
38.196721400000001
 30
0.0
 10
51.311475400000006
 20
38.196721400000001
 30
0.0
 10
50.0
 20
38.196721400000001
 30
0.0
  0
SPLINE
  5
67
  8
0
 62
256
370
-1
 48
1.0
  6
BYLAYER
100
AcDbEntity
100
AcDbSpline
 70
8
 71
3
 72
10
 73
6
 74
0
 40
0.0
 40
0.0
 40
0.0
 40
0.0
 40
1.0
 40
2.0
 40
3.0
 40
3.0
 40
3.0
 40
3.0
 10
41.190145087356271
 20
36.924320603339311
 30
0.0
 10
41.978395263750727
 20
37.619835464863812
 30
0.0
 10
42.786885300000002
 20
38.196721400000001
 30
0.0
 10
46.721311499999999
 20
38.196721400000001
 30
0.0
 10
48.68852459999998
 20
38.196721400000001
 30
0.0
 10
50.0
 20
38.196721400000001
 30
0.0
  0
SPLINE
  5
68
  8
0
 62
256
370
-1
 48
1.0
  6
BYLAYER
100
AcDbEntity
100
AcDbSpline
 70
8
 71
3
 72
10
 73
6
 74
0
 40
0.0
 40
0.0
 40
0.0
 40
0.0
 40
1.0
 40
2.0
 40
3.0
 40
3.0
 40
3.0
 40
3.0
 10
36.924320603339311
 20
41.190145087356278
 30
0.0
 10
37.619835464863812
 20
41.978395263750727
 30
0.0
 10
38.196721400000001
 20
42.786885300000002
 30
0.0
 10
38.196721400000001
 20
46.721311499999999
 30
0.0
 10
38.196721400000001
 20
48.688524599999987
 30
0.0
 10
38.196721400000001
 20
50.0
 30
0.0
  0
SPLINE
  5
69
  8
0
 62
256
370
-1
 48
1.0
  6
BYLAYER
100
AcDbEntity
100
AcDbSpline
 70
8
 71
3
 72
10
 73
6
 74
0
 40
0.0
 40
0.0
 40
0.0
 40
0.0
 40
1.0
 40
2.0
 40
3.0
 40
3.0
 40
3.0
 40
3.0
 10
36.924320603339311
 20
58.809854912643729
 30
0.0
 10
37.619835464863826
 20
58.021604736249294
 30
0.0
 10
38.196721400000008
 20
57.21311470000002
 30
0.0
 10
38.196721400000001
 20
53.278688500000001
 30
0.0
 10
38.196721400000001
 20
51.31147540000002
 30
0.0
 10
38.196721400000001
 20
50.0
 30
0.0
  0
SPLINE
  5
6A
  8
0
 62
256
370
-1
 48
1.0
  6
BYLAYER
100
AcDbEntity
100
AcDbSpline
 70
8
 71
3
 72
10
 73
6
 74
0
 40
0.0
 40
0.0
 40
0.0
 40
0.0
 40
1.0
 40
2.0
 40
3.0
 40
3.0
 40
3.0
 40
3.0
 10
41.190145087356271
 20
63.075679396660689
 30
0.0
 10
41.97839526375072
 20
62.380164535136188
 30
0.0
 10
42.786885300000002
 20
61.803278599999999
 30
0.0
 10
46.721311499999999
 20
61.803278599999999
 30
0.0
 10
48.688524599999994
 20
61.803278599999999
 30
0.0
 10
50.0
 20
61.803278599999999
 30
0.0
  0
SPLINE
  5
6B
  8
0
 62
256
370
-1
 48
1.0
  6
BYLAYER
100
AcDbEntity
100
AcDbSpline
 70
8
 71
3
 72
10
 73
6
 74
0
 40
0.0
 40
0.0
 40
0.0
 40
0.0
 40
1.0
 40
2.0
 40
3.0
 40
3.0
 40
3.0
 40
3.0
 10
58.809854912643729
 20
63.075679396660689
 30
0.0
 10
58.021604736249287
 20
62.380164535136181
 30
0.0
 10
57.213114700000006
 20
61.803278599999999
 30
0.0
 10
53.278688500000001
 20
61.803278599999999
 30
0.0
 10
51.31147540000002
 20
61.803278599999999
 30
0.0
 10
50.0
 20
61.803278599999999
 30
0.0
  0
SPLINE
  5
6C
  8
0
 62
256
370
-1
 48
1.0
  6
BYLAYER
100
AcDbEntity
100
AcDbSpline
 70
8
 71
3
 72
10
 73
6
 74
0
 40
0.0
 40
0.0
 40
0.0
 40
0.0
 40
1.0
 40
2.0
 40
3.0
 40
3.0
 40
3.0
 40
3.0
 10
63.075679396660689
 20
41.190145087356271
 30
0.0
 10
62.380164535136188
 20
41.97839526375072
 30
0.0
 10
61.803278599999999
 20
42.786885300000002
 30
0.0
 10
61.803278599999999
 20
46.721311499999999
 30
0.0
 10
61.803278599999999
 20
48.688524600000001
 30
0.0
 10
61.803278599999999
 20
50.0
 30
0.0
  0
SPLINE
  5
6D
  8
0
 62
256
370
-1
 48
1.0
  6
BYLAYER
100
AcDbEntity
100
AcDbSpline
 70
8
 71
3
 72
10
 73
6
 74
0
 40
0.0
 40
0.0
 40
0.0
 40
0.0
 40
1.0
 40
2.0
 40
3.0
 40
3.0
 40
3.0
 40
3.0
 10
60.44942434377316
 20
36.245188708513162
 30
0.0
 10
61.854146197083296
 20
36.07002552386809
 30
0.0
 10
63.821359297083305
 20
34.102812423868087
 30
0.0
 10
65.290382308126198
 20
32.569532062460567
 30
0.0
 10
66.625290384612796
 20
32.311652093139273
 30
0.0
 10
67.156033250937782
 20
32.843966749062204
 30
0.0
  0
SPLINE
  5
6E
  8
0
 62
256
370
-1
 48
1.0
  6
BYLAYER
100
AcDbEntity
100
AcDbSpline
 70
8
 71
3
 72
10
 73
6
 74
0
 40
0.0
 40
0.0
 40
0.0
 40
0.0
 40
1.0
 40
2.0
 40
3.0
 40
3.0
 40
3.0
 40
3.0
 10
63.754811291486845
 20
39.55057565622684
 30
0.0
 10
63.929974476131903
 20
38.145853802916704
 30
0.0
 10
65.897187576131913
 20
36.178640702916688
 30
0.0
 10
67.430467937539433
 20
34.709617691873788
 30
0.0
 10
67.688347906860713
 20
33.374709615387204
 30
0.0
 10
67.156033250937782
 20
32.843966749062204
 30
0.0
  0
SPLINE
  5
6F
  8
0
 62
256
370
-1
 48
1.0
  6
BYLAYER
100
AcDbEntity
100
AcDbSpline
 70
8
 71
3
 72
10
 73
6
 74
0
 40
0.0
 40
0.0
 40
0.0
 40
0.0
 40
1.0
 40
2.0
 40
3.0
 40
3.0
 40
3.0
 40
3.0
 10
36.245188708513155
 20
60.44942434377316
 30
0.0
 10
36.070025523868097
 20
61.854146197083296
 30
0.0
 10
34.102812423868095
 20
63.821359297083305
 30
0.0
 10
32.569532062460567
 20
65.290382308126212
 30
0.0
 10
32.311652093139287
 20
66.625290384612796
 30
0.0
 10
32.843966749062218
 20
67.156033250937782
 30
0.0
  0
SPLINE
  5
70
  8
0
 62
256
370
-1
 48
1.0
  6
BYLAYER
100
AcDbEntity
100
AcDbSpline
 70
8
 71
3
 72
10
 73
6
 74
0
 40
0.0
 40
0.0
 40
0.0
 40
0.0
 40
1.0
 40
2.0
 40
3.0
 40
3.0
 40
3.0
 40
3.0
 10
63.754811291486845
 20
60.449424343773174
 30
0.0
 10
63.929974476131918
 20
61.854146197083281
 30
0.0
 10
65.897187576131884
 20
63.821359297083326
 30
0.0
 10
67.430467937539433
 20
65.290382308126198
 30
0.0
 10
67.68834790686067
 20
66.625290384612825
 30
0.0
 10
67.156033250937782
 20
67.156033250937782
 30
0.0
  0
SPLINE
  5
71
  8
0
 62
256
370
-1
 48
1.0
  6
BYLAYER
100
AcDbEntity
100
AcDbSpline
 70
8
 71
3
 72
10
 73
6
 74
0
 40
0.0
 40
0.0
 40
0.0
 40
0.0
 40
1.0
 40
2.0
 40
3.0
 40
3.0
 40
3.0
 40
3.0
 10
60.449424343773146
 20
63.754811291486853
 30
0.0
 10
61.854146197083288
 20
63.92997447613191
 30
0.0
 10
63.821359297083269
 20
65.897187576131927
 30
0.0
 10
65.290382308126212
 20
67.430467937539433
 30
0.0
 10
66.625290384612782
 20
67.688347906860741
 30
0.0
 10
67.156033250937782
 20
67.156033250937782
 30
0.0
  0
SPLINE
  5
72
  8
0
 62
256
370
-1
 48
1.0
  6
BYLAYER
100
AcDbEntity
100
AcDbSpline
 70
8
 71
3
 72
10
 73
6
 74
0
 40
0.0
 40
0.0
 40
0.0
 40
0.0
 40
1.0
 40
2.0
 40
3.0
 40
3.0
 40
3.0
 40
3.0
 10
39.550575656226826
 20
36.245188708513162
 30
0.0
 10
38.145853802916704
 20
36.070025523868097
 30
0.0
 10
36.178640702916717
 20
34.102812423868066
 30
0.0
 10
34.709617691873774
 20
32.569532062460581
 30
0.0
 10
33.374709615387161
 20
32.31165209313933
 30
0.0
 10
32.843966749062204
 20
32.843966749062218
 30
0.0
  0
SPLINE
  5
73
  8
0
 62
256
370
-1
 48
1.0
  6
BYLAYER
100
AcDbEntity
100
AcDbSpline
 70
8
 71
3
 72
10
 73
6
 74
0
 40
0.0
 40
0.0
 40
0.0
 40
0.0
 40
1.0
 40
2.0
 40
3.0
 40
3.0
 40
3.0
 40
3.0
 10
36.245188708513162
 20
39.550575656226826
 30
0.0
 10
36.070025523868082
 20
38.145853802916712
 30
0.0
 10
34.102812423868059
 20
36.178640702916724
 30
0.0
 10
32.569532062460524
 20
34.709617691873845
 30
0.0
 10
32.311652093139251
 20
33.374709615387232
 30
0.0
 10
32.843966749062204
 20
32.843966749062218
 30
0.0
  0
SPLINE
  5
74
  8
0
 62
256
370
-1
 48
1.0
  6
BYLAYER
100
AcDbEntity
100
AcDbSpline
 70
8
 71
3
 72
10
 73
6
 74
0
 40
0.0
 40
0.0
 40
0.0
 40
0.0
 40
1.0
 40
2.0
 40
3.0
 40
3.0
 40
3.0
 40
3.0
 10
39.55057565622684
 20
63.754811291486853
 30
0.0
 10
38.145853802916704
 20
63.92997447613191
 30
0.0
 10
36.178640702916695
 20
65.897187576131898
 30
0.0
 10
34.709617691873795
 20
67.430467937539433
 30
0.0
 10
33.374709615387204
 20
67.688347906860713
 30
0.0
 10
32.843966749062218
 20
67.156033250937782
 30
0.0
  0
CIRCLE
  5
75
100
AcDbEntity
100
AcDbCircle
  8
0
 62
256
370
-1
 48
1.0
  6
BYLAYER
 10
60.0
 20
40.0
 30
0.0
 40
1.0
  0
CIRCLE
  5
76
100
AcDbEntity
100
AcDbCircle
  8
0
 62
256
370
-1
 48
1.0
  6
BYLAYER
 10
40.0
 20
40.0
 30
0.0
 40
1.0
  0
CIRCLE
  5
77
100
AcDbEntity
100
AcDbCircle
  8
0
 62
256
370
-1
 48
1.0
  6
BYLAYER
 10
60.0
 20
60.0
 30
0.0
 40
1.0
  0
LINE
  5
78
100
AcDbEntity
100
AcDbLine
  8
0
 62
256
370
-1
 48
1.0
  6
BYLAYER
 10
41.475409900000002
 20
43.442622999999998
 30
0.0
 11
41.475409900000002
 21
43.442622999999998
 31
0.0
  0
LINE
  5
79
100
AcDbEntity
100
AcDbLine
  8
0
 62
256
370
-1
 48
1.0
  6
BYLAYER
 10
57.85109402110556
 20
52.32513896221112
 30
0.0
 11
57.85109402110556
 21
47.67486103778888
 31
0.0
  0
LINE
  5
7A
100
AcDbEntity
100
AcDbLine
  8
0
 62
256
370
-1
 48
1.0
  6
BYLAYER
 10
52.32513896221112
 20
42.14890597889444
 30
0.0
 11
47.67486103778888
 21
42.14890597889444
 31
0.0
  0
LINE
  5
7B
100
AcDbEntity
100
AcDbLine
  8
0
 62
256
370
-1
 48
1.0
  6
BYLAYER
 10
42.14890597889444
 20
47.674861037788872
 30
0.0
 11
42.14890597889444
 21
52.32513896221112
 31
0.0
  0
LINE
  5
7C
100
AcDbEntity
100
AcDbLine
  8
0
 62
256
370
-1
 48
1.0
  6
BYLAYER
 10
47.674861037788872
 20
57.85109402110556
 30
0.0
 11
52.32513896221112
 21
57.85109402110556
 31
0.0
  0
LINE
  5
7D
100
AcDbEntity
100
AcDbLine
  8
0
 62
256
370
-1
 48
1.0
  6
BYLAYER
 10
55.94808975471112
 20
46.886610861394445
 30
0.0
 11
53.622950792499992
 21
49.211749823605565
 31
0.0
  0
LINE
  5
7E
100
AcDbEntity
100
AcDbLine
  8
0
 62
256
370
-1
 48
1.0
  6
BYLAYER
 10
46.886610861394445
 20
44.05191024528888
 30
0.0
 11
49.211749823605565
 21
46.377049207500008
 31
0.0
  0
LINE
  5
7F
100
AcDbEntity
100
AcDbLine
  8
0
 62
256
370
-1
 48
1.0
  6
BYLAYER
 10
44.05191024528888
 20
53.113389138605555
 30
0.0
 11
46.377049207500008
 21
50.788250176394435
 31
0.0
  0
LINE
  5
80
100
AcDbEntity
100
AcDbLine
  8
0
 62
256
370
-1
 48
1.0
  6
BYLAYER
 10
53.113389138605555
 20
55.94808975471112
 30
0.0
 11
50.788250176394435
 21
53.622950792499992
 31
0.0
  0
LINE
  5
81
100
AcDbEntity
100
AcDbLine
  8
0
 62
256
370
-1
 48
1.0
  6
BYLAYER
 10
55.94808975471112
 20
53.113389138605562
 30
0.0
 11
53.622950792499992
 21
50.788250176394442
 31
0.0
  0
LINE
  5
82
100
AcDbEntity
100
AcDbLine
  8
0
 62
256
370
-1
 48
1.0
  6
BYLAYER
 10
53.113389138605562
 20
44.05191024528888
 30
0.0
 11
50.788250176394442
 21
46.377049207500008
 31
0.0
  0
LINE
  5
83
100
AcDbEntity
100
AcDbLine
  8
0
 62
256
370
-1
 48
1.0
  6
BYLAYER
 10
44.05191024528888
 20
46.886610861394431
 30
0.0
 11
46.377049207500008
 21
49.211749823605558
 31
0.0
  0
LINE
  5
84
100
AcDbEntity
100
AcDbLine
  8
0
 62
256
370
-1
 48
1.0
  6
BYLAYER
 10
46.886610861394431
 20
55.94808975471112
 30
0.0
 11
49.211749823605558
 21
53.622950792499992
 31
0.0
  0
ARC
  5
85
100
AcDbEntity
  8
0
 62
256
370
-1
 48
1.0
  6
BYLAYER
100
AcDbCircle
 10
56.736339931105555
 20
52.32513896221112
 30
0.0
 40
1.1147540899999999
100
AcDbArc
 50
0.0
 51
134.99999999999983
  0
ARC
  5
86
100
AcDbEntity
  8
0
 62
256
370
-1
 48
1.0
  6
BYLAYER
100
AcDbCircle
 10
52.32513896221112
 20
43.263660068894445
 30
0.0
 40
1.1147540899999999
100
AcDbArc
 50
270.0
 51
44.999999999999844
  0
ARC
  5
87
100
AcDbEntity
  8
0
 62
256
370
-1
 48
1.0
  6
BYLAYER
100
AcDbCircle
 10
43.263660068894445
 20
47.67486103778888
 30
0.0
 40
1.1147540899999999
100
AcDbArc
 50
180.0
 51
314.99999999999983
  0
ARC
  5
88
100
AcDbEntity
  8
0
 62
256
370
-1
 48
1.0
  6
BYLAYER
100
AcDbCircle
 10
47.674861037788872
 20
56.736339931105555
 30
0.0
 40
1.1147540899999999
100
AcDbArc
 50
90.0
 51
224.99999999999983
  0
ARC
  5
89
100
AcDbEntity
  8
0
 62
256
370
-1
 48
1.0
  6
BYLAYER
100
AcDbCircle
 10
54.411200968894434
 20
50.000000000000007
 30
0.0
 40
1.1147540899999999
100
AcDbArc
 50
134.99999999999994
 51
225.00000000000003
  0
ARC
  5
8A
100
AcDbEntity
  8
0
 62
256
370
-1
 48
1.0
  6
BYLAYER
100
AcDbCircle
 10
50.000000000000007
 20
45.588799031105566
 30
0.0
 40
1.1147540899999999
100
AcDbArc
 50
45.0
 51
134.99999999999994
  0
ARC
  5
8B
100
AcDbEntity
  8
0
 62
256
370
-1
 48
1.0
  6
BYLAYER
100
AcDbCircle
 10
45.588799031105566
 20
49.999999999999993
 30
0.0
 40
1.1147540899999999
100
AcDbArc
 50
315.0
 51
45.0
  0
ARC
  5
8C
100
AcDbEntity
  8
0
 62
256
370
-1
 48
1.0
  6
BYLAYER
100
AcDbCircle
 10
49.999999999999993
 20
54.411200968894434
 30
0.0
 40
1.1147540899999999
100
AcDbArc
 50
225.0
 51
315.0
  0
ARC
  5
8D
100
AcDbEntity
  8
0
 62
256
370
-1
 48
1.0
  6
BYLAYER
100
AcDbCircle
 10
56.736339931105555
 20
47.67486103778888
 30
0.0
 40
1.1147540899999999
100
AcDbArc
 50
224.99999999999983
 51
0.0
  0
ARC
  5
8E
100
AcDbEntity
  8
0
 62
256
370
-1
 48
1.0
  6
BYLAYER
100
AcDbCircle
 10
47.67486103778888
 20
43.263660068894445
 30
0.0
 40
1.1147540899999999
100
AcDbArc
 50
134.99999999999983
 51
270.0
  0
ARC
  5
8F
100
AcDbEntity
  8
0
 62
256
370
-1
 48
1.0
  6
BYLAYER
100
AcDbCircle
 10
43.263660068894445
 20
52.32513896221112
 30
0.0
 40
1.1147540899999999
100
AcDbArc
 50
44.999999999999844
 51
180.0
  0
ARC
  5
90
100
AcDbEntity
  8
0
 62
256
370
-1
 48
1.0
  6
BYLAYER
100
AcDbCircle
 10
52.32513896221112
 20
56.736339931105555
 30
0.0
 40
1.1147540899999999
100
AcDbArc
 50
314.99999999999983
 51
90.0
  0
ENDSEC
  0
SECTION
  2
OBJECTS
  0
DICTIONARY
  5
C
100
AcDbDictionary
280
0
281
1
  3
ACAD_GROUP
350
D
  3
ACAD_LAYOUT
350
1A
  3
ACAD_MLINESTYLE
350
17
  3
ACAD_PLOTSETTINGS
350
19
  3
ACAD_PLOTSTYLENAME
350
E
  3
AcDbVariableDictionary
350
91
  3
QCAD_OBJECTS
350
92
  0
DICTIONARY
  5
D
100
AcDbDictionary
280
0
281
1
  0
ACDBDICTIONARYWDFLT
  5
E
100
AcDbDictionary
281
1
  3
Normal
350
F
100
AcDbDictionaryWithDefault
340
F
  0
ACDBPLACEHOLDER
  5
F
  0
DICTIONARY
  5
17
100
AcDbDictionary
280
0
281
1
  3
Standard
350
18
  0
MLINESTYLE
  5
18
100
AcDbMlineStyle
  2
STANDARD
 70
0
  3

 62
256
 51
90.0
 52
90.0
 71
2
 49
0.5
 62
256
  6
BYLAYER
 49
-0.5
 62
256
  6
BYLAYER
  0
DICTIONARY
  5
19
100
AcDbDictionary
280
0
281
1
  0
DICTIONARY
  5
1A
100
AcDbDictionary
281
1
  3
Layout1
350
1E
  3
Layout2
350
26
  3
Model
350
22
  0
LAYOUT
  5
1E
100
AcDbPlotSettings
  1

  2
none_device
  4

  6

 40
0.0
 41
0.0
 42
0.0
 43
0.0
 44
0.0
 45
0.0
 46
0.0
 47
0.0
 48
0.0
 49
0.0
140
0.0
141
0.0
142
1.0
143
1.0
 70
688
 72
0
 73
0
 74
5
  7

 75
16
147
1.0
148
0.0
149
0.0
100
AcDbLayout
  1
Layout1
 70
1
 71
1
 10
0.0
 20
0.0
 11
420.0
 21
297.0
 12
0.0
 22
0.0
 32
0.0
 14
100000000000000000000.0
 24
100000000000000000000.0
 34
100000000000000000000.0
 15
-100000000000000000000.0
 25
-100000000000000000000.0
 35
-100000000000000000000.0
146
0.0
 13
0.0
 23
0.0
 33
0.0
 16
1.0
 26
0.0
 36
0.0
 17
0.0
 27
1.0
 37
0.0
 76
0
330
1B
  0
LAYOUT
  5
22
100
AcDbPlotSettings
  1

  2
none_device
  4

  6

 40
0.0
 41
0.0
 42
0.0
 43
0.0
 44
0.0
 45
0.0
 46
0.0
 47
0.0
 48
0.0
 49
0.0
140
0.0
141
0.0
142
1.0
143
1.0
 70
1712
 72
0
 73
0
 74
0
  7

 75
0
147
1.0
148
0.0
149
0.0
100
AcDbLayout
  1
Model
 70
1
 71
0
 10
0.0
 20
0.0
 11
12.0
 21
9.0
 12
0.0
 22
0.0
 32
0.0
 14
0.0
 24
0.0
 34
0.0
 15
0.0
 25
0.0
 35
0.0
146
0.0
 13
0.0
 23
0.0
 33
0.0
 16
1.0
 26
0.0
 36
0.0
 17
0.0
 27
1.0
 37
0.0
 76
0
330
1F
  0
LAYOUT
  5
26
100
AcDbPlotSettings
  1

  2
none_device
  4

  6

 40
0.0
 41
0.0
 42
0.0
 43
0.0
 44
0.0
 45
0.0
 46
0.0
 47
0.0
 48
0.0
 49
0.0
140
0.0
141
0.0
142
1.0
143
1.0
 70
688
 72
0
 73
0
 74
5
  7

 75
16
147
1.0
148
0.0
149
0.0
100
AcDbLayout
  1
Layout2
 70
1
 71
2
 10
0.0
 20
0.0
 11
12.0
 21
9.0
 12
0.0
 22
0.0
 32
0.0
 14
0.0
 24
0.0
 34
0.0
 15
0.0
 25
0.0
 35
0.0
146
0.0
 13
0.0
 23
0.0
 33
0.0
 16
1.0
 26
0.0
 36
0.0
 17
0.0
 27
1.0
 37
0.0
 76
0
330
23
  0
DICTIONARY
  5
91
100
AcDbDictionary
281
1
  3
DIMASSOC
350
94
  3
HIDETEXT
350
93
  0
DICTIONARYVAR
  5
93
100
DictionaryVariables
280
0
  1
2
  0
DICTIONARYVAR
  5
94
100
DictionaryVariables
280
0
  1
1
  0
DICTIONARY
  5
92
100
AcDbDictionary
281
1
  3
ColorSettings/BackgroundColor
350
95
  3
ColorSettings/ColorMode
350
96
  3
Grid/DisplayGrid00
350
97
  3
Grid/DisplayGrid01
350
98
  3
Grid/DisplayGrid02
350
99
  3
Grid/DisplayGrid03
350
9A
  3
Grid/GridSpacingX00
350
9B
  3
Grid/GridSpacingX01
350
9C
  3
Grid/GridSpacingX02
350
9D
  3
Grid/GridSpacingX03
350
9E
  3
Grid/GridSpacingY00
350
9F
  3
Grid/GridSpacingY01
350
A0
  3
Grid/GridSpacingY02
350
A1
  3
Grid/GridSpacingY03
350
A2
  3
Grid/IsometricGrid00
350
A3
  3
Grid/IsometricGrid01
350
A4
  3
Grid/IsometricGrid02
350
A5
  3
Grid/IsometricGrid03
350
A6
  3
Grid/IsometricProjection00
350
A7
  3
Grid/IsometricProjection01
350
A8
  3
Grid/IsometricProjection02
350
A9
  3
Grid/IsometricProjection03
350
AA
  3
Grid/MetaGridSpacingX00
350
AB
  3
Grid/MetaGridSpacingX01
350
AC
  3
Grid/MetaGridSpacingX02
350
AD
  3
Grid/MetaGridSpacingX03
350
AE
  3
Grid/MetaGridSpacingY00
350
AF
  3
Grid/MetaGridSpacingY01
350
B0
  3
Grid/MetaGridSpacingY02
350
B1
  3
Grid/MetaGridSpacingY03
350
B2
  3
MultiPageSettings/Columns
350
B3
  3
MultiPageSettings/GlueMarginsBottom
350
B4
  3
MultiPageSettings/GlueMarginsLeft
350
B5
  3
MultiPageSettings/GlueMarginsRight
350
B6
  3
MultiPageSettings/GlueMarginsTop
350
B7
  3
MultiPageSettings/PrintCropMarks
350
B8
  3
MultiPageSettings/Rows
350
B9
  3
PageSettings/OffsetX
350
BA
  3
PageSettings/OffsetY
350
BB
  3
PageSettings/PageOrientation
350
BC
  3
PageSettings/PaperHeight
350
BD
  3
PageSettings/PaperWidth
350
BE
  3
PageSettings/Scale
350
BF
  3
PageSettings/ShowPaperBorders
350
C0
  3
QCADVersion
350
C1
  3
UnitSettings/PaperUnit
350
C2
  0
XRECORD
  5
95
330
92
100
AcDbXrecord
280
1
1000
White
  0
XRECORD
  5
96
330
92
100
AcDbXrecord
280
1
1000
FullColor
  0
XRECORD
  5
97
330
92
100
AcDbXrecord
280
1
290
1
  0
XRECORD
  5
98
330
92
100
AcDbXrecord
280
1
290
1
  0
XRECORD
  5
99
330
92
100
AcDbXrecord
280
1
290
1
  0
XRECORD
  5
9A
330
92
100
AcDbXrecord
280
1
290
1
  0
XRECORD
  5
9B
330
92
100
AcDbXrecord
280
1
1000
auto
  0
XRECORD
  5
9C
330
92
100
AcDbXrecord
280
1
1000
auto
  0
XRECORD
  5
9D
330
92
100
AcDbXrecord
280
1
1000
auto
  0
XRECORD
  5
9E
330
92
100
AcDbXrecord
280
1
1000
auto
  0
XRECORD
  5
9F
330
92
100
AcDbXrecord
280
1
1000
auto
  0
XRECORD
  5
A0
330
92
100
AcDbXrecord
280
1
1000
auto
  0
XRECORD
  5
A1
330
92
100
AcDbXrecord
280
1
1000
auto
  0
XRECORD
  5
A2
330
92
100
AcDbXrecord
280
1
1000
auto
  0
XRECORD
  5
A3
330
92
100
AcDbXrecord
280
1
290
0
  0
XRECORD
  5
A4
330
92
100
AcDbXrecord
280
1
290
0
  0
XRECORD
  5
A5
330
92
100
AcDbXrecord
280
1
290
0
  0
XRECORD
  5
A6
330
92
100
AcDbXrecord
280
1
290
0
  0
XRECORD
  5
A7
330
92
100
AcDbXrecord
280
1
 90
0
  0
XRECORD
  5
A8
330
92
100
AcDbXrecord
280
1
 90
0
  0
XRECORD
  5
A9
330
92
100
AcDbXrecord
280
1
 90
0
  0
XRECORD
  5
AA
330
92
100
AcDbXrecord
280
1
 90
0
  0
XRECORD
  5
AB
330
92
100
AcDbXrecord
280
1
1000
auto
  0
XRECORD
  5
AC
330
92
100
AcDbXrecord
280
1
1000
auto
  0
XRECORD
  5
AD
330
92
100
AcDbXrecord
280
1
1000
auto
  0
XRECORD
  5
AE
330
92
100
AcDbXrecord
280
1
1000
auto
  0
XRECORD
  5
AF
330
92
100
AcDbXrecord
280
1
1000
auto
  0
XRECORD
  5
B0
330
92
100
AcDbXrecord
280
1
1000
auto
  0
XRECORD
  5
B1
330
92
100
AcDbXrecord
280
1
1000
auto
  0
XRECORD
  5
B2
330
92
100
AcDbXrecord
280
1
1000
auto
  0
XRECORD
  5
B3
330
92
100
AcDbXrecord
280
1
 90
1
  0
XRECORD
  5
B4
330
92
100
AcDbXrecord
280
1
 40
10.0
  0
XRECORD
  5
B5
330
92
100
AcDbXrecord
280
1
 40
10.0
  0
XRECORD
  5
B6
330
92
100
AcDbXrecord
280
1
 40
10.0
  0
XRECORD
  5
B7
330
92
100
AcDbXrecord
280
1
 40
10.0
  0
XRECORD
  5
B8
330
92
100
AcDbXrecord
280
1
290
0
  0
XRECORD
  5
B9
330
92
100
AcDbXrecord
280
1
 90
1
  0
XRECORD
  5
BA
330
92
100
AcDbXrecord
280
1
 40
0.0
  0
XRECORD
  5
BB
330
92
100
AcDbXrecord
280
1
 40
0.0
  0
XRECORD
  5
BC
330
92
100
AcDbXrecord
280
1
1000
Portrait
  0
XRECORD
  5
BD
330
92
100
AcDbXrecord
280
1
 40
297.0
  0
XRECORD
  5
BE
330
92
100
AcDbXrecord
280
1
 40
210.0
  0
XRECORD
  5
BF
330
92
100
AcDbXrecord
280
1
1000
1:1
  0
XRECORD
  5
C0
330
92
100
AcDbXrecord
280
1
290
1
  0
XRECORD
  5
C1
330
92
100
AcDbXrecord
280
1
1000
3.12.4
  0
XRECORD
  5
C2
330
92
100
AcDbXrecord
280
1
 90
4
  0
ENDSEC
  0
EOF
