0
SECTION
2
HEADER
9
$INSUNITS
70
4
9
$ACADVER
1
AC1014
9
$HANDSEED
5
FFFF
0
ENDSEC
0
SECTION
2
TABLES
0
TABLE
2
VPORT
5
8
100
AcDbSymbolTable
0
ENDTAB
0
TABLE
2
LTYPE
5
5
100
AcDbSymbolTable
0
LTYPE
5
14
100
AcDbSymbolTableRecord
100
AcDbLinetypeTableRecord
2
BYBLOCK
70
0
0
LTYPE
5
15
100
AcDbSymbolTableRecord
100
AcDbLinetypeTableRecord
2
BYLAYER
70
0
0
ENDTAB
0
TABLE
2
LAYER
5
2
100
AcDbSymbolTable
70
2
0
LAYER
5
50
100
AcDbSymbolTableRecord
100
AcDbLayerTableRecord
2
0
70
0
6
CONTINUOUS
0
ENDTAB
0
TABLE
2
STYLE
5
3
100
AcDbSymbolTable
70
1
0
STYLE
5
11
100
AcDbSymbolTableRecord
100
AcDbTextStyleTableRecord
2
STANDARD
70
0
0
ENDTAB
0
TABLE
2
VIEW
5
6
100
AcDbSymbolTable
70
0
0
ENDTAB
0
TABLE
2
UCS
5
7
100
AcDbSymbolTable
70
0
0
ENDTAB
0
TABLE
2
APPID
5
9
100
AcDbSymbolTable
70
2
0
APPID
5
12
100
AcDbSymbolTableRecord
100
AcDbRegAppTableRecord
2
ACAD
70
0
0
ENDTAB
0
TABLE
2
DIMSTYLE
5
A
100
AcDbSymbolTable
70
1
0
ENDTAB
0
TABLE
2
BLOCK_RECORD
5
1
100
AcDbSymbolTable
70
1
0
BLOCK_RECORD
5
1F
100
AcDbSymbolTableRecord
100
AcDbBlockTableRecord
2
*MODEL_SPACE
0
BLOCK_RECORD
5
1B
100
AcDbSymbolTableRecord
100
AcDbBlockTableRecord
2
*PAPER_SPACE
0
ENDTAB
0
ENDSEC
0
SECTION
2
BLOCKS
0
BLOCK
5
20
100
AcDbEntity
100
AcDbBlockBegin
2
*MODEL_SPACE
0
ENDBLK
5
21
100
AcDbEntity
100
AcDbBlockEnd
0
BLOCK
5
1C
100
AcDbEntity
100
AcDbBlockBegin
2
*PAPER_SPACE
0
ENDBLK
5
1D
100
AcDbEntity
100
AcDbBlockEnd
0
ENDSEC
0
SECTION
2
ENTITIES
0
LWPOLYLINE
5
100
100
AcDbEntity
8
0
100
AcDbPolyline
90
4
70
1
43
0.0
10
-90
20
-8.9999999999999787
10
-110
20
-8.9999999999999787
42
0.99999999999999989
10
-110
20
-10.999999999999979
10
-90
20
-10.999999999999979
42
0.99999999999999989
0
CIRCLE
5
101
100
AcDbEntity
8
0
100
AcDbCircle
10
-130.09924240491722
20
-30.099242404917142
30
0
40
1.4749999999999863
0
CIRCLE
5
102
100
AcDbEntity
8
0
100
AcDbCircle
10
-84.75
20
-15.249999999999979
30
0
40
1.4999999999999991
0
CIRCLE
5
103
100
AcDbEntity
8
0
100
AcDbCircle
10
-69.900757595082922
20
-30.099242404917238
30
0
40
1.4749999999999863
0
CIRCLE
5
104
100
AcDbEntity
8
0
100
AcDbCircle
10
-115.25
20
-15.249999999999979
30
0
40
1.4999999999999991
0
CIRCLE
5
105
100
AcDbEntity
8
0
100
AcDbCircle
10
-115.25
20
15.250000000000005
30
0
40
1.4999999999999991
0
CIRCLE
5
106
100
AcDbEntity
8
0
100
AcDbCircle
10
-69.900757595082922
20
30.099242404917263
30
0
40
1.4749999999999863
0
CIRCLE
5
107
100
AcDbEntity
8
0
100
AcDbCircle
10
-84.75
20
15.250000000000005
30
0
40
1.4999999999999991
0
CIRCLE
5
108
100
AcDbEntity
8
0
100
AcDbCircle
10
-130.09924240491722
20
30.09924240491717
30
0
40
1.4749999999999863
0
LWPOLYLINE
5
109
100
AcDbEntity
8
0
100
AcDbPolyline
90
4
70
1
43
0.0
10
-90
20
11.000000000000005
10
-110
20
11.000000000000005
42
0.99999999999999989
10
-110
20
9.0000000000000053
10
-90
20
9.0000000000000036
42
0.99999999999999989
0
ARC
5
110
100
AcDbEntity
8
0
100
AcDbCircle
10
-69.900757595082922
20
-30.099242404917238
30
0
40
7.4999999999998588
100
AcDbArc
50
-135.00000000000031
51
44.99999999999995
0
LINE
5
111
100
AcDbEntity
8
0
100
AcDbLine
10
-64.597456736183915
20
-24.795941546018241
30
9.2444637330585569e-32
11
-76.535533905932752
21
-12.857864376269355
31
0
0
ARC
5
112
100
AcDbEntity
8
0
100
AcDbCircle
10
-73.000000000000043
20
-9.3223304703366416
30
8.8949609551868271e-47
40
4.9999999999999645
100
AcDbArc
50
180
51
225.00000000000003
0
LINE
5
113
100
AcDbEntity
8
0
100
AcDbLine
10
-78
20
-9.3223304703366274
30
-1.300032754988844e-46
11
-78
21
9.3223304703366523
31
0
0
ARC
5
114
100
AcDbEntity
8
0
100
AcDbCircle
10
-73.000000000000057
20
9.3223304703366701
30
2.8053338397127686e-46
40
4.9999999999999547
100
AcDbArc
50
134.99999999999991
51
180
0
LINE
5
115
100
AcDbEntity
8
0
100
AcDbLine
10
-76.535533905932752
20
12.857864376269376
30
2.3800110049721428e-32
11
-64.597456736183915
21
24.79594154601827
31
0
0
ARC
5
116
100
AcDbEntity
8
0
100
AcDbCircle
10
-69.900757595082922
20
30.099242404917263
30
0
40
7.499999999999857
100
AcDbArc
50
-44.999999999999901
51
135.00000000000031
0
LINE
5
117
100
AcDbEntity
8
0
100
AcDbLine
10
-75.204058453981958
20
35.402543263816241
30
-9.2444637330585569e-32
11
-87.142138522228862
21
23.464463195569195
31
0
0
ARC
5
118
100
AcDbEntity
8
0
100
AcDbCircle
10
-90.671000593147397
20
27.006668936516181
30
0
40
5.0000000000000302
100
AcDbArc
50
269.97294228177316
51
314.89187841374604
0
LINE
5
119
100
AcDbEntity
8
0
100
AcDbLine
10
-90.673361824415309
20
22.006669494057491
30
-9.5854726176614009e-50
11
-109.34181752581662
21
22.015485603305784
31
0
0
ARC
5
120
100
AcDbEntity
8
0
100
AcDbCircle
10
-109.33781447119742
20
27.015484000860916
30
0
40
5.0000000000000213
100
AcDbArc
50
224.99999999999977
51
269.95412836813136
0
LINE
5
121
100
AcDbEntity
8
0
100
AcDbLine
10
-112.87334837713018
20
23.479950094928178
30
1.2325951644078342e-31
11
-124.79594154601811
21
35.40254326381622
31
3.4512664603419266e-30
0
ARC
5
122
100
AcDbEntity
8
0
100
AcDbCircle
10
-130.09924240491722
20
30.09924240491717
30
0
40
7.4999999999999512
100
AcDbArc
50
44.999999999999694
51
232.2013602266295
0
LINE
5
123
100
AcDbEntity
8
0
100
AcDbLine
10
-134.69590461635161
20
24.172970683677057
30
1.1588562689125752e-32
11
-123.4619825730924
21
12.923249544638505
31
0
0
ARC
5
124
100
AcDbEntity
8
0
100
AcDbCircle
10
-126.99999999999994
20
9.3902009054462852
30
0
40
4.9999999999999467
100
AcDbArc
50
0
51
44.959738670822013
0
LINE
5
125
100
AcDbEntity
8
0
100
AcDbLine
10
-122
20
9.3902009054462674
30
0
11
-122
21
-9.3902009054462585
31
0
0
ARC
5
126
100
AcDbEntity
8
0
100
AcDbCircle
10
-126.99999999999996
20
-9.3902009054462496
30
3.1132363343153895e-46
40
4.9999999999999636
100
AcDbArc
50
315.04026132917778
51
360
0
LINE
5
127
100
AcDbEntity
8
0
100
AcDbLine
10
-123.46198257309241
20
-12.923249544638495
30
-8.3991330448718937e-32
11
-134.69590461635138
21
-24.172970683676859
31
0
0
ARC
5
128
100
AcDbEntity
8
0
100
AcDbCircle
10
-130.09924240491722
20
-30.099242404917142
30
0
40
7.4999999999999432
100
AcDbArc
50
127.79863977336831
51
315.00000000000028
0
LINE
5
129
100
AcDbEntity
8
0
100
AcDbLine
10
-124.79594154601811
20
-35.402543263816192
30
9.2444637330586763e-32
11
-112.87334837713017
21
-23.479950094928146
31
-1.4791141972893971e-30
0
ARC
5
130
100
AcDbEntity
8
0
100
AcDbCircle
10
-109.3378144711974
20
-27.015484000860933
30
1.2316099784104838e-45
40
5.0000000000000631
100
AcDbArc
50
90.045871631868778
51
134.99999999999986
0
LINE
5
131
100
AcDbEntity
8
0
100
AcDbLine
10
-109.34181752581662
20
-22.015485603305756
30
-8.7157611987989931e-32
11
-90.673361824415338
21
-22.006669494057466
31
0
0
ARC
5
132
100
AcDbEntity
8
0
100
AcDbCircle
10
-90.671000593147383
20
-27.00666893651611
30
0
40
4.9999999999999805
100
AcDbArc
50
45.108121586253738
51
90.027057718227354
0
LINE
5
133
100
AcDbEntity
8
0
100
AcDbLine
10
-87.142138522228862
20
-23.464463195569166
30
0
11
-75.204058453981958
21
-35.40254326381622
31
-9.2444637330585569e-32
0
ENDSEC
0
SECTION
2
OBJECTS
0
DICTIONARY
5
C
100
AcDbDictionary
3
ACAD_GROUP
350
D
3
ACAD_MLINESTYLE
350
17
0
DICTIONARY
5
D
100
AcDbDictionary
0
DICTIONARY
5
1A
330
C
100
AcDbDictionary
0
DICTIONARY
5
17
100
AcDbDictionary
0
ENDSEC
0
EOF
