0
SECTION
2
HEADER
9
$INSUNITS
70
4
9
$ACADVER
1
AC1014
9
$HANDSEED
5
FFFF
0
ENDSEC
0
SECTION
2
TABLES
0
TABLE
2
VPORT
5
8
100
AcDbSymbolTable
0
ENDTAB
0
TABLE
2
LTYPE
5
5
100
AcDbSymbolTable
0
LTYPE
5
14
100
AcDbSymbolTableRecord
100
AcDbLinetypeTableRecord
2
BYBLOCK
70
0
0
LTYPE
5
15
100
AcDbSymbolTableRecord
100
AcDbLinetypeTableRecord
2
BYLAYER
70
0
0
ENDTAB
0
TABLE
2
LAYER
5
2
100
AcDbSymbolTable
70
2
0
LAYER
5
50
100
AcDbSymbolTableRecord
100
AcDbLayerTableRecord
2
0
70
0
6
CONTINUOUS
0
ENDTAB
0
TABLE
2
STYLE
5
3
100
AcDbSymbolTable
70
1
0
STYLE
5
11
100
AcDbSymbolTableRecord
100
AcDbTextStyleTableRecord
2
STANDARD
70
0
0
ENDTAB
0
TABLE
2
VIEW
5
6
100
AcDbSymbolTable
70
0
0
ENDTAB
0
TABLE
2
UCS
5
7
100
AcDbSymbolTable
70
0
0
ENDTAB
0
TABLE
2
APPID
5
9
100
AcDbSymbolTable
70
2
0
APPID
5
12
100
AcDbSymbolTableRecord
100
AcDbRegAppTableRecord
2
ACAD
70
0
0
ENDTAB
0
TABLE
2
DIMSTYLE
5
A
100
AcDbSymbolTable
70
1
0
ENDTAB
0
TABLE
2
BLOCK_RECORD
5
1
100
AcDbSymbolTable
70
1
0
BLOCK_RECORD
5
1F
100
AcDbSymbolTableRecord
100
AcDbBlockTableRecord
2
*MODEL_SPACE
0
BLOCK_RECORD
5
1B
100
AcDbSymbolTableRecord
100
AcDbBlockTableRecord
2
*PAPER_SPACE
0
ENDTAB
0
ENDSEC
0
SECTION
2
BLOCKS
0
BLOCK
5
20
100
AcDbEntity
100
AcDbBlockBegin
2
*MODEL_SPACE
0
ENDBLK
5
21
100
AcDbEntity
100
AcDbBlockEnd
0
BLOCK
5
1C
100
AcDbEntity
100
AcDbBlockBegin
2
*PAPER_SPACE
0
ENDBLK
5
1D
100
AcDbEntity
100
AcDbBlockEnd
0
ENDSEC
0
SECTION
2
ENTITIES
0
ARC
5
100
100
AcDbEntity
8
0
100
AcDbCircle
10
-177.23527481347696
20
14.217514421272117
30
0
40
1.5500000000000553
100
AcDbArc
50
44.999999999999247
51
225.00000085377229
0
LINE
5
101
100
AcDbEntity
8
0
100
AcDbLine
10
-176.13925930263775
20
15.313529932111297
30
0
11
-175.07859913085795
21
14.252869760331475
31
0
0
ARC
5
102
100
AcDbEntity
8
0
100
AcDbCircle
10
-176.17461464169702
20
13.15685424949228
30
0
40
1.5500000000000131
100
AcDbArc
50
-134.99999914622458
51
45.000000000003347
0
LINE
5
103
100
AcDbEntity
8
0
100
AcDbLine
10
-177.27063013620423
20
12.060838722321192
30
0
11
-178.33129030798426
21
13.121498894101062
31
0
0
CIRCLE
5
104
100
AcDbEntity
8
0
100
AcDbCircle
10
2.1446838170162685
20
7.4999999999998712
30
0
40
1.4749999999999999
0
ARC
5
105
100
AcDbEntity
8
0
100
AcDbCircle
10
-164.86090614271239
20
1.8431457505075599
30
0
40
1.5500000000000391
100
AcDbArc
50
44.999999999999432
51
224.99999914622498
0
LINE
5
106
100
AcDbEntity
8
0
100
AcDbLine
10
-163.76489063187321
20
2.9391612613467184
30
0
11
-162.70423046009347
21
1.8785010895669352
31
0
0
ARC
5
107
100
AcDbEntity
8
0
100
AcDbCircle
10
-163.80024597093268
20
0.78248557872772295
30
0
40
1.5500000000000362
100
AcDbArc
50
-134.99999914622614
51
45.000000000000092
0
LINE
5
108
100
AcDbEntity
8
0
100
AcDbLine
10
-164.89626146543995
20
-0.31352994844336263
30
0
11
-165.95692166988351
21
0.74713025600030147
31
0
0
ARC
5
109
100
AcDbEntity
8
0
100
AcDbCircle
10
-177.23527481347702
20
0.78248557872768743
30
0
40
1.5500000000000089
100
AcDbArc
50
135.00000085377363
51
314.99999999999994
0
ARC
5
110
100
AcDbEntity
8
0
100
AcDbCircle
10
-176.17461464169736
20
1.8431457505075244
30
0
40
1.5500000000000131
100
AcDbArc
50
-45.000000000001783
51
134.9999999999973
0
LINE
5
111
100
AcDbEntity
8
0
100
AcDbLine
10
-175.07859913085824
20
0.74713023966833225
30
0
11
-176.13925930263787
21
-0.31352993211146751
31
0
0
LWPOLYLINE
5
112
100
AcDbEntity
8
0
100
AcDbPolyline
90
4
70
1
43
0.0
10
16.244683817016071
20
8.9499999999999247
42
-0.99999999999999989
10
16.244683817016071
20
6.0499999999999332
10
9.0446838170162547
20
6.0499999999999492
42
-0.99999999999999989
10
9.0446838170162547
20
8.949999999999914
0
CIRCLE
5
113
100
AcDbEntity
8
0
100
AcDbCircle
10
-170.51776039220476
20
7.4999999999999289
30
0
40
4.0000000000000044
0
CIRCLE
5
114
100
AcDbEntity
8
0
100
AcDbCircle
10
23.144683817016034
20
7.4999999999998703
30
0
40
1.4749999999999999
0
ARC
5
115
100
AcDbEntity
8
0
100
AcDbCircle
10
-164.86090614271248
20
13.156854249492298
30
0
40
1.5500000000000036
100
AcDbArc
50
135.0000000000019
51
315.00000000000188
0
LINE
5
116
100
AcDbEntity
8
0
100
AcDbLine
10
-165.95692165355166
20
14.252869760331405
30
0
11
-164.8962614817718
21
15.313529932111294
31
0
0
ARC
5
117
100
AcDbEntity
8
0
100
AcDbCircle
10
-163.80024597093274
20
14.217514421272206
30
0
40
1.5500000000000036
100
AcDbArc
50
-44.999999999999751
51
134.99999999999943
0
LINE
5
118
100
AcDbEntity
8
0
100
AcDbLine
10
-162.70423046009358
20
13.121498910433063
30
0
11
-163.7648906318733
21
12.060838738653191
31
0
0
LWPOLYLINE
5
119
100
AcDbEntity
8
0
100
AcDbPolyline
90
52
70
1
43
0.0
10
-145.3534393798283
20
15.056100073454544
42
-0.14498302280177255
10
-160.06453854749722
20
21.170927277474014
42
0.023924779286595661
10
-161.35007629544859
20
22.086292603480729
42
0.35163889639392854
10
-166.95183306398837
20
21.493999338501677
10
-168.45124834571658
20
20.005900357146817
42
-0.11737104688022937
10
-169.63716745549166
20
19.282168584245433
42
-0.28190029638586039
10
-173.24047227709397
20
20.145935253587904
10
-178.04232488062888
20
24.942851057029785
42
0.35195103835883185
10
-183.64139945872336
20
25.594610203143297
42
0.10777563399007253
10
-188.62318750923532
20
20.632351222517322
42
0.35293001930681217
10
-188.0516950098052
20
15.012241446560186
10
-181.29485215538438
20
8.2600086260900909
42
-0.4144134788015113
10
-181.2948521553844
20
6.7399913739097652
10
-188.05169500980526
20
-0.012241446560281033
42
0.35293001930682455
10
-188.62318750923544
20
-5.6323512225175882
42
0.10777563399007449
10
-183.6413994587233
20
-10.594610203143375
42
0.35195103835883418
10
-178.04232488062891
20
-9.9428510570299835
10
-173.240472277094
20
-5.1459352535880933
42
-0.28190029638585995
10
-169.63716745549152
20
-4.2821685842456567
42
-0.11737104688024558
10
-168.45124834571658
20
-5.0059003571468725
10
-166.95183306398837
20
-6.4939993385018902
42
0.3516388963939332
10
-161.35007629544862
20
-7.0862926034808478
42
0.023924779286590425
10
-160.06453854749722
20
-6.1709272774741075
42
-0.14498302280176903
10
-145.35343937982833
20
-0.056100073454694165
42
-0.026499738706008854
10
-144.29568030950503
20
-1.3322676295501878e-14
10
-23.051025933422764
20
2.4480417692984702e-13
42
-0.035932549400231203
10
-8.7335596775898736
20
-1.0302563405705811
10
0.71302816552009296
20
-2.3968477621059292
42
0.071958007245961755
10
3.5765214167143977
20
-2.3968477621018733
10
12.906956214260074
20
-1.0470596306054138
42
0.15278044140761968
10
13.445494024269722
20
-0.78898238561056722
42
-0.14688238252586239
10
15.044292674727819
20
-5.6066262743570405e-14
10
16.073312703732046
20
1.1421419365831298e-13
42
-0.074140754688553953
10
16.942714220236255
20
-0.28305673303093359
42
0.15278044140760808
10
17.532311957316363
20
-0.37793215462004931
10
20.144774790776339
20
-8.8817841970012523e-14
10
21.925327625850102
20
0
42
0.17786859946680147
10
24.514752571926696
20
0.95124969067055365
42
0.46267319747600366
10
24.514752571926664
20
14.048750309329289
42
0.17786859946680358
10
21.925327625850073
20
14.999999999999869
10
20.134492425146707
20
14.999999999999911
10
17.530526960551001
20
15.376976640239553
42
0.15267522405069903
10
16.94128753237279
20
15.28234542232514
42
-0.074011486545210656
10
16.073312703732224
20
14.999999999999876
10
15.044292674728883
20
14.999999999999879
42
-0.1468036452010773
10
13.446193359314506
20
15.78833095731374
42
0.15267522405070436
10
12.907983054244809
20
16.04618331554035
10
3.5775405466127097
20
17.396953483693082
42
0.071987646013260978
10
0.71288001335479523
20
17.397079536202561
10
-8.7328305047172279
20
16.030470676346173
42
-0.035936296596773713
10
-23.051778282204118
20
15.000000000000124
10
-144.29568030950495
20
14.999999999999877
42
-0.026499738706002522
0
LINE
5
120
100
AcDbEntity
8
0
100
AcDbLine
10
-177.2706301525364
20
2.9391612613466656
30
0
11
-178.33129034064808
21
1.8785010732349425
31
0
0
ENDSEC
0
SECTION
2
OBJECTS
0
DICTIONARY
5
C
100
AcDbDictionary
3
ACAD_GROUP
350
D
3
ACAD_MLINESTYLE
350
17
0
DICTIONARY
5
D
100
AcDbDictionary
0
DICTIONARY
5
1A
330
C
100
AcDbDictionary
0
DICTIONARY
5
17
100
AcDbDictionary
0
ENDSEC
0
EOF
