  0
SECTION
  2
HEADER
  9
$ACADVER
  1
AC1014
  9
$ACADMAINTVER
 70
     9
  9
$DWGCODEPAGE
  3
ANSI_1252
  9
$INSBASE
 10
0.0
 20
0.0
 30
0.0
  9
$EXTMIN
 10
1.000000000000000E+20
 20
1.000000000000000E+20
 30
1.000000000000000E+20
  9
$EXTMAX
 10
-1.000000000000000E+20
 20
-1.000000000000000E+20
 30
-1.000000000000000E+20
  9
$LIMMIN
 10
0.0
 20
0.0
  9
$LIMMAX
 10
12.0
 20
9.0
  9
$ORTHOMODE
 70
     0
  9
$REGENMODE
 70
     1
  9
$FILLMODE
 70
     1
  9
$QTEXTMODE
 70
     0
  9
$MIRRTEXT
 70
     1
  9
$DRAGMODE
 70
     2
  9
$LTSCALE
 40
1.0
  9
$OSMODE
 70
    37
  9
$ATTMODE
 70
     1
  9
$TEXTSIZE
 40
0.2
  9
$TRACEWID
 40
0.05
  9
$TEXTSTYLE
  7
STANDARD
  9
$CLAYER
  8
0
  9
$CELTYPE
  6
BYLAYER
  9
$CECOLOR
 62
   256
  9
$CELTSCALE
 40
1.0
  9
$DELOBJ
 70
     1
  9
$DISPSILH
 70
     0
  9
$DIMSCALE
 40
1.0
  9
$DIMASZ
 40
0.18
  9
$DIMEXO
 40
0.0625
  9
$DIMDLI
 40
0.38
  9
$DIMRND
 40
0.0
  9
$DIMDLE
 40
0.0
  9
$DIMEXE
 40
0.18
  9
$DIMTP
 40
0.0
  9
$DIMTM
 40
0.0
  9
$DIMTXT
 40
0.18
  9
$DIMCEN
 40
0.09
  9
$DIMTSZ
 40
0.0
  9
$DIMTOL
 70
     0
  9
$DIMLIM
 70
     0
  9
$DIMTIH
 70
     1
  9
$DIMTOH
 70
     1
  9
$DIMSE1
 70
     0
  9
$DIMSE2
 70
     0
  9
$DIMTAD
 70
     0
  9
$DIMZIN
 70
     0
  9
$DIMBLK
  1

  9
$DIMASO
 70
     1
  9
$DIMSHO
 70
     1
  9
$DIMPOST
  1

  9
$DIMAPOST
  1

  9
$DIMALT
 70
     0
  9
$DIMALTD
 70
     2
  9
$DIMALTF
 40
25.4
  9
$DIMLFAC
 40
1.0
  9
$DIMTOFL
 70
     0
  9
$DIMTVP
 40
0.0
  9
$DIMTIX
 70
     0
  9
$DIMSOXD
 70
     0
  9
$DIMSAH
 70
     0
  9
$DIMBLK1
  1

  9
$DIMBLK2
  1

  9
$DIMSTYLE
  2
STANDARD
  9
$DIMCLRD
 70
     0
  9
$DIMCLRE
 70
     0
  9
$DIMCLRT
 70
     0
  9
$DIMTFAC
 40
1.0
  9
$DIMGAP
 40
0.09
  9
$DIMJUST
 70
     0
  9
$DIMSD1
 70
     0
  9
$DIMSD2
 70
     0
  9
$DIMTOLJ
 70
     1
  9
$DIMTZIN
 70
     0
  9
$DIMALTZ
 70
     0
  9
$DIMALTTZ
 70
     0
  9
$DIMFIT
 70
     3
  9
$DIMUPT
 70
     0
  9
$DIMUNIT
 70
     2
  9
$DIMDEC
 70
     4
  9
$DIMTDEC
 70
     4
  9
$DIMALTU
 70
     2
  9
$DIMALTTD
 70
     2
  9
$DIMTXSTY
  7
STANDARD
  9
$DIMAUNIT
 70
     0
  9
$LUNITS
 70
     2
  9
$LUPREC
 70
     4
  9
$SKETCHINC
 40
0.1
  9
$FILLETRAD
 40
0.5
  9
$AUNITS
 70
     0
  9
$AUPREC
 70
     0
  9
$MENU
  1
.
  9
$ELEVATION
 40
0.0
  9
$PELEVATION
 40
0.0
  9
$THICKNESS
 40
0.0
  9
$LIMCHECK
 70
     0
  9
$CHAMFERA
 40
0.0
  9
$CHAMFERB
 40
0.0
  9
$CHAMFERC
 40
0.0
  9
$CHAMFERD
 40
0.0
  9
$SKPOLY
 70
     0
  9
$TDCREATE
 40
2458770.903621435
  9
$TDUPDATE
 40
2458770.903621933
  9
$TDINDWG
 40
0.0000000116
  9
$TDUSRTIMER
 40
0.0000000116
  9
$USRTIMER
 70
     1
  9
$ANGBASE
 50
0.0
  9
$ANGDIR
 70
     0
  9
$PDMODE
 70
     0
  9
$PDSIZE
 40
0.0
  9
$PLINEWID
 40
0.0
  9
$COORDS
 70
     1
  9
$SPLFRAME
 70
     0
  9
$SPLINETYPE
 70
     6
  9
$SPLINESEGS
 70
     8
  9
$ATTDIA
 70
     0
  9
$ATTREQ
 70
     1
  9
$HANDLING
 70
     1
  9
$HANDSEED
  5
342
  9
$SURFTAB1
 70
     6
  9
$SURFTAB2
 70
     6
  9
$SURFTYPE
 70
     6
  9
$SURFU
 70
     6
  9
$SURFV
 70
     6
  9
$UCSNAME
  2

  9
$UCSORG
 10
0.0
 20
0.0
 30
0.0
  9
$UCSXDIR
 10
1.0
 20
0.0
 30
0.0
  9
$UCSYDIR
 10
0.0
 20
1.0
 30
0.0
  9
$PUCSNAME
  2

  9
$PUCSORG
 10
0.0
 20
0.0
 30
0.0
  9
$PUCSXDIR
 10
1.0
 20
0.0
 30
0.0
  9
$PUCSYDIR
 10
0.0
 20
1.0
 30
0.0
  9
$USERI1
 70
     0
  9
$USERI2
 70
     0
  9
$USERI3
 70
     0
  9
$USERI4
 70
     0
  9
$USERI5
 70
     0
  9
$USERR1
 40
0.0
  9
$USERR2
 40
0.0
  9
$USERR3
 40
0.0
  9
$USERR4
 40
0.0
  9
$USERR5
 40
0.0
  9
$WORLDVIEW
 70
     1
  9
$SHADEDGE
 70
     3
  9
$SHADEDIF
 70
    70
  9
$TILEMODE
 70
     1
  9
$MAXACTVP
 70
    64
  9
$PINSBASE
 10
0.0
 20
0.0
 30
0.0
  9
$PLIMCHECK
 70
     0
  9
$PEXTMIN
 10
1.000000000000000E+20
 20
1.000000000000000E+20
 30
1.000000000000000E+20
  9
$PEXTMAX
 10
-1.000000000000000E+20
 20
-1.000000000000000E+20
 30
-1.000000000000000E+20
  9
$PLIMMIN
 10
0.0
 20
0.0
  9
$PLIMMAX
 10
12.0
 20
9.0
  9
$UNITMODE
 70
     0
  9
$VISRETAIN
 70
     1
  9
$PLINEGEN
 70
     0
  9
$PSLTSCALE
 70
     1
  9
$TREEDEPTH
 70
  3020
  9
$PICKSTYLE
 70
     1
  9
$CMLSTYLE
  2
STANDARD
  9
$CMLJUST
 70
     0
  9
$CMLSCALE
 40
1.0
  9
$PROXYGRAPHICS
 70
     1
  9
$MEASUREMENT
 70
     1
  0
ENDSEC
  0
SECTION
  2
CLASSES
  0
CLASS
  1
ACDBDICTIONARYWDFLT
  2
AcDbDictionaryWithDefault
  3
ObjectDBX Classes
 90
        0
280
     0
281
     0
  0
CLASS
  1
VISUALSTYLE
  2
AcDbVisualStyle
  3
ObjectDBX Classes
 90
     4095
280
     0
281
     0
  0
CLASS
  1
MATERIAL
  2
AcDbMaterial
  3
ObjectDBX Classes
 90
     1153
280
     0
281
     0
  0
CLASS
  1
SCALE
  2
AcDbScale
  3
ObjectDBX Classes
 90
     1153
280
     0
281
     0
  0
CLASS
  1
TABLESTYLE
  2
AcDbTableStyle
  3
ObjectDBX Classes
 90
     4095
280
     0
281
     0
  0
CLASS
  1
MLEADERSTYLE
  2
AcDbMLeaderStyle
  3
ACDB_MLEADERSTYLE_CLASS
 90
     4095
280
     0
281
     0
  0
CLASS
  1
SUN
  2
AcDbSun
  3
SCENEOE
 90
     1153
280
     0
281
     0
  0
CLASS
  1
DICTIONARYVAR
  2
AcDbDictionaryVar
  3
ObjectDBX Classes
 90
        0
280
     0
281
     0
  0
CLASS
  1
XRECORD
  2
AcDbXrecord
  3
ObjectDBX Classes
 90
        0
280
     0
281
     0
  0
CLASS
  1
LWPOLYLINE
  2
AcDbPolyline
  3
ObjectDBX Classes
 90
        0
280
     0
281
     1
  0
CLASS
  1
HATCH
  2
AcDbHatch
  3
ObjectDBX Classes
 90
        0
280
     0
281
     1
  0
CLASS
  1
ACDBPLACEHOLDER
  2
AcDbPlaceHolder
  3
ObjectDBX Classes
 90
        0
280
     0
281
     0
  0
CLASS
  1
LAYOUT
  2
AcDbLayout
  3
ObjectDBX Classes
 90
        0
280
     0
281
     0
  0
ENDSEC
  0
SECTION
  2
TABLES
  0
TABLE
  2
VPORT
  5
8
102
{ACAD_XDICTIONARY
360
337
102
}
330
0
100
AcDbSymbolTable
 70
     1
  0
VPORT
  5
29
330
8
100
AcDbSymbolTableRecord
100
AcDbViewportTableRecord
  2
*ACTIVE
 70
     0
 10
0.0
 20
0.0
 11
1.0
 21
1.0
 12
0.0
 22
0.0
 13
0.0
 23
0.0
 14
0.5
 24
0.5
 15
0.5
 25
0.5
 16
0.0
 26
0.0
 36
1.0
 17
0.0
 27
0.0
 37
-1000.0
 40
90.75068449281481
 41
1.75
 42
50.0
 43
150.730260069127
 44
212.1658734178219
 50
0.0
 51
0.0
 71
     0
 72
   100
 73
     1
 74
     3
 75
     0
 76
     0
 77
     0
 78
     0
  0
ENDTAB
  0
TABLE
  2
LTYPE
  5
5
330
0
100
AcDbSymbolTable
 70
     1
  0
LTYPE
  5
14
330
5
100
AcDbSymbolTableRecord
100
AcDbLinetypeTableRecord
  2
BYBLOCK
 70
     0
  3

 72
    65
 73
     0
 40
0.0
  0
LTYPE
  5
15
330
5
100
AcDbSymbolTableRecord
100
AcDbLinetypeTableRecord
  2
BYLAYER
 70
     0
  3

 72
    65
 73
     0
 40
0.0
  0
LTYPE
  5
16
330
5
100
AcDbSymbolTableRecord
100
AcDbLinetypeTableRecord
  2
CONTINUOUS
 70
     0
  3
Solid line
 72
    65
 73
     0
 40
0.0
  0
ENDTAB
  0
TABLE
  2
LAYER
  5
2
330
0
100
AcDbSymbolTable
 70
     3
  0
LAYER
  5
10
330
2
100
AcDbSymbolTableRecord
100
AcDbLayerTableRecord
  2
0
 70
     0
 62
     7
  6
CONTINUOUS
  0
LAYER
  5
6E
330
2
100
AcDbSymbolTableRecord
100
AcDbLayerTableRecord
  2
PROFILEEDGES
 70
     0
 62
     7
  6
CONTINUOUS
  0
LAYER
  5
6F
330
2
100
AcDbSymbolTableRecord
100
AcDbLayerTableRecord
  2
SECTIONCUTEDGES
 70
     0
 62
     7
  6
CONTINUOUS
  0
ENDTAB
  0
TABLE
  2
STYLE
  5
3
330
0
100
AcDbSymbolTable
 70
     1
  0
STYLE
  5
11
330
3
100
AcDbSymbolTableRecord
100
AcDbTextStyleTableRecord
  2
STANDARD
 70
     0
 40
0.0
 41
1.0
 50
0.0
 71
     0
 42
0.2
  3
txt
  4

  0
ENDTAB
  0
TABLE
  2
VIEW
  5
6
330
0
100
AcDbSymbolTable
 70
     0
  0
ENDTAB
  0
TABLE
  2
UCS
  5
7
330
0
100
AcDbSymbolTable
 70
     0
  0
ENDTAB
  0
TABLE
  2
APPID
  5
9
330
0
100
AcDbSymbolTable
 70
     2
  0
APPID
  5
12
330
9
100
AcDbSymbolTableRecord
100
AcDbRegAppTableRecord
  2
ACAD
 70
     0
  0
APPID
  5
341
330
9
100
AcDbSymbolTableRecord
100
AcDbRegAppTableRecord
  2
ACAD_MLEADERVER
 70
     0
  0
ENDTAB
  0
TABLE
  2
DIMSTYLE
  5
A
330
0
100
AcDbSymbolTable
 70
     1
  0
DIMSTYLE
105
27
330
A
100
AcDbSymbolTableRecord
100
AcDbDimStyleTableRecord
  2
STANDARD
 70
     0
  3

  4

  5

  6

  7

 40
1.0
 41
0.18
 42
0.0625
 43
0.38
 44
0.18
 45
0.0
 46
0.0
 47
0.0
 48
0.0
140
0.18
141
0.09
142
0.0
143
25.4
144
1.0
145
0.0
146
1.0
147
0.09
 71
     0
 72
     0
 73
     1
 74
     1
 75
     0
 76
     0
 77
     0
 78
     0
170
     0
171
     2
172
     0
173
     0
174
     0
175
     0
176
     0
177
     0
178
     0
270
     2
271
     4
272
     4
273
     2
274
     2
340
11
275
     0
280
     0
281
     0
282
     0
283
     1
284
     0
285
     0
286
     0
287
     3
288
     0
  0
ENDTAB
  0
TABLE
  2
BLOCK_RECORD
  5
1
330
0
100
AcDbSymbolTable
 70
     1
  0
BLOCK_RECORD
  5
1F
330
1
100
AcDbSymbolTableRecord
100
AcDbBlockTableRecord
  2
*MODEL_SPACE
  0
BLOCK_RECORD
  5
1B
330
1
100
AcDbSymbolTableRecord
100
AcDbBlockTableRecord
  2
*PAPER_SPACE
  0
ENDTAB
  0
ENDSEC
  0
SECTION
  2
BLOCKS
  0
BLOCK
  5
20
330
1F
100
AcDbEntity
  8
0
100
AcDbBlockBegin
  2
*MODEL_SPACE
 70
     0
 10
0.0
 20
0.0
 30
0.0
  3
*MODEL_SPACE
  1

  0
ENDBLK
  5
21
330
1F
100
AcDbEntity
  8
0
100
AcDbBlockEnd
  0
BLOCK
  5
1C
330
1B
100
AcDbEntity
 67
     1
  8
0
100
AcDbBlockBegin
  2
*PAPER_SPACE
 70
     0
 10
0.0
 20
0.0
 30
0.0
  3
*PAPER_SPACE
  1

  0
ENDBLK
  5
1D
330
1B
100
AcDbEntity
 67
     1
  8
0
100
AcDbBlockEnd
  0
ENDSEC
  0
SECTION
  2
ENTITIES
  0
LINE
  5
70
330
1F
100
AcDbEntity
  8
0
100
AcDbLine
 10
-70.60117361416893
 20
-7.252255574467535
 30
0.0
 11
-70.6602537380703
 21
-7.334698811772226
 31
0.0
  0
LINE
  5
71
330
1F
100
AcDbEntity
  8
0
100
AcDbLine
 10
-72.09656545987205
 20
-9.885018483403096
 30
0.0
 11
-71.86652014126852
 21
-9.891041890385504
 31
0.0
  0
LINE
  5
72
330
1F
100
AcDbEntity
  8
0
100
AcDbLine
 10
-71.88995191922264
 20
-7.941121236088641
 30
0.0
 11
-71.99132749905662
 21
-7.937802449467548
 31
0.0
  0
LINE
  5
73
330
1F
100
AcDbEntity
  8
0
100
AcDbLine
 10
-64.1420442806728
 20
3.303492411372314
 30
0.0
 11
-64.04066870083882
 21
3.306811197993407
 31
0.0
  0
LINE
  5
74
330
1F
100
AcDbEntity
  8
0
100
AcDbLine
 10
-62.57292959561421
 20
2.255041941401604
 30
0.0
 11
-62.54348394742086
 21
2.157980784175046
 31
0.0
  0
LINE
  5
75
330
1F
100
AcDbEntity
  8
0
100
AcDbLine
 10
-62.65051672329976
 20
2.442358835932862
 30
0.0
 11
-62.60865805020406
 21
2.349970682856692
 31
0.0
  0
LINE
  5
76
330
1F
100
AcDbEntity
  8
0
100
AcDbLine
 10
-63.0771143185146
 20
6.631052836176994
 30
0.0
 11
-63.43882009854394
 21
6.621504648921139
 31
0.0
  0
LINE
  5
77
330
1F
100
AcDbEntity
  8
0
100
AcDbLine
 10
-63.43882009854394
 20
6.621504648921139
 30
0.0
 11
-63.79908773770406
 21
6.58790479540551
 31
0.0
  0
LINE
  5
78
330
1F
100
AcDbEntity
  8
0
100
AcDbLine
 10
-70.95726988186912
 20
-9.764561787846457
 30
0.0
 11
-70.73760244717673
 21
-9.69597734570777
 31
0.0
  0
LINE
  5
79
330
1F
100
AcDbEntity
  8
0
100
AcDbLine
 10
-70.79393598904684
 20
-7.487134114506609
 30
0.0
 11
-70.86796591153218
 21
-7.556473866703873
 31
0.0
  0
LINE
  5
7A
330
1F
100
AcDbEntity
  8
0
100
AcDbLine
 10
-71.58756277432516
 20
-7.911336079838629
 30
0.0
 11
-71.68763754239158
 21
-7.92786134839332
 31
0.0
  0
LINE
  5
7B
330
1F
100
AcDbEntity
  8
0
100
AcDbLine
 10
-70.54761335721089
 20
-7.166119710209736
 30
0.0
 11
-70.60117361416893
 21
-7.252255574467535
 31
0.0
  0
LINE
  5
7C
330
1F
100
AcDbEntity
  8
0
100
AcDbLine
 10
-70.49979994168358
 20
-7.076668874028097
 30
0.0
 11
-70.54761335721089
 21
-7.166119710209736
 31
0.0
  0
LINE
  5
7D
330
1F
100
AcDbEntity
  8
0
100
AcDbLine
 10
-71.68763754239158
 20
-7.92786134839332
 30
0.0
 11
-71.78857824673729
 21
-7.937802449467548
 31
0.0
  0
LINE
  5
7E
330
1F
100
AcDbEntity
  8
0
100
AcDbLine
 10
-70.45793936123921
 20
-6.984280720951926
 30
0.0
 11
-70.49979994168358
 21
-7.076668874028097
 31
0.0
  0
LINE
  5
7F
330
1F
100
AcDbEntity
  8
0
100
AcDbLine
 10
-71.99132749905662
 20
-7.937802449467548
 30
0.0
 11
-72.09226820340231
 21
-7.92786134839332
 31
0.0
  0
LINE
  5
80
330
1F
100
AcDbEntity
  8
0
100
AcDbLine
 10
-70.52291891446185
 20
-9.613110677006615
 30
0.0
 11
-70.31414434781149
 21
-9.516312733891365
 31
0.0
  0
LINE
  5
81
330
1F
100
AcDbEntity
  8
0
100
AcDbLine
 10
-71.86652014126852
 20
-9.891041890385504
 30
0.0
 11
-71.6365778194912
 21
-9.88193620801247
 31
0.0
  0
LINE
  5
82
330
1F
100
AcDbEntity
  8
0
100
AcDbLine
 10
-70.39276716580463
 20
-6.79229082227027
 30
0.0
 11
-70.4222109066494
 21
-6.889351979496839
 31
0.0
  0
LINE
  5
83
330
1F
100
AcDbEntity
  8
0
100
AcDbLine
 10
-63.35512182583884
 20
3.146963938471913
 30
0.0
 11
-63.26567098965722
 21
3.099150522944579
 31
0.0
  0
LINE
  5
84
330
1F
100
AcDbEntity
  8
0
100
AcDbLine
 10
-64.04066870083882
 20
3.306811197993407
 30
0.0
 11
-63.93929693570214
 21
3.303492411372314
 31
0.0
  0
LINE
  5
85
330
1F
100
AcDbEntity
  8
0
100
AcDbLine
 10
-65.13668463101463
 20
0.660796030757072
 30
0.0
 11
-65.20602056851459
 21
0.7348240458937964
 31
0.0
  0
LINE
  5
86
330
1F
100
AcDbEntity
  8
0
100
AcDbLine
 10
-62.50392935147359
 20
1.554495676753173
 30
0.0
 11
-62.5204546200283
 21
1.454420908686763
 31
0.0
  0
LINE
  5
87
330
1F
100
AcDbEntity
  8
0
100
AcDbLine
 10
-66.14911291470602
 20
5.705000742671136
 30
0.0
 11
-66.44237921109271
 21
5.493067606684809
 31
0.0
  0
LINE
  5
88
330
1F
100
AcDbEntity
  8
0
100
AcDbLine
 10
59.07949659695696
 20
-1.60071029369064
 30
0.0
 11
60.34573194851947
 21
-2.014078518788301
 31
0.0
  0
LINE
  5
89
330
1F
100
AcDbEntity
  8
0
100
AcDbLine
 10
-62.75189230313374
 20
0.8956745707961455
 30
0.0
 11
-62.81097433438378
 21
0.8132313334914548
 31
0.0
  0
LINE
  5
8A
330
1F
100
AcDbEntity
  8
0
100
AcDbLine
 10
-64.90180609097555
 20
3.045588358637933
 30
0.0
 11
-64.81567022671773
 21
3.099150522944579
 31
0.0
  0
LINE
  5
8B
330
1F
100
AcDbEntity
  8
0
100
AcDbLine
 10
-65.84238836636617
 20
5.896948679682858
 30
0.0
 11
-66.14911291470602
 21
5.705000742671136
 31
0.0
  0
LINE
  5
8C
330
1F
100
AcDbEntity
  8
0
100
AcDbLine
 10
-62.87531683316306
 20
2.778796061274661
 30
0.0
 11
-62.81097433438378
 21
2.700388773676991
 31
0.0
  0
LINE
  5
8D
330
1F
100
AcDbEntity
  8
0
100
AcDbLine
 10
-67.06448385586815
 20
-6.120499745610112
 30
0.0
 11
-66.07749960293843
 21
-5.226014271977309
 31
0.0
  0
LINE
  5
8E
330
1F
100
AcDbEntity
  8
0
100
AcDbLine
 10
-63.93929693570214
 20
0.2101276957961322
 30
0.0
 11
-64.04066870083882
 21
0.2068089091750392
 31
0.0
  0
LINE
  5
8F
330
1F
100
AcDbEntity
  8
0
100
AcDbLine
 10
62.75189039578512
 20
0.7806907683211024
 30
0.0
 11
62.69833204617574
 21
0.8668266325789009
 31
0.0
  0
LINE
  5
90
330
1F
100
AcDbEntity
  8
0
100
AcDbLine
 10
-63.35512182583884
 20
0.3666561686965328
 30
0.0
 11
-63.44750997891501
 21
0.3247974956008325
 31
0.0
  0
LINE
  5
91
330
1F
100
AcDbEntity
  8
0
100
AcDbLine
 10
-63.44750997891501
 20
3.188822611567625
 30
0.0
 11
-63.35512182583884
 21
3.146963938471913
 31
0.0
  0
LINE
  5
92
330
1F
100
AcDbEntity
  8
0
100
AcDbLine
 10
-62.77593252530171
 20
-2.986474171879663
 30
0.0
 11
-61.57990286221579
 21
-2.400162831547607
 31
0.0
  0
LINE
  5
93
330
1F
100
AcDbEntity
  8
0
100
AcDbLine
 10
-63.26567098965722
 20
3.099150522944579
 30
0.0
 11
-63.1795351253994
 21
3.045588358637933
 31
0.0
  0
LINE
  5
94
330
1F
100
AcDbEntity
  8
0
100
AcDbLine
 10
-64.72621939053612
 20
0.3666561686965328
 30
0.0
 11
-64.81567022671773
 21
0.4144695842238668
 31
0.0
  0
LINE
  5
95
330
1F
100
AcDbEntity
  8
0
100
AcDbLine
 10
-53.81997701993061
 20
-0.7432414448288582
 30
0.0
 11
-18.27283495474628
 21
-0.8693764346959563
 31
0.0
  0
LINE
  5
96
330
1F
100
AcDbEntity
  8
0
100
AcDbLine
 10
-65.06265661587791
 20
0.5914600932570822
 30
0.0
 11
-65.13668463101463
 21
0.660796030757072
 31
0.0
  0
LINE
  5
97
330
1F
100
AcDbEntity
  8
0
100
AcDbLine
 10
-65.32944891324117
 20
0.8956745707961455
 30
0.0
 11
-65.38301107754783
 21
0.981810435053944
 31
0.0
  0
LINE
  5
98
330
1F
100
AcDbEntity
  8
0
100
AcDbLine
 10
-62.94465658536032
 20
0.660796030757072
 30
0.0
 11
-63.01868460049703
 21
0.5914600932570822
 31
0.0
  0
LINE
  5
99
330
1F
100
AcDbEntity
  8
0
100
AcDbLine
 10
-67.22878668179585
 20
4.747160776850828
 30
0.0
 11
-67.45591757168843
 21
4.465498789546137
 31
0.0
  0
LINE
  5
9A
330
1F
100
AcDbEntity
  8
0
100
AcDbLine
 10
-63.79908773770406
 20
6.58790479540551
 30
0.0
 11
-64.15631887784079
 21
6.53040586352074
 31
0.0
  0
LINE
  5
9B
330
1F
100
AcDbEntity
  8
0
100
AcDbLine
 10
-65.47268316617088
 20
1.163649424311766
 30
0.0
 11
-65.50841162076074
 21
1.258578165766842
 31
0.0
  0
LINE
  5
9C
330
1F
100
AcDbEntity
  8
0
100
AcDbLine
 10
-62.4939882503994
 20
1.655436381098868
 30
0.0
 11
-62.50392935147359
 21
1.554495676753173
 31
0.0
  0
LINE
  5
9D
330
1F
100
AcDbEntity
  8
0
100
AcDbLine
 10
-66.44237921109271
 20
5.493067606684809
 30
0.0
 11
-66.72089025845602
 21
5.262083872553946
 31
0.0
  0
LINE
  5
9E
330
1F
100
AcDbEntity
  8
0
100
AcDbLine
 10
-63.63949987759666
 20
0.2596233928176228
 30
0.0
 11
-63.73828146329002
 21
0.2365940654250522
 31
0.0
  0
LINE
  5
9F
330
1F
100
AcDbEntity
  8
0
100
AcDbLine
 10
-62.49066946377831
 20
1.75681196093286
 30
0.0
 11
-62.4939882503994
 21
1.858183726069578
 31
0.0
  0
LINE
  5
A0
330
1F
100
AcDbEntity
  8
0
100
AcDbLine
 10
-63.0970918880947
 20
2.986506327387938
 30
0.0
 11
-63.01868460049703
 21
2.922163828608638
 31
0.0
  0
LINE
  5
A1
330
1F
100
AcDbEntity
  8
0
100
AcDbLine
 10
-62.54348394742086
 20
1.355639322993411
 30
0.0
 11
-62.57292959561421
 21
1.258578165766842
 31
0.0
  0
LINE
  5
A2
330
1F
100
AcDbEntity
  8
0
100
AcDbLine
 10
-63.73828146329002
 20
0.2365940654250522
 30
0.0
 11
-63.8383562313564
 21
0.2200687968703606
 31
0.0
  0
LINE
  5
A3
330
1F
100
AcDbEntity
  8
0
100
AcDbLine
 10
-63.54243872037009
 20
0.2890690410109852
 30
0.0
 11
-63.63949987759666
 21
0.2596233928176228
 31
0.0
  0
LINE
  5
A4
330
1F
100
AcDbEntity
  8
0
100
AcDbLine
 10
-61.57990286221579
 20
-2.400162831547607
 30
0.0
 11
-60.34573385586814
 21
-1.899090901615973
 31
0.0
  0
LINE
  5
A5
330
1F
100
AcDbEntity
  8
0
100
AcDbLine
 10
-63.8383562313564
 20
0.2200687968703606
 30
0.0
 11
-63.93929693570214
 21
0.2101276957961322
 31
0.0
  0
LINE
  5
A6
330
1F
100
AcDbEntity
  8
0
100
AcDbLine
 10
-62.35580465664937
 20
6.577940806147706
 30
0.0
 11
-62.71557638516501
 21
6.616511210200438
 31
0.0
  0
LINE
  5
A7
330
1F
100
AcDbEntity
  8
0
100
AcDbLine
 10
62.60865614285544
 20
1.048665621836706
 30
0.0
 11
62.57293531766009
 21
1.143594363291793
 31
0.0
  0
LINE
  5
A8
330
1F
100
AcDbEntity
  8
0
100
AcDbLine
 10
-65.38301107754783
 20
2.531809672114502
 30
0.0
 11
-65.32944891324117
 21
2.617945536372312
 31
0.0
  0
LINE
  5
A9
330
1F
100
AcDbEntity
  8
0
100
AcDbLine
 10
-65.27036688199117
 20
0.8132313334914548
 30
0.0
 11
-65.32944891324117
 21
0.8956745707961455
 31
0.0
  0
LINE
  5
AA
330
1F
100
AcDbEntity
  8
0
100
AcDbLine
 10
-64.24298498501855
 20
0.2200687968703606
 30
0.0
 11
-64.34305975308492
 21
0.2365940654250522
 31
0.0
  0
LINE
  5
AB
330
1F
100
AcDbEntity
  8
0
100
AcDbLine
 10
-64.90180609097555
 20
0.4680317485305137
 30
0.0
 11
-64.98424932828024
 21
0.5271137797805087
 31
0.0
  0
LINE
  5
AC
330
1F
100
AcDbEntity
  8
0
100
AcDbLine
 10
-63.0970918880947
 20
0.5271137797805087
 30
0.0
 11
-63.1795351253994
 21
0.4680317485305137
 31
0.0
  0
LINE
  5
AD
330
1F
100
AcDbEntity
  8
0
100
AcDbLine
 10
-66.07749960293843
 20
-5.226014271977309
 30
0.0
 11
-65.03026983609276
 21
-4.402878896000757
 31
0.0
  0
LINE
  5
AE
330
1F
100
AcDbEntity
  8
0
100
AcDbLine
 10
-64.81567022671773
 20
0.4144695842238668
 30
0.0
 11
-64.90180609097555
 21
0.4680317485305137
 31
0.0
  0
LINE
  5
AF
330
1F
100
AcDbEntity
  8
0
100
AcDbLine
 10
-63.26567098965722
 20
0.4144695842238668
 30
0.0
 11
-63.35512182583884
 21
0.3666561686965328
 31
0.0
  0
LINE
  5
B0
330
1F
100
AcDbEntity
  8
0
100
AcDbLine
 10
-65.03026983609276
 20
-4.402878896000757
 30
0.0
 11
-63.92794058194236
 21
-3.655141011479272
 31
0.0
  0
LINE
  5
B1
330
1F
100
AcDbEntity
  8
0
100
AcDbLine
 10
-64.63383123745994
 20
0.3247974956008325
 30
0.0
 11
-64.72621939053612
 21
0.3666561686965328
 31
0.0
  0
LINE
  5
B2
330
1F
100
AcDbEntity
  8
0
100
AcDbLine
 10
70.33994886746477
 20
-6.506105801503121
 30
0.0
 11
70.34327528348041
 21
-6.607481381337101
 31
0.0
  0
LINE
  5
B3
330
1F
100
AcDbEntity
  8
0
100
AcDbLine
 10
-63.92794058194236
 20
-3.655141011479272
 30
0.0
 11
-62.77593252530171
 21
-2.986474171879663
 31
0.0
  0
LINE
  5
B4
330
1F
100
AcDbEntity
  8
0
100
AcDbLine
 10
-64.1420442806728
 20
0.2101276957961322
 30
0.0
 11
-64.24298498501855
 21
0.2200687968703606
 31
0.0
  0
LINE
  5
B5
330
1F
100
AcDbEntity
  8
0
100
AcDbLine
 10
-64.98424932828024
 20
0.5271137797805087
 30
0.0
 11
-65.06265661587791
 21
0.5914600932570822
 31
0.0
  0
LINE
  5
B6
330
1F
100
AcDbEntity
  8
0
100
AcDbLine
 10
-66.98341772427632
 20
5.01308332323755
 30
0.0
 11
-67.22878668179585
 21
4.747160776850828
 31
0.0
  0
LINE
  5
B7
330
1F
100
AcDbEntity
  8
0
100
AcDbLine
 10
-65.58735296597554
 20
1.655436381098868
 30
0.0
 11
-65.59067175259663
 21
1.75681196093286
 31
0.0
  0
LINE
  5
B8
330
1F
100
AcDbEntity
  8
0
100
AcDbLine
 10
-53.81997701993061
 20
5.650137766596917
 30
0.0
 11
-62.35580465664937
 21
6.577940806147706
 31
0.0
  0
LINE
  5
B9
330
1F
100
AcDbEntity
  8
0
100
AcDbLine
 10
-64.34305975308492
 20
0.2365940654250522
 30
0.0
 11
-64.44184133877829
 21
0.2596233928176228
 31
0.0
  0
LINE
  5
BA
330
1F
100
AcDbEntity
  8
0
100
AcDbLine
 10
-63.73828146329002
 20
3.277026041743405
 30
0.0
 11
-63.63949987759666
 21
3.253996714350835
 31
0.0
  0
LINE
  5
BB
330
1F
100
AcDbEntity
  8
0
100
AcDbLine
 10
-63.1795351253994
 20
0.4680317485305137
 30
0.0
 11
-63.26567098965722
 21
0.4144695842238668
 31
0.0
  0
LINE
  5
BC
330
1F
100
AcDbEntity
  8
0
100
AcDbLine
 10
-65.38301107754783
 20
0.981810435053944
 30
0.0
 11
-65.43082449307519
 21
1.071261271235595
 31
0.0
  0
LINE
  5
BD
330
1F
100
AcDbEntity
  8
0
100
AcDbLine
 10
62.69833204617574
 20
0.8668266325789009
 30
0.0
 11
62.65052626004294
 21
0.956277468760541
 31
0.0
  0
LINE
  5
BE
330
1F
100
AcDbEntity
  8
0
100
AcDbLine
 10
-63.54243872037009
 20
3.224551066157461
 30
0.0
 11
-63.44750997891501
 21
3.188822611567625
 31
0.0
  0
LINE
  5
BF
330
1F
100
AcDbEntity
  8
0
100
AcDbLine
 10
61.57990858426167
 20
-2.515146634022661
 30
0.0
 11
62.77593824734759
 21
-3.101457974354678
 31
0.0
  0
LINE
  5
C0
330
1F
100
AcDbEntity
  8
0
100
AcDbLine
 10
-65.43082449307519
 20
1.071261271235595
 30
0.0
 11
-65.47268316617088
 21
1.163649424311766
 31
0.0
  0
LINE
  5
C1
330
1F
100
AcDbEntity
  8
0
100
AcDbLine
 10
-67.45591757168843
 20
4.465498789546137
 30
0.0
 11
-67.6638014065273
 21
4.169348582026613
 31
0.0
  0
LINE
  5
C2
330
1F
100
AcDbEntity
  8
0
100
AcDbLine
 10
-67.6638014065273
 20
4.169348582026613
 30
0.0
 11
-67.85151502957419
 21
3.86001859545434
 31
0.0
  0
LINE
  5
C3
330
1F
100
AcDbEntity
  8
0
100
AcDbLine
 10
-64.53890249600485
 20
0.2890690410109852
 30
0.0
 11
-64.63383123745994
 21
0.3247974956008325
 31
0.0
  0
LINE
  5
C4
330
1F
100
AcDbEntity
  8
0
100
AcDbLine
 10
-63.44750997891501
 20
0.3247974956008325
 30
0.0
 11
-63.54243872037009
 21
0.2890690410109852
 31
0.0
  0
LINE
  5
C5
330
1F
100
AcDbEntity
  8
0
100
AcDbLine
 10
-62.69833013882712
 20
0.981810435053944
 30
0.0
 11
-62.75189230313374
 21
0.8956745707961455
 31
0.0
  0
LINE
  5
C6
330
1F
100
AcDbEntity
  8
0
100
AcDbLine
 10
-55.15116522183493
 20
-0.7899333393601141
 30
0.0
 11
-53.81997701993061
 21
-0.7432414448288582
 31
0.0
  0
LINE
  5
C7
330
1F
100
AcDbEntity
  8
0
100
AcDbLine
 10
-62.5204546200283
 20
1.454420908686763
 30
0.0
 11
-62.54348394742086
 21
1.355639322993411
 31
0.0
  0
LINE
  5
C8
330
1F
100
AcDbEntity
  8
0
100
AcDbLine
 10
-65.50841162076074
 20
1.258578165766842
 30
0.0
 11
-65.53785726895408
 21
1.355639322993411
 31
0.0
  0
LINE
  5
C9
330
1F
100
AcDbEntity
  8
0
100
AcDbLine
 10
-62.65051672329976
 20
1.071261271235595
 30
0.0
 11
-62.69833013882712
 21
0.981810435053944
 31
0.0
  0
LINE
  5
CA
330
1F
100
AcDbEntity
  8
0
100
AcDbLine
 10
53.84266493191791
 20
5.536893466075
 30
0.0
 11
25.27295908000821
 21
5.657942861163587
 31
0.0
  0
LINE
  5
CB
330
1F
100
AcDbEntity
  8
0
100
AcDbLine
 10
65.06266615262103
 20
0.4764724760847651
 30
0.0
 11
64.98425123562886
 21
0.4121261626082141
 31
0.0
  0
LINE
  5
CC
330
1F
100
AcDbEntity
  8
0
100
AcDbLine
 10
63.09708998074603
 20
0.4121261626082141
 30
0.0
 11
63.01869032254291
 21
0.4764724760847651
 31
0.0
  0
LINE
  5
CD
330
1F
100
AcDbEntity
  8
0
100
AcDbLine
 10
65.03027174344133
 20
-4.517866513173045
 30
0.0
 11
66.07749769558981
 21
-5.340998074452324
 31
0.0
  0
LINE
  5
CE
330
1F
100
AcDbEntity
  8
0
100
AcDbLine
 10
65.13668653836325
 20
0.5458084135847775
 30
0.0
 11
65.06266615262103
 21
0.4764724760847651
 31
0.0
  0
LINE
  5
CF
330
1F
100
AcDbEntity
  8
0
100
AcDbLine
 10
-66.72089025845602
 20
5.262083872553946
 30
0.0
 11
-66.98341772427632
 21
5.01308332323755
 31
0.0
  0
LINE
  5
D0
330
1F
100
AcDbEntity
  8
0
100
AcDbLine
 10
56.47581312527728
 20
-1.044760128895726
 30
0.0
 11
57.78739759793353
 21
-1.277071377675032
 31
0.0
  0
LINE
  5
D1
330
1F
100
AcDbEntity
  8
0
100
AcDbLine
 10
-72.83353254666402
 20
-7.620816365483172
 30
0.0
 11
-72.91193792691305
 21
-7.556473866703873
 31
0.0
  0
LINE
  5
D2
330
1F
100
AcDbEntity
  8
0
100
AcDbLine
 10
62.81097242703511
 20
0.6982437163191377
 30
0.0
 11
62.75189039578512
 21
0.7806907683211024
 31
0.0
  0
LINE
  5
D3
330
1F
100
AcDbEntity
  8
0
100
AcDbLine
 10
-72.55298254361229
 20
-9.827744618656995
 30
0.0
 11
-72.32571623196674
 21
-9.863888875248803
 31
0.0
  0
LINE
  5
D4
330
1F
100
AcDbEntity
  8
0
100
AcDbLine
 10
-72.29112264981343
 20
-7.888306752446069
 30
0.0
 11
-72.38818380704
 21
-7.858861104252695
 31
0.0
  0
LINE
  5
D5
330
1F
100
AcDbEntity
  8
0
100
AcDbLine
 10
-74.18904898037987
 20
-9.030087605717569
 30
0.0
 11
-74.01066229214742
 21
-9.175469533207782
 31
0.0
  0
LINE
  5
D6
330
1F
100
AcDbEntity
  8
0
100
AcDbLine
 10
63.93929884305072
 20
0.0951438933210891
 30
0.0
 11
63.83836195340228
 21
0.1050849943953175
 31
0.0
  0
LINE
  5
D7
330
1F
100
AcDbEntity
  8
0
100
AcDbLine
 10
63.26566908230855
 20
0.2994857817488237
 30
0.0
 11
63.17953321805072
 21
0.3530479460554705
 31
0.0
  0
LINE
  5
D8
330
1F
100
AcDbEntity
  8
0
100
AcDbLine
 10
-57.78740331997945
 20
-1.162087575199961
 30
0.0
 11
-56.47581121792866
 21
-0.9297763264206547
 31
0.0
  0
LINE
  5
D9
330
1F
100
AcDbEntity
  8
0
100
AcDbLine
 10
-74.51527616849022
 20
-8.705784932377703
 30
0.0
 11
-74.35749647488666
 21
-8.873303548100353
 31
0.0
  0
LINE
  5
DA
330
1F
100
AcDbEntity
  8
0
100
AcDbLine
 10
-74.02579901089743
 20
-2.88862718701637
 30
0.0
 11
-74.23736593594626
 21
-3.097348347905039
 31
0.0
  0
LINE
  5
DB
330
1F
100
AcDbEntity
  8
0
100
AcDbLine
 10
-65.20602056851459
 20
0.7348240458937964
 30
0.0
 11
-65.27036688199117
 21
0.8132313334914548
 31
0.0
  0
LINE
  5
DC
330
1F
100
AcDbEntity
  8
0
100
AcDbLine
 10
-32.08124945035053
 20
5.650137766596917
 30
0.0
 11
-53.81997701993061
 21
5.650137766596917
 31
0.0
  0
LINE
  5
DD
330
1F
100
AcDbEntity
  8
0
100
AcDbLine
 10
-75.38943693509178
 20
-5.465893880131599
 30
0.0
 11
-75.42302725186423
 21
-5.761189595463648
 31
0.0
  0
LINE
  5
DE
330
1F
100
AcDbEntity
  8
0
100
AcDbLine
 10
-71.88995191922264
 20
-4.841118947270274
 30
0.0
 11
-71.78857824673729
 21
-4.844437733891366
 31
0.0
  0
LINE
  5
DF
330
1F
100
AcDbEntity
  8
0
100
AcDbLine
 10
-62.81097433438378
 20
0.8132313334914548
 30
0.0
 11
-62.87531683316306
 21
0.7348240458937964
 31
0.0
  0
LINE
  5
E0
330
1F
100
AcDbEntity
  8
0
100
AcDbLine
 10
62.35580274930074
 20
6.462957003672657
 30
0.0
 11
53.84266493191791
 21
5.536893466075
 31
0.0
  0
LINE
  5
E1
330
1F
100
AcDbEntity
  8
0
100
AcDbLine
 10
-62.57292959561421
 20
1.258578165766842
 30
0.0
 11
-62.60865805020406
 21
1.163649424311766
 31
0.0
  0
LINE
  5
E2
330
1F
100
AcDbEntity
  8
0
100
AcDbLine
 10
-73.28010580411033
 20
-7.076668874028097
 30
0.0
 11
-73.32196638455466
 21
-6.984280720951926
 31
0.0
  0
LINE
  5
E3
330
1F
100
AcDbEntity
  8
0
100
AcDbLine
 10
-72.66495153775293
 20
-7.733460561039814
 30
0.0
 11
-72.75108549466208
 21
-7.679898396733167
 31
0.0
  0
LINE
  5
E4
330
1F
100
AcDbEntity
  8
0
100
AcDbLine
 10
-75.17001936307025
 20
-4.603135243656999
 30
0.0
 11
-75.26264212002829
 21
-4.885533467533942
 31
0.0
  0
LINE
  5
E5
330
1F
100
AcDbEntity
  8
0
100
AcDbLine
 10
60.34573194851947
 20
-2.014078518788301
 30
0.0
 11
61.57990858426167
 21
-2.515146634022661
 31
0.0
  0
LINE
  5
E6
330
1F
100
AcDbEntity
  8
0
100
AcDbLine
 10
55.15116712918353
 20
-0.9049171418351798
 30
0.0
 11
56.47581312527728
 21
-1.044760128895726
 31
0.0
  0
LINE
  5
E7
330
1F
100
AcDbEntity
  8
0
100
AcDbLine
 10
-59.07949468960838
 20
-1.485722676518312
 30
0.0
 11
-57.78740331997945
 21
-1.162087575199961
 31
0.0
  0
LINE
  5
E8
330
1F
100
AcDbEntity
  8
0
100
AcDbLine
 10
-60.34573385586814
 20
-1.899090901615973
 30
0.0
 11
-59.07949468960838
 21
-1.485722676518312
 31
0.0
  0
LINE
  5
E9
330
1F
100
AcDbEntity
  8
0
100
AcDbLine
 10
57.78739759793353
 20
-1.277071377675032
 30
0.0
 11
59.07949659695696
 21
-1.60071029369064
 31
0.0
  0
LINE
  5
EA
330
1F
100
AcDbEntity
  8
0
100
AcDbLine
 10
-62.87531683316306
 20
0.7348240458937964
 30
0.0
 11
-62.94465658536032
 21
0.660796030757072
 31
0.0
  0
LINE
  5
EB
330
1F
100
AcDbEntity
  8
0
100
AcDbLine
 10
-75.28947851529198
 20
-7.234295979740987
 30
0.0
 11
-75.20333311429098
 21
-7.51873506665504
 31
0.0
  0
LINE
  5
EC
330
1F
100
AcDbEntity
  8
0
100
AcDbLine
 10
-73.627197478915
 20
-9.42953981519019
 30
0.0
 11
-73.4237749325283
 21
-9.537133351567142
 31
0.0
  0
LINE
  5
ED
330
1F
100
AcDbEntity
  8
0
100
AcDbLine
 10
-64.04066870083882
 20
0.2068089091750392
 30
0.0
 11
-64.1420442806728
 21
0.2101276957961322
 31
0.0
  0
LINE
  5
EE
330
1F
100
AcDbEntity
  8
0
100
AcDbLine
 10
62.65052626004294
 20
0.956277468760541
 30
0.0
 11
62.60865614285544
 21
1.048665621836706
 31
0.0
  0
LINE
  5
EF
330
1F
100
AcDbEntity
  8
0
100
AcDbLine
 10
-62.60865805020406
 20
1.163649424311766
 30
0.0
 11
-62.65051672329976
 21
1.071261271235595
 31
0.0
  0
LINE
  5
F0
330
1F
100
AcDbEntity
  8
0
100
AcDbLine
 10
53.81997511258199
 20
-0.8582252473039351
 30
0.0
 11
55.15116712918353
 21
-0.9049171418351798
 31
0.0
  0
LINE
  5
F1
330
1F
100
AcDbEntity
  8
0
100
AcDbLine
 10
62.94465467801165
 20
0.5458084135847775
 30
0.0
 11
62.87531874051169
 21
0.6198402434187645
 31
0.0
  0
LINE
  5
F2
330
1F
100
AcDbEntity
  8
0
100
AcDbLine
 10
64.24299452176167
 20
0.1050849943953175
 30
0.0
 11
64.14204237332417
 21
0.0951438933210891
 31
0.0
  0
LINE
  5
F3
330
1F
100
AcDbEntity
  8
0
100
AcDbLine
 10
-72.29112264981343
 20
-4.893933430912845
 30
0.0
 11
-72.19234297146869
 21
-4.870904103520287
 31
0.0
  0
LINE
  5
F4
330
1F
100
AcDbEntity
  8
0
100
AcDbLine
 10
-74.92845747342184
 20
-4.060414448979254
 30
0.0
 11
-75.05845281949118
 21
-4.327672139408957
 31
0.0
  0
LINE
  5
F5
330
1F
100
AcDbEntity
  8
0
100
AcDbLine
 10
-72.38818380704
 20
-7.858861104252695
 30
0.0
 11
-72.48311254849509
 21
-7.823132649662848
 31
0.0
  0
LINE
  5
F6
330
1F
100
AcDbEntity
  8
0
100
AcDbLine
 10
62.49067518582419
 20
1.641824343760549
 30
0.0
 11
62.49398634305074
 21
1.743199923594529
 31
0.0
  0
LINE
  5
F7
330
1F
100
AcDbEntity
  8
0
100
AcDbLine
 10
-71.99392530789449
 20
-1.892220631840571
 30
0.0
 11
-72.22390768399315
 21
-1.887639180424567
 31
0.0
  0
LINE
  5
F8
330
1F
100
AcDbEntity
  8
0
100
AcDbLine
 10
63.01869032254291
 20
0.4764724760847651
 30
0.0
 11
62.94465467801165
 21
0.5458084135847775
 31
0.0
  0
LINE
  5
F9
330
1F
100
AcDbEntity
  8
0
100
AcDbLine
 10
-72.19234297146869
 20
-4.870904103520287
 30
0.0
 11
-72.09226820340231
 21
-4.854382649662846
 31
0.0
  0
LINE
  5
FA
330
1F
100
AcDbEntity
  8
0
100
AcDbLine
 10
-56.47581121792866
 20
-0.9297763264206547
 30
0.0
 11
-55.15116522183493
 21
-0.7899333393601141
 31
0.0
  0
LINE
  5
FB
330
1F
100
AcDbEntity
  8
0
100
AcDbLine
 10
62.77593824734759
 20
-3.101457974354678
 30
0.0
 11
63.92794630398824
 21
-3.770124813954287
 31
0.0
  0
LINE
  5
FC
330
1F
100
AcDbEntity
  8
0
100
AcDbLine
 10
62.87531874051169
 20
0.6198402434187645
 30
0.0
 11
62.81097242703511
 21
0.6982437163191377
 31
0.0
  0
LINE
  5
FD
330
1F
100
AcDbEntity
  8
0
100
AcDbLine
 10
-71.11495230069237
 20
-7.733460561039814
 30
0.0
 11
-71.20440504422261
 21
-7.781273976567148
 31
0.0
  0
LINE
  5
FE
330
1F
100
AcDbEntity
  8
0
100
AcDbLine
 10
-71.99132749905662
 20
-4.844437733891366
 30
0.0
 11
-71.88995191922264
 21
-4.841118947270274
 31
0.0
  0
LINE
  5
FF
330
1F
100
AcDbEntity
  8
0
100
AcDbLine
 10
-72.75108549466208
 20
-7.679898396733167
 30
0.0
 11
-72.83353254666402
 21
-7.620816365483172
 31
0.0
  0
LINE
  5
100
330
1F
100
AcDbEntity
  8
0
100
AcDbLine
 10
-63.01868460049703
 20
0.5914600932570822
 30
0.0
 11
-63.0970918880947
 21
0.5271137797805087
 31
0.0
  0
LINE
  5
101
330
1F
100
AcDbEntity
  8
0
100
AcDbLine
 10
62.57293531766009
 20
1.143594363291793
 30
0.0
 11
62.54348585476949
 21
1.240655520518368
 31
0.0
  0
LINE
  5
102
330
1F
100
AcDbEntity
  8
0
100
AcDbLine
 10
-74.61565420498921
 20
-3.555386677983166
 30
0.0
 11
-74.78063032498436
 21
-3.802590504887468
 31
0.0
  0
LINE
  5
103
330
1F
100
AcDbEntity
  8
0
100
AcDbLine
 10
-72.98596784939839
 20
-7.487134114506609
 30
0.0
 11
-73.0553037868984
 21
-7.413106099369895
 31
0.0
  0
LINE
  5
104
330
1F
100
AcDbEntity
  8
0
100
AcDbLine
 10
-74.43428633084373
 20
-3.319947377446059
 30
0.0
 11
-74.61565420498921
 21
-3.555386677983166
 31
0.0
  0
LINE
  5
105
330
1F
100
AcDbEntity
  8
0
100
AcDbLine
 10
-72.48311254849509
 20
-7.823132649662848
 30
0.0
 11
-72.57550070157126
 21
-7.781273976567148
 31
0.0
  0
LINE
  5
106
330
1F
100
AcDbEntity
  8
0
100
AcDbLine
 10
-75.12207052579002
 20
-7.734032765629647
 30
0.0
 11
-75.0268366085537
 21
-7.943524495365988
 31
0.0
  0
LINE
  5
107
330
1F
100
AcDbEntity
  8
0
100
AcDbLine
 10
-74.35749647488666
 20
-8.873303548100353
 30
0.0
 11
-74.18904898037987
 21
-9.030087605717569
 31
0.0
  0
LINE
  5
108
330
1F
100
AcDbEntity
  8
0
100
AcDbLine
 10
-72.09226820340231
 20
-4.854382649662846
 30
0.0
 11
-71.99132749905662
 21
-4.844437733891366
 31
0.0
  0
LINE
  5
109
330
1F
100
AcDbEntity
  8
0
100
AcDbLine
 10
72.5529920803554
 20
-9.94272842113201
 30
0.0
 11
72.7773878323085
 21
-9.891729733387878
 31
0.0
  0
LINE
  5
10A
330
1F
100
AcDbEntity
  8
0
100
AcDbLine
 10
73.62719557156635
 20
-9.544523617665226
 30
0.0
 11
73.8231031643398
 21
-9.423792263905446
 31
0.0
  0
LINE
  5
10B
330
1F
100
AcDbEntity
  8
0
100
AcDbLine
 10
75.28948805203511
 20
-7.349279782216002
 30
0.0
 11
75.35613844266011
 21
-7.059652707020693
 31
0.0
  0
LINE
  5
10C
330
1F
100
AcDbEntity
  8
0
100
AcDbLine
 10
-73.21372244229393
 20
-9.631123677494886
 30
0.0
 11
-72.99794790616109
 21
-9.711110249760507
 31
0.0
  0
LINE
  5
10D
330
1F
100
AcDbEntity
  8
0
100
AcDbLine
 10
-73.4237749325283
 20
-9.537133351567142
 30
0.0
 11
-73.21372244229393
 21
-9.631123677494886
 31
0.0
  0
LINE
  5
10E
330
1F
100
AcDbEntity
  8
0
100
AcDbLine
 10
-75.05845281949118
 20
-4.327672139408957
 30
0.0
 11
-75.17001936307025
 21
-4.603135243656999
 31
0.0
  0
LINE
  5
10F
330
1F
100
AcDbEntity
  8
0
100
AcDbLine
 10
72.99795362820694
 20
-9.826097866932795
 30
0.0
 11
73.21372816433978
 21
-9.746111294667175
 31
0.0
  0
LINE
  5
110
330
1F
100
AcDbEntity
  8
0
100
AcDbLine
 10
75.26264784207417
 20
-5.000517270008979
 30
0.0
 11
75.1700269924648
 21
-4.718119046132013
 31
0.0
  0
LINE
  5
111
330
1F
100
AcDbEntity
  8
0
100
AcDbLine
 10
-75.33589384427145
 20
-5.173562184574975
 30
0.0
 11
-75.38943693509178
 21
-5.465893880131599
 31
0.0
  0
LINE
  5
112
330
1F
100
AcDbEntity
  8
0
100
AcDbLine
 10
72.38818189969135
 20
-7.973844906727733
 30
0.0
 11
72.29112074246478
 21
-8.003290554921083
 31
0.0
  0
LINE
  5
113
330
1F
100
AcDbEntity
  8
0
100
AcDbLine
 10
-73.17873022427635
 20
-7.252255574467535
 30
0.0
 11
-73.23229238858298
 21
-7.166119710209736
 31
0.0
  0
LINE
  5
114
330
1F
100
AcDbEntity
  8
0
100
AcDbLine
 10
72.57549879422257
 20
-7.896257779042185
 30
0.0
 11
72.48310682644914
 21
-7.938116452137885
 31
0.0
  0
LINE
  5
115
330
1F
100
AcDbEntity
  8
0
100
AcDbLine
 10
74.4342939602382
 20
-3.434931179921074
 30
0.0
 11
74.23736402859754
 21
-3.212335965077328
 31
0.0
  0
LINE
  5
116
330
1F
100
AcDbEntity
  8
0
100
AcDbLine
 10
74.79615614285537
 20
-8.456484219471868
 30
0.0
 11
74.91804334988669
 21
-8.26128997508709
 31
0.0
  0
LINE
  5
117
330
1F
100
AcDbEntity
  8
0
100
AcDbLine
 10
74.91804334988669
 20
-8.26128997508709
 30
0.0
 11
75.02683851590227
 21
-8.058508297841003
 31
0.0
  0
LINE
  5
118
330
1F
100
AcDbEntity
  8
0
100
AcDbLine
 10
-75.35613081326561
 20
-6.944668904545678
 30
0.0
 11
-75.28947851529198
 21
-7.234295979740987
 31
0.0
  0
LINE
  5
119
330
1F
100
AcDbEntity
  8
0
100
AcDbLine
 10
-74.23736593594626
 20
-3.097348347905039
 30
0.0
 11
-74.43428633084373
 21
-3.319947377446059
 31
0.0
  0
LINE
  5
11A
330
1F
100
AcDbEntity
  8
0
100
AcDbLine
 10
-73.32196638455466
 20
-6.984280720951926
 30
0.0
 11
-73.3576948391445
 21
-6.889351979496839
 31
0.0
  0
LINE
  5
11B
330
1F
100
AcDbEntity
  8
0
100
AcDbLine
 10
73.0553114162929
 20
-7.52808990184491
 30
0.0
 11
72.98597547879288
 21
-7.602121731678897
 31
0.0
  0
LINE
  5
11C
330
1F
100
AcDbEntity
  8
0
100
AcDbLine
 10
-73.11965010037498
 20
-7.334698811772226
 30
0.0
 11
-73.17873022427635
 21
-7.252255574467535
 31
0.0
  0
LINE
  5
11D
330
1F
100
AcDbEntity
  8
0
100
AcDbLine
 10
74.92846510281635
 20
-4.175398251454291
 30
0.0
 11
74.78063795437882
 21
-3.917574307362483
 31
0.0
  0
LINE
  5
11E
330
1F
100
AcDbEntity
  8
0
100
AcDbLine
 10
74.01066419949602
 20
-9.290453335682797
 30
0.0
 11
74.1890547024257
 21
-9.145075222889835
 31
0.0
  0
LINE
  5
11F
330
1F
100
AcDbEntity
  8
0
100
AcDbLine
 10
-71.29679319729878
 20
-7.823132649662848
 30
0.0
 11
-71.39172193875386
 21
-7.858861104252695
 31
0.0
  0
LINE
  5
120
330
1F
100
AcDbEntity
  8
0
100
AcDbLine
 10
-72.57550070157126
 20
-7.781273976567148
 30
0.0
 11
-72.66495153775293
 21
-7.733460561039814
 31
0.0
  0
LINE
  5
121
330
1F
100
AcDbEntity
  8
0
100
AcDbLine
 10
-73.82310697903709
 20
-9.30880846143043
 30
0.0
 11
-73.627197478915
 21
-9.42953981519019
 31
0.0
  0
LINE
  5
122
330
1F
100
AcDbEntity
  8
0
100
AcDbLine
 10
-74.6617071377285
 20
-8.528260365727306
 30
0.0
 11
-74.51527616849022
 21
-8.705784932377703
 31
0.0
  0
LINE
  5
123
330
1F
100
AcDbEntity
  8
0
100
AcDbLine
 10
-71.76413748135643
 20
-1.881684437992933
 30
0.0
 11
-71.99392530789449
 21
-1.892220631840571
 31
0.0
  0
LINE
  5
124
330
1F
100
AcDbEntity
  8
0
100
AcDbLine
 10
-74.79615614285541
 20
-8.34150041699683
 30
0.0
 11
-74.6617071377285
 21
-8.528260365727306
 31
0.0
  0
LINE
  5
125
330
1F
100
AcDbEntity
  8
0
100
AcDbLine
 10
-75.40298101773337
 20
-6.651185170414819
 30
0.0
 11
-75.35613081326561
 21
-6.944668904545678
 31
0.0
  0
LINE
  5
126
330
1F
100
AcDbEntity
  8
0
100
AcDbLine
 10
-75.0268366085537
 20
-7.943524495365988
 30
0.0
 11
-74.91804144253805
 21
-8.146306172612075
 31
0.0
  0
LINE
  5
127
330
1F
100
AcDbEntity
  8
0
100
AcDbLine
 10
-72.38818380704
 20
-4.92337907910622
 30
0.0
 11
-72.29112264981343
 21
-4.893933430912845
 31
0.0
  0
LINE
  5
128
330
1F
100
AcDbEntity
  8
0
100
AcDbLine
 10
-73.31327268948628
 20
-2.354954854252689
 30
0.0
 11
-73.56268522610739
 21
-2.516572133305421
 31
0.0
  0
LINE
  5
129
330
1F
100
AcDbEntity
  8
0
100
AcDbLine
 10
-73.80055830349997
 20
-2.694737569096449
 30
0.0
 11
-74.02579901089743
 21
-2.88862718701637
 31
0.0
  0
LINE
  5
12A
330
1F
100
AcDbEntity
  8
0
100
AcDbLine
 10
-73.41016981473041
 20
-6.693509236576928
 30
0.0
 11
-73.42669126858783
 21
-6.593434468510508
 31
0.0
  0
LINE
  5
12B
330
1F
100
AcDbEntity
  8
0
100
AcDbLine
 10
-75.26264212002829
 20
-4.885533467533942
 30
0.0
 11
-75.33589384427145
 21
-5.173562184574975
 31
0.0
  0
LINE
  5
12C
330
1F
100
AcDbEntity
  8
0
100
AcDbLine
 10
-73.23229238858298
 20
-7.166119710209736
 30
0.0
 11
-73.28010580411033
 21
-7.076668874028097
 31
0.0
  0
LINE
  5
12D
330
1F
100
AcDbEntity
  8
0
100
AcDbLine
 10
-73.3576948391445
 20
-6.889351979496839
 30
0.0
 11
-73.38713667264061
 21
-6.79229082227027
 31
0.0
  0
LINE
  5
12E
330
1F
100
AcDbEntity
  8
0
100
AcDbLine
 10
-74.01066229214742
 20
-9.175469533207782
 30
0.0
 11
-73.82310697903709
 21
-9.30880846143043
 31
0.0
  0
LINE
  5
12F
330
1F
100
AcDbEntity
  8
0
100
AcDbLine
 10
-75.40298101773337
 20
-6.651185170414819
 30
0.0
 11
-75.42981359829976
 21
-6.355202809574966
 31
0.0
  0
LINE
  5
130
330
1F
100
AcDbEntity
  8
0
100
AcDbLine
 10
-72.32571623196674
 20
-9.863888875248803
 30
0.0
 11
-72.09656545987205
 21
-9.885018483403096
 31
0.0
  0
LINE
  5
131
330
1F
100
AcDbEntity
  8
0
100
AcDbLine
 10
-74.78063032498436
 20
-3.802590504887468
 30
0.0
 11
-74.92845747342184
 21
-4.060414448979254
 31
0.0
  0
LINE
  5
132
330
1F
100
AcDbEntity
  8
0
100
AcDbLine
 10
-71.39172193875386
 20
-7.858861104252695
 30
0.0
 11
-71.48878309598044
 21
-7.888306752446069
 31
0.0
  0
LINE
  5
133
330
1F
100
AcDbEntity
  8
0
100
AcDbLine
 10
-72.77738401761127
 20
-9.776745930912863
 30
0.0
 11
-72.55298254361229
 21
-9.827744618656995
 31
0.0
  0
LINE
  5
134
330
1F
100
AcDbEntity
  8
0
100
AcDbLine
 10
-72.99794790616109
 20
-9.711110249760507
 30
0.0
 11
-72.77738401761127
 21
-9.776745930912863
 31
0.0
  0
LINE
  5
135
330
1F
100
AcDbEntity
  8
0
100
AcDbLine
 10
75.4230329739101
 20
-5.876173397938663
 30
0.0
 11
75.38943312039449
 21
-5.580881497303888
 31
0.0
  0
LINE
  5
136
330
1F
100
AcDbEntity
  8
0
100
AcDbLine
 10
-72.91193792691305
 20
-7.556473866703873
 30
0.0
 11
-72.98596784939839
 21
-7.487134114506609
 31
0.0
  0
LINE
  5
137
330
1F
100
AcDbEntity
  8
0
100
AcDbLine
 10
-73.0553037868984
 20
-7.413106099369895
 30
0.0
 11
-73.11965010037498
 21
-7.334698811772226
 31
0.0
  0
LINE
  5
138
330
1F
100
AcDbEntity
  8
0
100
AcDbLine
 10
72.09226820340226
 20
-8.042845150868358
 30
0.0
 11
71.99133131375385
 21
-8.052786251942564
 31
0.0
  0
LINE
  5
139
330
1F
100
AcDbEntity
  8
0
100
AcDbLine
 10
-73.43995306363182
 20
-6.391121999028083
 30
0.0
 11
-73.43663427701074
 21
-6.289746419194103
 31
0.0
  0
LINE
  5
13A
330
1F
100
AcDbEntity
  8
0
100
AcDbLine
 10
75.38943312039449
 20
-5.580881497303888
 30
0.0
 11
75.33589002957416
 21
-5.28854598704999
 31
0.0
  0
LINE
  5
13B
330
1F
100
AcDbEntity
  8
0
100
AcDbLine
 10
-75.20333311429098
 20
-7.51873506665504
 30
0.0
 11
-75.12207052579002
 21
-7.734032765629647
 31
0.0
  0
LINE
  5
13C
330
1F
100
AcDbEntity
  8
0
100
AcDbLine
 10
73.43664381375383
 20
-6.607481381337101
 30
0.0
 11
73.42669508328507
 21
-6.708422085682797
 31
0.0
  0
LINE
  5
13D
330
1F
100
AcDbEntity
  8
0
100
AcDbLine
 10
-71.40773031582907
 20
-9.857739583256603
 30
0.0
 11
-71.18096754422261
 21
-9.818558827641366
 31
0.0
  0
LINE
  5
13E
330
1F
100
AcDbEntity
  8
0
100
AcDbLine
 10
-73.56268522610739
 20
-2.516572133305421
 30
0.0
 11
-73.80055830349997
 21
-2.694737569096449
 31
0.0
  0
LINE
  5
13F
330
1F
100
AcDbEntity
  8
0
100
AcDbLine
 10
72.29112074246478
 20
-8.003290554921083
 30
0.0
 11
72.19235060086322
 21
-8.026323697010918
 31
0.0
  0
LINE
  5
140
330
1F
100
AcDbEntity
  8
0
100
AcDbLine
 10
-74.91804144253805
 20
-8.146306172612075
 30
0.0
 11
-74.79615614285541
 21
-8.34150041699683
 31
0.0
  0
LINE
  5
141
330
1F
100
AcDbEntity
  8
0
100
AcDbLine
 10
75.33589002957416
 20
-5.28854598704999
 30
0.0
 11
75.26264784207417
 21
-5.000517270008979
 31
0.0
  0
LINE
  5
142
330
1F
100
AcDbEntity
  8
0
100
AcDbLine
 10
74.1890547024257
 20
-9.145075222889835
 30
0.0
 11
74.35749647488662
 21
-8.988287350575368
 31
0.0
  0
LINE
  5
143
330
1F
100
AcDbEntity
  8
0
100
AcDbLine
 10
73.8231031643398
 20
-9.423792263905446
 30
0.0
 11
74.01066419949602
 21
-9.290453335682797
 31
0.0
  0
LINE
  5
144
330
1F
100
AcDbEntity
  8
0
100
AcDbLine
 10
75.0584547268398
 20
-4.442659756581246
 30
0.0
 11
74.92846510281635
 21
-4.175398251454291
 31
0.0
  0
LINE
  5
145
330
1F
100
AcDbEntity
  8
0
100
AcDbLine
 10
75.40298292508199
 20
-6.766172787587108
 30
0.0
 11
75.42982313504292
 21
-6.47018661204998
 31
0.0
  0
LINE
  5
146
330
1F
100
AcDbEntity
  8
0
100
AcDbLine
 10
75.12206861844135
 20
-7.849016568104684
 30
0.0
 11
75.20333692898824
 21
-7.633718869130055
 31
0.0
  0
LINE
  5
147
330
1F
100
AcDbEntity
  8
0
100
AcDbLine
 10
74.35749647488662
 20
-8.988287350575368
 30
0.0
 11
74.51527235379288
 21
-8.820768734852718
 31
0.0
  0
LINE
  5
148
330
1F
100
AcDbEntity
  8
0
100
AcDbLine
 10
72.09657118191791
 20
-10.00000228587811
 30
0.0
 11
72.32571241726947
 21
-9.978872677723817
 31
0.0
  0
LINE
  5
149
330
1F
100
AcDbEntity
  8
0
100
AcDbLine
 10
75.43650648465231
 20
-6.173063656727714
 30
0.0
 11
75.4230329739101
 21
-5.876173397938663
 31
0.0
  0
LINE
  5
14A
330
1F
100
AcDbEntity
  8
0
100
AcDbLine
 10
64.040678237582
 20
3.191827395518358
 30
0.0
 11
64.14204237332417
 21
3.188508608897265
 31
0.0
  0
LINE
  5
14B
330
1F
100
AcDbEntity
  8
0
100
AcDbLine
 10
63.73827955594135
 20
3.162042239268368
 30
0.0
 11
63.83836195340228
 21
3.178563693125785
 31
0.0
  0
LINE
  5
14C
330
1F
100
AcDbEntity
  8
0
100
AcDbLine
 10
72.83354017605853
 20
-7.735803982655461
 30
0.0
 11
72.75108167996476
 21
-7.794882199208182
 31
0.0
  0
LINE
  5
14D
330
1F
100
AcDbEntity
  8
0
100
AcDbLine
 10
64.53890821805074
 20
3.109567263682424
 30
0.0
 11
64.63383314480852
 21
3.073838809092576
 31
0.0
  0
LINE
  5
14E
330
1F
100
AcDbEntity
  8
0
100
AcDbLine
 10
64.81567213406636
 20
2.984166720469531
 30
0.0
 11
64.90180799832417
 21
2.930604556162884
 31
0.0
  0
LINE
  5
14F
330
1F
100
AcDbEntity
  8
0
100
AcDbLine
 10
73.38714430203508
 20
-6.104936978260934
 30
0.0
 11
73.4101698147304
 21
-6.203714749257024
 31
0.0
  0
LINE
  5
150
330
1F
100
AcDbEntity
  8
0
100
AcDbLine
 10
65.52357313504292
 20
5.953073123057426
 30
0.0
 11
65.19409010281635
 21
6.10258636768633
 31
0.0
  0
LINE
  5
151
330
1F
100
AcDbEntity
  8
0
100
AcDbLine
 10
63.54244825711322
 20
3.109567263682424
 30
0.0
 11
63.63950941433979
 21
3.139009097178512
 31
0.0
  0
LINE
  5
152
330
1F
100
AcDbEntity
  8
0
100
AcDbLine
 10
-75.43650648465231
 20
-6.058079854252699
 30
0.0
 11
-75.42302725186423
 21
-5.761189595463648
 31
0.0
  0
LINE
  5
153
330
1F
100
AcDbEntity
  8
0
100
AcDbLine
 10
64.14204237332417
 20
3.188508608897265
 30
0.0
 11
64.24299452176167
 21
3.178563693125785
 31
0.0
  0
LINE
  5
154
330
1F
100
AcDbEntity
  8
0
100
AcDbLine
 10
75.42982313504292
 20
-6.47018661204998
 30
0.0
 11
75.43650648465231
 21
-6.173063656727714
 31
0.0
  0
LINE
  5
155
330
1F
100
AcDbEntity
  8
0
100
AcDbLine
 10
63.63950941433979
 20
3.139009097178512
 30
0.0
 11
63.73827955594135
 21
3.162042239268368
 31
0.0
  0
LINE
  5
156
330
1F
100
AcDbEntity
  8
0
100
AcDbLine
 10
62.87531874051169
 20
2.663812258799612
 30
0.0
 11
62.94465467801165
 21
2.737840273936325
 31
0.0
  0
LINE
  5
157
330
1F
100
AcDbEntity
  8
0
100
AcDbLine
 10
64.508939956332
 20
6.334272006114058
 30
0.0
 11
64.15632459988667
 21
6.41541824634844
 31
0.0
  0
LINE
  5
158
330
1F
100
AcDbEntity
  8
0
100
AcDbLine
 10
-75.42981359829976
 20
-6.355202809574966
 30
0.0
 11
-75.43650648465231
 21
-6.058079854252699
 31
0.0
  0
LINE
  5
159
330
1F
100
AcDbEntity
  8
0
100
AcDbLine
 10
64.90180799832417
 20
2.930604556162884
 30
0.0
 11
64.98425123562886
 21
2.871522524912889
 31
0.0
  0
LINE
  5
15A
330
1F
100
AcDbEntity
  8
0
100
AcDbLine
 10
64.24299452176167
 20
3.178563693125785
 30
0.0
 11
64.34306166043355
 21
3.162042239268368
 31
0.0
  0
LINE
  5
15B
330
1F
100
AcDbEntity
  8
0
100
AcDbLine
 10
63.79908583035544
 20
6.472920992930462
 30
0.0
 11
63.43882582058981
 21
6.506517031748827
 31
0.0
  0
LINE
  5
15C
330
1F
100
AcDbEntity
  8
0
100
AcDbLine
 10
72.32571241726947
 20
-9.978872677723817
 30
0.0
 11
72.5529920803554
 21
-9.94272842113201
 31
0.0
  0
LINE
  5
15D
330
1F
100
AcDbEntity
  8
0
100
AcDbLine
 10
64.44184706082416
 20
3.139009097178512
 30
0.0
 11
64.53890821805074
 21
3.109567263682424
 31
0.0
  0
LINE
  5
15E
330
1F
100
AcDbEntity
  8
0
100
AcDbLine
 10
73.17873976101946
 20
-7.367239376942573
 30
0.0
 11
73.11965772976946
 21
-7.449686428944514
 31
0.0
  0
LINE
  5
15F
330
1F
100
AcDbEntity
  8
0
100
AcDbLine
 10
72.66496107449602
 20
-7.848444363514829
 30
0.0
 11
72.57549879422257
 21
-7.896257779042185
 31
0.0
  0
LINE
  5
160
330
1F
100
AcDbEntity
  8
0
100
AcDbLine
 10
74.02580091824602
 20
-3.003610989491385
 30
0.0
 11
73.80056593289447
 21
-2.809721371571464
 31
0.0
  0
LINE
  5
161
330
1F
100
AcDbEntity
  8
0
100
AcDbLine
 10
73.38714430203508
 20
-6.907274624745307
 30
0.0
 11
73.35769483914444
 21
-7.004335781971854
 31
0.0
  0
LINE
  5
162
330
1F
100
AcDbEntity
  8
0
100
AcDbLine
 10
72.7773878323085
 20
-9.891729733387878
 30
0.0
 11
72.99795362820694
 21
-9.826097866932795
 31
0.0
  0
LINE
  5
163
330
1F
100
AcDbEntity
  8
0
100
AcDbLine
 10
63.35513136258196
 20
3.031980135996876
 30
0.0
 11
63.44750807156633
 21
3.073838809092576
 31
0.0
  0
LINE
  5
164
330
1F
100
AcDbEntity
  8
0
100
AcDbLine
 10
64.34306166043355
 20
3.162042239268368
 30
0.0
 11
64.44184706082416
 21
3.139009097178512
 31
0.0
  0
LINE
  5
165
330
1F
100
AcDbEntity
  8
0
100
AcDbLine
 10
64.85537550320697
 20
6.229840853770313
 30
0.0
 11
64.508939956332
 21
6.334272006114058
 31
0.0
  0
LINE
  5
166
330
1F
100
AcDbEntity
  8
0
100
AcDbLine
 10
64.15632459988667
 20
6.41541824634844
 30
0.0
 11
63.79908583035544
 21
6.472920992930462
 31
0.0
  0
LINE
  5
167
330
1F
100
AcDbEntity
  8
0
100
AcDbLine
 10
65.20602247586322
 20
2.663812258799612
 30
0.0
 11
65.27036878933978
 21
2.585404971201954
 31
0.0
  0
LINE
  5
168
330
1F
100
AcDbEntity
  8
0
100
AcDbLine
 10
64.98425123562886
 20
2.871522524912889
 30
0.0
 11
65.06266615262103
 21
2.807176211436326
 31
0.0
  0
LINE
  5
169
330
1F
100
AcDbEntity
  8
0
100
AcDbLine
 10
73.21372816433978
 20
-9.746111294667175
 30
0.0
 11
73.42378065457416
 21
-9.65211715404218
 31
0.0
  0
LINE
  5
16A
330
1F
100
AcDbEntity
  8
0
100
AcDbLine
 10
72.48310682644914
 20
-7.938116452137885
 30
0.0
 11
72.38818189969135
 21
-7.973844906727733
 31
0.0
  0
LINE
  5
16B
330
1F
100
AcDbEntity
  8
0
100
AcDbLine
 10
65.32945082058978
 20
2.5029579192
 30
0.0
 11
65.38300917019916
 21
2.416825869639454
 31
0.0
  0
LINE
  5
16C
330
1F
100
AcDbEntity
  8
0
100
AcDbLine
 10
65.19409010281635
 20
6.10258636768633
 30
0.0
 11
64.85537550320697
 21
6.229840853770313
 31
0.0
  0
LINE
  5
16D
330
1F
100
AcDbEntity
  8
0
100
AcDbLine
 10
63.44750807156633
 20
3.073838809092576
 30
0.0
 11
63.54244825711322
 21
3.109567263682424
 31
0.0
  0
LINE
  5
16E
330
1F
100
AcDbEntity
  8
0
100
AcDbLine
 10
74.61565992703504
 20
-3.670370480458181
 30
0.0
 11
74.4342939602382
 21
-3.434931179921074
 31
0.0
  0
LINE
  5
16F
330
1F
100
AcDbEntity
  8
0
100
AcDbLine
 10
65.06266615262103
 20
2.807176211436326
 30
0.0
 11
65.13668653836325
 21
2.737840273936325
 31
0.0
  0
LINE
  5
170
330
1F
100
AcDbEntity
  8
0
100
AcDbLine
 10
-73.42669126858783
 20
-6.188805714848407
 30
0.0
 11
-73.41016981473041
 21
-6.088730946781986
 31
0.0
  0
LINE
  5
171
330
1F
100
AcDbEntity
  8
0
100
AcDbLine
 10
65.38300917019916
 20
2.416825869639454
 30
0.0
 11
65.43083021512106
 21
2.327371218760539
 31
0.0
  0
LINE
  5
172
330
1F
100
AcDbEntity
  8
0
100
AcDbLine
 10
63.93929884305072
 20
3.188508608897265
 30
0.0
 11
64.040678237582
 21
3.191827395518358
 31
0.0
  0
LINE
  5
173
330
1F
100
AcDbEntity
  8
0
100
AcDbLine
 10
64.72622511258199
 20
3.031980135996876
 30
0.0
 11
64.81567213406636
 21
2.984166720469531
 31
0.0
  0
LINE
  5
174
330
1F
100
AcDbEntity
  8
0
100
AcDbLine
 10
75.1700269924648
 20
-4.718119046132013
 30
0.0
 11
75.0584547268398
 21
-4.442659756581246
 31
0.0
  0
LINE
  5
175
330
1F
100
AcDbEntity
  8
0
100
AcDbLine
 10
73.11965772976946
 20
-7.449686428944514
 30
0.0
 11
73.0553114162929
 21
-7.52808990184491
 31
0.0
  0
LINE
  5
176
330
1F
100
AcDbEntity
  8
0
100
AcDbLine
 10
75.35613844266011
 20
-7.059652707020693
 30
0.0
 11
75.40298292508199
 21
-6.766172787587108
 31
0.0
  0
LINE
  5
177
330
1F
100
AcDbEntity
  8
0
100
AcDbLine
 10
64.63383314480852
 20
3.073838809092576
 30
0.0
 11
64.72622511258199
 21
3.031980135996876
 31
0.0
  0
LINE
  5
178
330
1F
100
AcDbEntity
  8
0
100
AcDbLine
 10
63.83836195340228
 20
3.178563693125785
 30
0.0
 11
63.93929884305072
 21
3.188508608897265
 31
0.0
  0
LINE
  5
179
330
1F
100
AcDbEntity
  8
0
100
AcDbLine
 10
73.35769483914444
 20
-7.004335781971854
 30
0.0
 11
73.32197401394914
 21
-7.099264523426941
 31
0.0
  0
LINE
  5
17A
330
1F
100
AcDbEntity
  8
0
100
AcDbLine
 10
75.02683851590227
 20
-8.058508297841003
 30
0.0
 11
75.12206861844135
 21
-7.849016568104684
 31
0.0
  0
LINE
  5
17B
330
1F
100
AcDbEntity
  8
0
100
AcDbLine
 10
72.91193983426166
 20
-7.671457669178888
 30
0.0
 11
72.83354017605853
 21
-7.735803982655461
 31
0.0
  0
LINE
  5
17C
330
1F
100
AcDbEntity
  8
0
100
AcDbLine
 10
65.13668653836325
 20
2.737840273936325
 30
0.0
 11
65.20602247586322
 21
2.663812258799612
 31
0.0
  0
LINE
  5
17D
330
1F
100
AcDbEntity
  8
0
100
AcDbLine
 10
73.28010389676164
 20
-7.191652676503112
 30
0.0
 11
73.23229811062883
 21
-7.281103512684751
 31
0.0
  0
LINE
  5
17E
330
1F
100
AcDbEntity
  8
0
100
AcDbLine
 10
73.80056593289447
 20
-2.809721371571464
 30
0.0
 11
73.56268141141007
 21
-2.631555935780481
 31
0.0
  0
LINE
  5
17F
330
1F
100
AcDbEntity
  8
0
100
AcDbLine
 10
73.17873976101946
 20
-5.644972226063669
 30
0.0
 11
73.23229811062883
 21
-5.731104275624216
 31
0.0
  0
LINE
  5
180
330
1F
100
AcDbEntity
  8
0
100
AcDbLine
 10
-70.34327146878317
 20
-6.492493764164813
 30
0.0
 11
-70.33995268216208
 21
-6.391121999028083
 31
0.0
  0
LINE
  5
181
330
1F
100
AcDbEntity
  8
0
100
AcDbLine
 10
63.26566908230855
 20
2.984166720469531
 30
0.0
 11
63.35513136258196
 21
3.031980135996876
 31
0.0
  0
LINE
  5
182
330
1F
100
AcDbEntity
  8
0
100
AcDbLine
 10
-62.71557638516501
 20
6.616511210200438
 30
0.0
 11
-63.0771143185146
 21
6.631052836176994
 31
0.0
  0
LINE
  5
183
330
1F
100
AcDbEntity
  8
0
100
AcDbLine
 10
62.71557447781634
 20
6.501527407725389
 30
0.0
 11
62.35580274930074
 21
6.462957003672657
 31
0.0
  0
LINE
  5
184
330
1F
100
AcDbEntity
  8
0
100
AcDbLine
 10
63.07711622586323
 20
6.516069033701945
 30
0.0
 11
62.71557447781634
 21
6.501527407725389
 31
0.0
  0
LINE
  5
185
330
1F
100
AcDbEntity
  8
0
100
AcDbLine
 10
63.43882582058981
 20
6.506517031748827
 30
0.0
 11
63.07711622586323
 21
6.516069033701945
 31
0.0
  0
LINE
  5
186
330
1F
100
AcDbEntity
  8
0
100
AcDbLine
 10
65.8423902737148
 20
5.781961062510546
 30
0.0
 11
65.52357313504292
 21
5.953073123057426
 31
0.0
  0
LINE
  5
187
330
1F
100
AcDbEntity
  8
0
100
AcDbLine
 10
66.1491071926601
 20
5.590016940196088
 30
0.0
 11
65.8423902737148
 21
5.781961062510546
 31
0.0
  0
LINE
  5
188
330
1F
100
AcDbEntity
  8
0
100
AcDbLine
 10
66.44238111844135
 20
5.378079989512497
 30
0.0
 11
66.1491071926601
 21
5.590016940196088
 31
0.0
  0
LINE
  5
189
330
1F
100
AcDbEntity
  8
0
100
AcDbLine
 10
66.72089979519916
 20
5.147100070078909
 30
0.0
 11
66.44238111844135
 21
5.378079989512497
 31
0.0
  0
LINE
  5
18A
330
1F
100
AcDbEntity
  8
0
100
AcDbLine
 10
66.98341200223044
 20
4.898099520762502
 30
0.0
 11
66.72089979519916
 21
5.147100070078909
 31
0.0
  0
LINE
  5
18B
330
1F
100
AcDbEntity
  8
0
100
AcDbLine
 10
67.22878858914447
 20
4.632176974375779
 30
0.0
 11
66.98341200223044
 21
4.898099520762502
 31
0.0
  0
LINE
  5
18C
330
1F
100
AcDbEntity
  8
0
100
AcDbLine
 10
67.4559156643398
 20
4.350514987071088
 30
0.0
 11
67.22878858914447
 21
4.632176974375779
 31
0.0
  0
LINE
  5
18D
330
1F
100
AcDbEntity
  8
0
100
AcDbLine
 10
67.6638014065273
 20
4.054364779551564
 30
0.0
 11
67.4559156643398
 21
4.350514987071088
 31
0.0
  0
LINE
  5
18E
330
1F
100
AcDbEntity
  8
0
100
AcDbLine
 10
67.85151502957414
 20
3.745034792979292
 30
0.0
 11
67.6638014065273
 21
4.054364779551564
 31
0.0
  0
LINE
  5
18F
330
1F
100
AcDbEntity
  8
0
100
AcDbLine
 10
68.01823255887106
 20
3.423898318369923
 30
0.0
 11
67.85151502957414
 21
3.745034792979292
 31
0.0
  0
LINE
  5
190
330
1F
100
AcDbEntity
  8
0
100
AcDbLine
 10
68.16320631375385
 20
3.092378237803516
 30
0.0
 11
68.01823255887106
 21
3.423898318369923
 31
0.0
  0
LINE
  5
191
330
1F
100
AcDbEntity
  8
0
100
AcDbLine
 10
68.28579542508199
 20
2.751947024424608
 30
0.0
 11
68.16320631375385
 21
3.092378237803516
 31
0.0
  0
LINE
  5
192
330
1F
100
AcDbEntity
  8
0
100
AcDbLine
 10
68.38545057644917
 20
2.404111483653126
 30
0.0
 11
68.28579542508199
 21
2.751947024424608
 31
0.0
  0
LINE
  5
193
330
1F
100
AcDbEntity
  8
0
100
AcDbLine
 10
68.46174452176166
 20
2.050416567881646
 30
0.0
 11
68.38545057644917
 21
2.404111483653126
 31
0.0
  0
LINE
  5
194
330
1F
100
AcDbEntity
  8
0
100
AcDbLine
 10
68.51432630887106
 20
1.692426302989066
 30
0.0
 11
68.46174452176166
 21
2.050416567881646
 31
0.0
  0
LINE
  5
195
330
1F
100
AcDbEntity
  8
0
100
AcDbLine
 10
68.59422132840228
 20
0.8747879057722683
 30
0.0
 11
68.56107923855856
 21
1.102414706309371
 31
0.0
  0
LINE
  5
196
330
1F
100
AcDbEntity
  8
0
100
AcDbLine
 10
68.64224073758199
 20
0.6498275786238243
 30
0.0
 11
68.59422132840228
 21
0.8747879057722683
 31
0.0
  0
LINE
  5
197
330
1F
100
AcDbEntity
  8
0
100
AcDbLine
 10
68.70492384305072
 20
0.4285064726668105
 30
0.0
 11
68.64224073758199
 21
0.6498275786238243
 31
0.0
  0
LINE
  5
198
330
1F
100
AcDbEntity
  8
0
100
AcDbLine
 10
68.78201124539449
 20
0.211778262217577
 30
0.0
 11
68.70492384305072
 21
0.4285064726668105
 31
0.0
  0
LINE
  5
199
330
1F
100
AcDbEntity
  8
0
100
AcDbLine
 10
68.87318251004294
 20
0.000585177500782
 30
0.0
 11
68.78201124539449
 21
0.211778262217577
 31
0.0
  0
LINE
  5
19A
330
1F
100
AcDbEntity
  8
0
100
AcDbLine
 10
68.97801039090231
 20
-0.2041648835343879
 30
0.0
 11
68.87318251004294
 21
0.000585177500782
 31
0.0
  0
LINE
  5
19B
330
1F
100
AcDbEntity
  8
0
100
AcDbLine
 10
69.09608290066791
 20
-0.4015830964249975
 30
0.0
 11
68.97801039090231
 21
-0.2041648835343879
 31
0.0
  0
LINE
  5
19C
330
1F
100
AcDbEntity
  8
0
100
AcDbLine
 10
69.22685072293353
 20
-0.5908225983781251
 30
0.0
 11
69.09608290066791
 21
-0.4015830964249975
 31
0.0
  0
LINE
  5
19D
330
1F
100
AcDbEntity
  8
0
100
AcDbLine
 10
69.36976454129292
 20
-0.771063229481643
 30
0.0
 11
69.22685072293353
 21
-0.5908225983781251
 31
0.0
  0
LINE
  5
19E
330
1F
100
AcDbEntity
  8
0
100
AcDbLine
 10
69.5242292629726
 20
-0.9415267914933749
 30
0.0
 11
69.36976454129292
 21
-0.771063229481643
 31
0.0
  0
LINE
  5
19F
330
1F
100
AcDbEntity
  8
0
100
AcDbLine
 10
69.68954298367572
 20
-1.101477047841046
 30
0.0
 11
69.5242292629726
 21
-0.9415267914933749
 31
0.0
  0
LINE
  5
1A0
330
1F
100
AcDbEntity
  8
0
100
AcDbLine
 10
69.86500379910538
 20
-1.250219723622298
 30
0.0
 11
69.68954298367572
 21
-1.101477047841046
 31
0.0
  0
LINE
  5
1A1
330
1F
100
AcDbEntity
  8
0
100
AcDbLine
 10
70.04986402859757
 20
-1.387117764393783
 30
0.0
 11
69.86500379910538
 21
-1.250219723622298
 31
0.0
  0
LINE
  5
1A2
330
1F
100
AcDbEntity
  8
0
100
AcDbLine
 10
70.24331495633197
 20
-1.511579892079314
 30
0.0
 11
70.04986402859757
 21
-1.387117764393783
 31
0.0
  0
LINE
  5
1A3
330
1F
100
AcDbEntity
  8
0
100
AcDbLine
 10
70.4445173489101
 20
-1.623060604969943
 30
0.0
 11
70.24331495633197
 21
-1.511579892079314
 31
0.0
  0
LINE
  5
1A4
330
1F
100
AcDbEntity
  8
0
100
AcDbLine
 10
70.65261671414447
 20
-1.721086880604707
 30
0.0
 11
70.4445173489101
 21
-1.623060604969943
 31
0.0
  0
LINE
  5
1A5
330
1F
100
AcDbEntity
  8
0
100
AcDbLine
 10
70.86669752469133
 20
-1.805235287587119
 30
0.0
 11
70.65261671414447
 21
-1.721086880604707
 31
0.0
  0
LINE
  5
1A6
330
1F
100
AcDbEntity
  8
0
100
AcDbLine
 10
71.08584425320696
 20
-1.875135800282439
 30
0.0
 11
70.86669752469133
 21
-1.805235287587119
 31
0.0
  0
LINE
  5
1A7
330
1F
100
AcDbEntity
  8
0
100
AcDbLine
 10
71.3091261135585
 20
-1.930490872303928
 30
0.0
 11
71.08584425320696
 21
-1.875135800282439
 31
0.0
  0
LINE
  5
1A8
330
1F
100
AcDbEntity
  8
0
100
AcDbLine
 10
71.53553602566791
 20
-1.97106017772384
 30
0.0
 11
71.3091261135585
 21
-1.930490872303928
 31
0.0
  0
LINE
  5
1A9
330
1F
100
AcDbEntity
  8
0
100
AcDbLine
 10
71.76414320340228
 20
-1.996668240467988
 30
0.0
 11
71.53553602566791
 21
-1.97106017772384
 31
0.0
  0
LINE
  5
1AA
330
1F
100
AcDbEntity
  8
0
100
AcDbLine
 10
71.99392530789447
 20
-2.007204434315648
 30
0.0
 11
71.76414320340228
 21
-1.996668240467988
 31
0.0
  0
LINE
  5
1AB
330
1F
100
AcDbEntity
  8
0
100
AcDbLine
 10
72.22390577664446
 20
-2.002626797596895
 30
0.0
 11
71.99392530789447
 21
-2.007204434315648
 31
0.0
  0
LINE
  5
1AC
330
1F
100
AcDbEntity
  8
0
100
AcDbLine
 10
72.50753614773821
 20
-2.091417691151582
 30
0.0
 11
72.22390577664446
 21
-2.002626797596895
 31
0.0
  0
LINE
  5
1AD
330
1F
100
AcDbEntity
  8
0
100
AcDbLine
 10
72.78448316922257
 20
-2.199247738758999
 30
0.0
 11
72.50753614773821
 21
-2.091417691151582
 31
0.0
  0
LINE
  5
1AE
330
1F
100
AcDbEntity
  8
0
100
AcDbLine
 10
73.0534803616054
 20
-2.325613400380069
 30
0.0
 11
72.78448316922257
 21
-2.199247738758999
 31
0.0
  0
LINE
  5
1AF
330
1F
100
AcDbEntity
  8
0
100
AcDbLine
 10
73.31327650418352
 20
-2.469938656727738
 30
0.0
 11
73.0534803616054
 21
-2.325613400380069
 31
0.0
  0
LINE
  5
1B0
330
1F
100
AcDbEntity
  8
0
100
AcDbLine
 10
73.56268141141007
 20
-2.631555935780481
 30
0.0
 11
73.31327650418352
 21
-2.469938656727738
 31
0.0
  0
LINE
  5
1B1
330
1F
100
AcDbEntity
  8
0
100
AcDbLine
 10
74.23736402859754
 20
-3.212335965077328
 30
0.0
 11
74.02580091824602
 21
-3.003610989491385
 31
0.0
  0
LINE
  5
1B2
330
1F
100
AcDbEntity
  8
0
100
AcDbLine
 10
74.78063795437882
 20
-3.917574307362483
 30
0.0
 11
74.61565992703504
 21
-3.670370480458181
 31
0.0
  0
LINE
  5
1B3
330
1F
100
AcDbEntity
  8
0
100
AcDbLine
 10
75.20333692898824
 20
-7.633718869130055
 30
0.0
 11
75.28948805203511
 21
-7.349279782216002
 31
0.0
  0
LINE
  5
1B4
330
1F
100
AcDbEntity
  8
0
100
AcDbLine
 10
74.66171095242571
 20
-8.643247982899595
 30
0.0
 11
74.79615614285537
 21
-8.456484219471868
 31
0.0
  0
LINE
  5
1B5
330
1F
100
AcDbEntity
  8
0
100
AcDbLine
 10
74.51527235379288
 20
-8.820768734852718
 30
0.0
 11
74.66171095242571
 21
-8.643247982899595
 31
0.0
  0
LINE
  5
1B6
330
1F
100
AcDbEntity
  8
0
100
AcDbLine
 10
73.42378065457416
 20
-9.65211715404218
 30
0.0
 11
73.62719557156635
 21
-9.544523617665226
 31
0.0
  0
LINE
  5
1B7
330
1F
100
AcDbEntity
  8
0
100
AcDbLine
 10
71.86652967801163
 20
-10.00602569286054
 30
0.0
 11
72.09657118191791
 21
-10.00000228587811
 31
0.0
  0
LINE
  5
1B8
330
1F
100
AcDbEntity
  8
0
100
AcDbLine
 10
71.6365797268398
 20
-9.996920010487486
 30
0.0
 11
71.86652967801163
 21
-10.00602569286054
 31
0.0
  0
LINE
  5
1B9
330
1F
100
AcDbEntity
  8
0
100
AcDbLine
 10
71.40772840848038
 20
-9.972727200428892
 30
0.0
 11
71.6365797268398
 21
-9.996920010487486
 31
0.0
  0
LINE
  5
1BA
330
1F
100
AcDbEntity
  8
0
100
AcDbLine
 10
71.18096754422258
 20
-9.933542630116404
 30
0.0
 11
71.40772840848038
 21
-9.972727200428892
 31
0.0
  0
LINE
  5
1BB
330
1F
100
AcDbEntity
  8
0
100
AcDbLine
 10
70.95727369656635
 20
-9.879545590321472
 30
0.0
 11
71.18096754422258
 21
-9.933542630116404
 31
0.0
  0
LINE
  5
1BC
330
1F
100
AcDbEntity
  8
0
100
AcDbLine
 10
70.73760816922258
 20
-9.810964962880059
 30
0.0
 11
70.95727369656635
 21
-9.879545590321472
 31
0.0
  0
LINE
  5
1BD
330
1F
100
AcDbEntity
  8
0
100
AcDbLine
 10
70.52291700711321
 20
-9.72809447948163
 30
0.0
 11
70.73760816922258
 21
-9.810964962880059
 31
0.0
  0
LINE
  5
1BE
330
1F
100
AcDbEntity
  8
0
100
AcDbLine
 10
70.3141462551601
 20
-9.631296536366403
 30
0.0
 11
70.52291700711321
 21
-9.72809447948163
 31
0.0
  0
LINE
  5
1BF
330
1F
100
AcDbEntity
  8
0
100
AcDbLine
 10
70.11218092312882
 20
-9.520990750233585
 30
0.0
 11
70.3141462551601
 21
-9.631296536366403
 31
0.0
  0
LINE
  5
1C0
330
1F
100
AcDbEntity
  8
0
100
AcDbLine
 10
69.91790602078508
 20
-9.397650143544137
 30
0.0
 11
70.11218092312882
 21
-9.520990750233585
 31
0.0
  0
LINE
  5
1C1
330
1F
100
AcDbEntity
  8
0
100
AcDbLine
 10
69.73216078152727
 20
-9.26180877391522
 30
0.0
 11
69.91790602078508
 21
-9.397650143544137
 31
0.0
  0
LINE
  5
1C2
330
1F
100
AcDbEntity
  8
0
100
AcDbLine
 10
69.55572340359763
 20
-9.11405410472576
 30
0.0
 11
69.73216078152727
 21
-9.26180877391522
 31
0.0
  0
LINE
  5
1C3
330
1F
100
AcDbEntity
  8
0
100
AcDbLine
 10
69.38940260281635
 20
-8.955027005116388
 30
0.0
 11
69.55572340359763
 21
-9.11405410472576
 31
0.0
  0
LINE
  5
1C4
330
1F
100
AcDbEntity
  8
0
100
AcDbLine
 10
69.23386976590231
 20
-8.785410305897635
 30
0.0
 11
69.38940260281635
 21
-8.955027005116388
 31
0.0
  0
LINE
  5
1C5
330
1F
100
AcDbEntity
  8
0
100
AcDbLine
 10
69.0898267971523
 20
-8.605944058339048
 30
0.0
 11
69.23386976590231
 21
-8.785410305897635
 31
0.0
  0
LINE
  5
1C6
330
1F
100
AcDbEntity
  8
0
100
AcDbLine
 10
68.95789930691791
 20
-8.417398831288278
 30
0.0
 11
69.0898267971523
 21
-8.605944058339048
 31
0.0
  0
LINE
  5
1C7
330
1F
100
AcDbEntity
  8
0
100
AcDbLine
 10
68.83863661160541
 20
-8.220590969960151
 30
0.0
 11
68.95789930691791
 21
-8.417398831288278
 31
0.0
  0
LINE
  5
1C8
330
1F
100
AcDbEntity
  8
0
100
AcDbLine
 10
67.98637220730855
 20
-7.196920773426942
 30
0.0
 11
68.83863661160541
 21
-8.220590969960151
 31
0.0
  0
LINE
  5
1C9
330
1F
100
AcDbEntity
  8
0
100
AcDbLine
 10
67.06448194851947
 20
-6.235483548085149
 30
0.0
 11
67.98637220730855
 21
-7.196920773426942
 31
0.0
  0
LINE
  5
1CA
330
1F
100
AcDbEntity
  8
0
100
AcDbLine
 10
66.07749769558981
 20
-5.340998074452324
 30
0.0
 11
67.06448194851947
 21
-6.235483548085149
 31
0.0
  0
LINE
  5
1CB
330
1F
100
AcDbEntity
  8
0
100
AcDbLine
 10
63.92794630398824
 20
-3.770124813954287
 30
0.0
 11
65.03027174344133
 21
-4.517866513173045
 31
0.0
  0
LINE
  5
1CC
330
1F
100
AcDbEntity
  8
0
100
AcDbLine
 10
-67.98637411465717
 20
-7.081936970951927
 30
0.0
 11
-67.06448385586815
 21
-6.120499745610112
 31
0.0
  0
LINE
  5
1CD
330
1F
100
AcDbEntity
  8
0
100
AcDbLine
 10
-68.83863470425683
 20
-8.105603352787861
 30
0.0
 11
-67.98637411465717
 21
-7.081936970951927
 31
0.0
  0
LINE
  5
1CE
330
1F
100
AcDbEntity
  8
0
100
AcDbLine
 10
-68.95789549222066
 20
-8.302411214115988
 30
0.0
 11
-68.83863470425683
 21
-8.105603352787861
 31
0.0
  0
LINE
  5
1CF
330
1F
100
AcDbEntity
  8
0
100
AcDbLine
 10
-69.0898306118496
 20
-8.490960255864033
 30
0.0
 11
-68.95789549222066
 21
-8.302411214115988
 31
0.0
  0
LINE
  5
1D0
330
1F
100
AcDbEntity
  8
0
100
AcDbLine
 10
-69.23387167325093
 20
-8.67042650342262
 30
0.0
 11
-69.0898306118496
 21
-8.490960255864033
 31
0.0
  0
LINE
  5
1D1
330
1F
100
AcDbEntity
  8
0
100
AcDbLine
 10
-69.38939497342184
 20
-8.840043202641374
 30
0.0
 11
-69.23387167325093
 21
-8.67042650342262
 31
0.0
  0
LINE
  5
1D2
330
1F
100
AcDbEntity
  8
0
100
AcDbLine
 10
-69.55572912564351
 20
-8.999070302250768
 30
0.0
 11
-69.38939497342184
 21
-8.840043202641374
 31
0.0
  0
LINE
  5
1D3
330
1F
100
AcDbEntity
  8
0
100
AcDbLine
 10
-69.73215315213278
 20
-9.146824971440205
 30
0.0
 11
-69.55572912564351
 21
-8.999070302250768
 31
0.0
  0
LINE
  5
1D4
330
1F
100
AcDbEntity
  8
0
100
AcDbLine
 10
-69.91790411343648
 20
-9.282662526371848
 30
0.0
 11
-69.73215315213278
 21
-9.146824971440205
 31
0.0
  0
LINE
  5
1D5
330
1F
100
AcDbEntity
  8
0
100
AcDbLine
 10
-70.11218092312888
 20
-9.406006947758547
 30
0.0
 11
-69.91790411343648
 21
-9.282662526371848
 31
0.0
  0
LINE
  5
1D6
330
1F
100
AcDbEntity
  8
0
100
AcDbLine
 10
-70.31414434781149
 20
-9.516312733891365
 30
0.0
 11
-70.11218092312888
 21
-9.406006947758547
 31
0.0
  0
LINE
  5
1D7
330
1F
100
AcDbEntity
  8
0
100
AcDbLine
 10
-70.73760244717673
 20
-9.69597734570777
 30
0.0
 11
-70.52291891446185
 21
-9.613110677006615
 31
0.0
  0
LINE
  5
1D8
330
1F
100
AcDbEntity
  8
0
100
AcDbLine
 10
-71.18096754422261
 20
-9.818558827641366
 30
0.0
 11
-70.95726988186912
 21
-9.764561787846457
 31
0.0
  0
LINE
  5
1D9
330
1F
100
AcDbEntity
  8
0
100
AcDbLine
 10
-71.6365778194912
 20
-9.88193620801247
 30
0.0
 11
-71.40773031582907
 21
-9.857739583256603
 31
0.0
  0
LINE
  5
1DA
330
1F
100
AcDbEntity
  8
0
100
AcDbLine
 10
-73.05347082486229
 20
-2.210629597905021
 30
0.0
 11
-73.31327268948628
 21
-2.354954854252689
 31
0.0
  0
LINE
  5
1DB
330
1F
100
AcDbEntity
  8
0
100
AcDbLine
 10
-72.78447744717671
 20
-2.08426393628395
 30
0.0
 11
-73.05347082486229
 21
-2.210629597905021
 31
0.0
  0
LINE
  5
1DC
330
1F
100
AcDbEntity
  8
0
100
AcDbLine
 10
-72.50753042569235
 20
-1.976433888676528
 30
0.0
 11
-72.78447744717671
 21
-2.08426393628395
 31
0.0
  0
LINE
  5
1DD
330
1F
100
AcDbEntity
  8
0
100
AcDbLine
 10
-72.22390768399315
 20
-1.887639180424567
 30
0.0
 11
-72.50753042569235
 21
-1.976433888676528
 31
0.0
  0
LINE
  5
1DE
330
1F
100
AcDbEntity
  8
0
100
AcDbLine
 10
-71.53553984036522
 20
-1.856072560551511
 30
0.0
 11
-71.76413748135643
 21
-1.881684437992933
 31
0.0
  0
LINE
  5
1DF
330
1F
100
AcDbEntity
  8
0
100
AcDbLine
 10
-71.3091165768154
 20
-1.815503255131594
 30
0.0
 11
-71.53553984036522
 21
-1.856072560551511
 31
0.0
  0
LINE
  5
1E0
330
1F
100
AcDbEntity
  8
0
100
AcDbLine
 10
-71.08584806790428
 20
-1.760151997807379
 30
0.0
 11
-71.3091165768154
 21
-1.815503255131594
 31
0.0
  0
LINE
  5
1E1
330
1F
100
AcDbEntity
  8
0
100
AcDbLine
 10
-70.86669752469135
 20
-1.690247670414802
 30
0.0
 11
-71.08584806790428
 21
-1.760151997807379
 31
0.0
  0
LINE
  5
1E2
330
1F
100
AcDbEntity
  8
0
100
AcDbLine
 10
-70.65261099209857
 20
-1.606103078129641
 30
0.0
 11
-70.86669752469135
 21
-1.690247670414802
 31
0.0
  0
LINE
  5
1E3
330
1F
100
AcDbEntity
  8
0
100
AcDbLine
 10
-70.44451544156149
 20
-1.508076802494878
 30
0.0
 11
-70.65261099209857
 21
-1.606103078129641
 31
0.0
  0
LINE
  5
1E4
330
1F
100
AcDbEntity
  8
0
100
AcDbLine
 10
-70.24330732693745
 20
-1.396592274906986
 30
0.0
 11
-70.44451544156149
 21
-1.508076802494878
 31
0.0
  0
LINE
  5
1E5
330
1F
100
AcDbEntity
  8
0
100
AcDbLine
 10
-70.04985830655171
 20
-1.272133961918712
 30
0.0
 11
-70.24330732693745
 21
-1.396592274906986
 31
0.0
  0
LINE
  5
1E6
330
1F
100
AcDbEntity
  8
0
100
AcDbLine
 10
-69.86500189175682
 20
-1.135235921147227
 30
0.0
 11
-70.04985830655171
 21
-1.272133961918712
 31
0.0
  0
LINE
  5
1E7
330
1F
100
AcDbEntity
  8
0
100
AcDbLine
 10
-69.68953535428122
 20
-0.9864932453659746
 30
0.0
 11
-69.86500189175682
 21
-1.135235921147227
 31
0.0
  0
LINE
  5
1E8
330
1F
100
AcDbEntity
  8
0
100
AcDbLine
 10
-69.52421972622946
 20
-0.8265429890183092
 30
0.0
 11
-69.68953535428122
 21
-0.9864932453659746
 31
0.0
  0
LINE
  5
1E9
330
1F
100
AcDbEntity
  8
0
100
AcDbLine
 10
-69.36976835599017
 20
-0.6560794270065942
 30
0.0
 11
-69.52421972622946
 21
-0.8265429890183092
 31
0.0
  0
LINE
  5
1EA
330
1F
100
AcDbEntity
  8
0
100
AcDbLine
 10
-69.22684690823628
 20
-0.4758387959030707
 30
0.0
 11
-69.36976835599017
 21
-0.6560794270065942
 31
0.0
  0
LINE
  5
1EB
330
1F
100
AcDbEntity
  8
0
100
AcDbLine
 10
-69.09607336392477
 20
-0.2865992939499487
 30
0.0
 11
-69.22684690823628
 21
-0.4758387959030707
 31
0.0
  0
LINE
  5
1EC
330
1F
100
AcDbEntity
  8
0
100
AcDbLine
 10
-68.97801420559956
 20
-0.0891772663620652
 30
0.0
 11
-69.09607336392477
 21
-0.2865992939499487
 31
0.0
  0
LINE
  5
1ED
330
1F
100
AcDbEntity
  8
0
100
AcDbLine
 10
-68.87317678799702
 20
0.1155689799758308
 30
0.0
 11
-68.97801420559956
 21
-0.0891772663620652
 31
0.0
  0
LINE
  5
1EE
330
1F
100
AcDbEntity
  8
0
100
AcDbLine
 10
-68.78201506009178
 20
0.3267620646926201
 30
0.0
 11
-68.87317678799702
 21
0.1155689799758308
 31
0.0
  0
LINE
  5
1EF
330
1F
100
AcDbEntity
  8
0
100
AcDbLine
 10
-68.70492384305076
 20
0.5434902751418423
 30
0.0
 11
-68.78201506009178
 21
0.3267620646926201
 31
0.0
  0
LINE
  5
1F0
330
1F
100
AcDbEntity
  8
0
100
AcDbLine
 10
-68.64223501553612
 20
0.7648113810988675
 30
0.0
 11
-68.70492384305076
 21
0.5434902751418423
 31
0.0
  0
LINE
  5
1F1
330
1F
100
AcDbEntity
  8
0
100
AcDbLine
 10
-68.59421751370503
 20
0.9897717082473114
 30
0.0
 11
-68.64223501553612
 21
0.7648113810988675
 31
0.0
  0
LINE
  5
1F2
330
1F
100
AcDbEntity
  8
0
100
AcDbLine
 10
-68.56108305325581
 20
1.217402323481694
 30
0.0
 11
-68.59421751370503
 21
0.9897717082473114
 31
0.0
  0
LINE
  5
1F3
330
1F
100
AcDbEntity
  8
0
100
AcDbLine
 10
-68.46174070706441
 20
2.165400370356694
 30
0.0
 11
-68.51432630887106
 21
1.807410105464115
 31
0.0
  0
LINE
  5
1F4
330
1F
100
AcDbEntity
  8
0
100
AcDbLine
 10
-68.38544866910054
 20
2.519095286128163
 30
0.0
 11
-68.46174070706441
 21
2.165400370356694
 31
0.0
  0
LINE
  5
1F5
330
1F
100
AcDbEntity
  8
0
100
AcDbLine
 10
-68.28578779568748
 20
2.866930826899657
 30
0.0
 11
-68.38544866910054
 21
2.519095286128163
 31
0.0
  0
LINE
  5
1F6
330
1F
100
AcDbEntity
  8
0
100
AcDbLine
 10
-68.16319868435934
 20
3.207362040278564
 30
0.0
 11
-68.28578779568748
 21
2.866930826899657
 31
0.0
  0
LINE
  5
1F7
330
1F
100
AcDbEntity
  8
0
100
AcDbLine
 10
-68.01822874417381
 20
3.538882120844972
 30
0.0
 11
-68.16319868435934
 21
3.207362040278564
 31
0.0
  0
LINE
  5
1F8
330
1F
100
AcDbEntity
  8
0
100
AcDbLine
 10
-67.85151502957419
 20
3.86001859545434
 30
0.0
 11
-68.01822874417381
 21
3.538882120844972
 31
0.0
  0
LINE
  5
1F9
330
1F
100
AcDbEntity
  8
0
100
AcDbLine
 10
-65.52357504239156
 20
6.068056925532476
 30
0.0
 11
-65.84238836636617
 21
5.896948679682858
 31
0.0
  0
LINE
  5
1FA
330
1F
100
AcDbEntity
  8
0
100
AcDbLine
 10
-65.19408056607323
 20
6.217570170161379
 30
0.0
 11
-65.52357504239156
 21
6.068056925532476
 31
0.0
  0
LINE
  5
1FB
330
1F
100
AcDbEntity
  8
0
100
AcDbLine
 10
-64.85536596646385
 20
6.344824656245351
 30
0.0
 11
-65.19408056607323
 21
6.217570170161379
 31
0.0
  0
LINE
  5
1FC
330
1F
100
AcDbEntity
  8
0
100
AcDbLine
 10
-64.50893423428612
 20
6.449259623286381
 30
0.0
 11
-64.85536596646385
 21
6.344824656245351
 31
0.0
  0
LINE
  5
1FD
330
1F
100
AcDbEntity
  8
0
100
AcDbLine
 10
-64.15631887784079
 20
6.53040586352074
 30
0.0
 11
-64.50893423428612
 21
6.449259623286381
 31
0.0
  0
LINE
  5
1FE
330
1F
100
AcDbEntity
  8
0
100
AcDbLine
 10
-73.43663427701074
 20
-6.289746419194103
 30
0.0
 11
-73.42669126858783
 21
-6.188805714848407
 31
0.0
  0
LINE
  5
1FF
330
1F
100
AcDbEntity
  8
0
100
AcDbLine
 10
-73.43663427701074
 20
-6.492493764164813
 30
0.0
 11
-73.43995306363182
 21
-6.391121999028083
 31
0.0
  0
LINE
  5
200
330
1F
100
AcDbEntity
  8
0
100
AcDbLine
 10
-73.42669126858783
 20
-6.593434468510508
 30
0.0
 11
-73.43663427701074
 21
-6.492493764164813
 31
0.0
  0
LINE
  5
201
330
1F
100
AcDbEntity
  8
0
100
AcDbLine
 10
-73.38713667264061
 20
-6.79229082227027
 30
0.0
 11
-73.41016981473041
 21
-6.693509236576928
 31
0.0
  0
LINE
  5
202
330
1F
100
AcDbEntity
  8
0
100
AcDbLine
 10
-72.19234297146869
 20
-7.911336079838629
 30
0.0
 11
-72.29112264981343
 21
-7.888306752446069
 31
0.0
  0
LINE
  5
203
330
1F
100
AcDbEntity
  8
0
100
AcDbLine
 10
-72.09226820340231
 20
-7.92786134839332
 30
0.0
 11
-72.19234297146869
 21
-7.911336079838629
 31
0.0
  0
LINE
  5
204
330
1F
100
AcDbEntity
  8
0
100
AcDbLine
 10
-71.78857824673729
 20
-7.937802449467548
 30
0.0
 11
-71.88995191922264
 21
-7.941121236088641
 31
0.0
  0
LINE
  5
205
330
1F
100
AcDbEntity
  8
0
100
AcDbLine
 10
-71.48878309598044
 20
-7.888306752446069
 30
0.0
 11
-71.58756277432516
 21
-7.911336079838629
 31
0.0
  0
LINE
  5
206
330
1F
100
AcDbEntity
  8
0
100
AcDbLine
 10
-71.20440504422261
 20
-7.781273976567148
 30
0.0
 11
-71.29679319729878
 21
-7.823132649662848
 31
0.0
  0
LINE
  5
207
330
1F
100
AcDbEntity
  8
0
100
AcDbLine
 10
-71.02881834378317
 20
-7.679898396733167
 30
0.0
 11
-71.11495230069237
 21
-7.733460561039814
 31
0.0
  0
LINE
  5
208
330
1F
100
AcDbEntity
  8
0
100
AcDbLine
 10
-70.94637129178122
 20
-7.620816365483172
 30
0.0
 11
-71.02881834378317
 21
-7.679898396733167
 31
0.0
  0
LINE
  5
209
330
1F
100
AcDbEntity
  8
0
100
AcDbLine
 10
-70.86796591153218
 20
-7.556473866703873
 30
0.0
 11
-70.94637129178122
 21
-7.620816365483172
 31
0.0
  0
LINE
  5
20A
330
1F
100
AcDbEntity
  8
0
100
AcDbLine
 10
-70.72460005154683
 20
-7.413106099369895
 30
0.0
 11
-70.79393598904684
 21
-7.487134114506609
 31
0.0
  0
LINE
  5
20B
330
1F
100
AcDbEntity
  8
0
100
AcDbLine
 10
-70.6602537380703
 20
-7.334698811772226
 30
0.0
 11
-70.72460005154683
 21
-7.413106099369895
 31
0.0
  0
LINE
  5
20C
330
1F
100
AcDbEntity
  8
0
100
AcDbLine
 10
-70.4222109066494
 20
-6.889351979496839
 30
0.0
 11
-70.45793936123921
 21
-6.984280720951926
 31
0.0
  0
LINE
  5
20D
330
1F
100
AcDbEntity
  8
0
100
AcDbLine
 10
-70.39276716580463
 20
-6.79229082227027
 30
0.0
 11
-70.36973593106345
 21
-6.693509236576928
 31
0.0
  0
LINE
  5
20E
330
1F
100
AcDbEntity
  8
0
100
AcDbLine
 10
-70.3532125698574
 20
-6.593434468510508
 30
0.0
 11
-70.36973593106345
 21
-6.693509236576928
 31
0.0
  0
LINE
  5
20F
330
1F
100
AcDbEntity
  8
0
100
AcDbLine
 10
-70.3532125698574
 20
-6.593434468510508
 30
0.0
 11
-70.34327146878317
 21
-6.492493764164813
 31
0.0
  0
LINE
  5
210
330
1F
100
AcDbEntity
  8
0
100
AcDbLine
 10
-70.33995268216208
 20
-6.391121999028083
 30
0.0
 11
-70.34327146878317
 21
-6.289746419194103
 31
0.0
  0
LINE
  5
211
330
1F
100
AcDbEntity
  8
0
100
AcDbLine
 10
-70.34327146878317
 20
-6.289746419194103
 30
0.0
 11
-70.3532125698574
 21
-6.188805714848407
 31
0.0
  0
LINE
  5
212
330
1F
100
AcDbEntity
  8
0
100
AcDbLine
 10
-70.3532125698574
 20
-6.188805714848407
 30
0.0
 11
-70.36973593106345
 21
-6.088730946781986
 31
0.0
  0
LINE
  5
213
330
1F
100
AcDbEntity
  8
0
100
AcDbLine
 10
-70.39276716580463
 20
-5.989949361088645
 30
0.0
 11
-70.36973593106345
 21
-6.088730946781986
 31
0.0
  0
LINE
  5
214
330
1F
100
AcDbEntity
  8
0
100
AcDbLine
 10
-70.4222109066494
 20
-5.892888203862077
 30
0.0
 11
-70.39276716580463
 21
-5.989949361088645
 31
0.0
  0
LINE
  5
215
330
1F
100
AcDbEntity
  8
0
100
AcDbLine
 10
-70.45793936123921
 20
-5.797959462406989
 30
0.0
 11
-70.4222109066494
 21
-5.892888203862077
 31
0.0
  0
LINE
  5
216
330
1F
100
AcDbEntity
  8
0
100
AcDbLine
 10
-70.49979994168358
 20
-5.705571309330819
 30
0.0
 11
-70.45793936123921
 21
-5.797959462406989
 31
0.0
  0
LINE
  5
217
330
1F
100
AcDbEntity
  8
0
100
AcDbLine
 10
-70.54761335721089
 20
-5.616120473149178
 30
0.0
 11
-70.49979994168358
 21
-5.705571309330819
 31
0.0
  0
LINE
  5
218
330
1F
100
AcDbEntity
  8
0
100
AcDbLine
 10
-70.60117361416893
 20
-5.52998460889138
 30
0.0
 11
-70.54761335721089
 21
-5.616120473149178
 31
0.0
  0
LINE
  5
219
330
1F
100
AcDbEntity
  8
0
100
AcDbLine
 10
-70.6602537380703
 20
-5.44754137158669
 30
0.0
 11
-70.60117361416893
 21
-5.52998460889138
 31
0.0
  0
LINE
  5
21A
330
1F
100
AcDbEntity
  8
0
100
AcDbLine
 10
-70.72460005154683
 20
-5.369134083989019
 30
0.0
 11
-70.6602537380703
 21
-5.44754137158669
 31
0.0
  0
LINE
  5
21B
330
1F
100
AcDbEntity
  8
0
100
AcDbLine
 10
-70.79393598904684
 20
-5.295106068852307
 30
0.0
 11
-70.72460005154683
 21
-5.369134083989019
 31
0.0
  0
LINE
  5
21C
330
1F
100
AcDbEntity
  8
0
100
AcDbLine
 10
-70.86796591153218
 20
-5.225770131352316
 30
0.0
 11
-70.79393598904684
 21
-5.295106068852307
 31
0.0
  0
LINE
  5
21D
330
1F
100
AcDbEntity
  8
0
100
AcDbLine
 10
-70.94637129178122
 20
-5.161423817875743
 30
0.0
 11
-70.86796591153218
 21
-5.225770131352316
 31
0.0
  0
LINE
  5
21E
330
1F
100
AcDbEntity
  8
0
100
AcDbLine
 10
-71.02881834378317
 20
-5.102341786625748
 30
0.0
 11
-70.94637129178122
 21
-5.161423817875743
 31
0.0
  0
LINE
  5
21F
330
1F
100
AcDbEntity
  8
0
100
AcDbLine
 10
-71.11495230069237
 20
-5.048779622319101
 30
0.0
 11
-71.02881834378317
 21
-5.102341786625748
 31
0.0
  0
LINE
  5
220
330
1F
100
AcDbEntity
  8
0
100
AcDbLine
 10
-71.20440504422261
 20
-5.000966206791767
 30
0.0
 11
-71.11495230069237
 21
-5.048779622319101
 31
0.0
  0
LINE
  5
221
330
1F
100
AcDbEntity
  8
0
100
AcDbLine
 10
-71.29679319729878
 20
-4.959107533696067
 30
0.0
 11
-71.20440504422261
 21
-5.000966206791767
 31
0.0
  0
LINE
  5
222
330
1F
100
AcDbEntity
  8
0
100
AcDbLine
 10
-71.39172193875386
 20
-4.92337907910622
 30
0.0
 11
-71.29679319729878
 21
-4.959107533696067
 31
0.0
  0
LINE
  5
223
330
1F
100
AcDbEntity
  8
0
100
AcDbLine
 10
-71.48878309598044
 20
-4.893933430912845
 30
0.0
 11
-71.39172193875386
 21
-4.92337907910622
 31
0.0
  0
LINE
  5
224
330
1F
100
AcDbEntity
  8
0
100
AcDbLine
 10
-71.58756277432516
 20
-4.870904103520287
 30
0.0
 11
-71.48878309598044
 21
-4.893933430912845
 31
0.0
  0
LINE
  5
225
330
1F
100
AcDbEntity
  8
0
100
AcDbLine
 10
-71.68763754239158
 20
-4.854382649662846
 30
0.0
 11
-71.58756277432516
 21
-4.870904103520287
 31
0.0
  0
LINE
  5
226
330
1F
100
AcDbEntity
  8
0
100
AcDbLine
 10
-71.78857824673729
 20
-4.844437733891366
 30
0.0
 11
-71.68763754239158
 21
-4.854382649662846
 31
0.0
  0
LINE
  5
227
330
1F
100
AcDbEntity
  8
0
100
AcDbLine
 10
-72.48311254849509
 20
-4.959107533696067
 30
0.0
 11
-72.38818380704
 21
-4.92337907910622
 31
0.0
  0
LINE
  5
228
330
1F
100
AcDbEntity
  8
0
100
AcDbLine
 10
-72.57550070157126
 20
-5.000966206791767
 30
0.0
 11
-72.48311254849509
 21
-4.959107533696067
 31
0.0
  0
LINE
  5
229
330
1F
100
AcDbEntity
  8
0
100
AcDbLine
 10
-72.66495153775293
 20
-5.048779622319101
 30
0.0
 11
-72.57550070157126
 21
-5.000966206791767
 31
0.0
  0
LINE
  5
22A
330
1F
100
AcDbEntity
  8
0
100
AcDbLine
 10
-72.75108549466208
 20
-5.102341786625748
 30
0.0
 11
-72.66495153775293
 21
-5.048779622319101
 31
0.0
  0
LINE
  5
22B
330
1F
100
AcDbEntity
  8
0
100
AcDbLine
 10
-72.83353254666402
 20
-5.161423817875743
 30
0.0
 11
-72.75108549466208
 21
-5.102341786625748
 31
0.0
  0
LINE
  5
22C
330
1F
100
AcDbEntity
  8
0
100
AcDbLine
 10
-72.91193792691305
 20
-5.225770131352316
 30
0.0
 11
-72.83353254666402
 21
-5.161423817875743
 31
0.0
  0
LINE
  5
22D
330
1F
100
AcDbEntity
  8
0
100
AcDbLine
 10
-72.98596784939839
 20
-5.295106068852307
 30
0.0
 11
-72.91193792691305
 21
-5.225770131352316
 31
0.0
  0
LINE
  5
22E
330
1F
100
AcDbEntity
  8
0
100
AcDbLine
 10
-73.0553037868984
 20
-5.369134083989019
 30
0.0
 11
-72.98596784939839
 21
-5.295106068852307
 31
0.0
  0
LINE
  5
22F
330
1F
100
AcDbEntity
  8
0
100
AcDbLine
 10
-73.11965010037498
 20
-5.44754137158669
 30
0.0
 11
-73.0553037868984
 21
-5.369134083989019
 31
0.0
  0
LINE
  5
230
330
1F
100
AcDbEntity
  8
0
100
AcDbLine
 10
-73.17873022427635
 20
-5.52998460889138
 30
0.0
 11
-73.11965010037498
 21
-5.44754137158669
 31
0.0
  0
LINE
  5
231
330
1F
100
AcDbEntity
  8
0
100
AcDbLine
 10
-73.23229238858298
 20
-5.616120473149178
 30
0.0
 11
-73.17873022427635
 21
-5.52998460889138
 31
0.0
  0
LINE
  5
232
330
1F
100
AcDbEntity
  8
0
100
AcDbLine
 10
-73.28010580411033
 20
-5.705571309330819
 30
0.0
 11
-73.23229238858298
 21
-5.616120473149178
 31
0.0
  0
LINE
  5
233
330
1F
100
AcDbEntity
  8
0
100
AcDbLine
 10
-73.32196638455466
 20
-5.797959462406989
 30
0.0
 11
-73.28010580411033
 21
-5.705571309330819
 31
0.0
  0
LINE
  5
234
330
1F
100
AcDbEntity
  8
0
100
AcDbLine
 10
-73.3576948391445
 20
-5.892888203862077
 30
0.0
 11
-73.32196638455466
 21
-5.797959462406989
 31
0.0
  0
LINE
  5
235
330
1F
100
AcDbEntity
  8
0
100
AcDbLine
 10
-73.38713667264061
 20
-5.989949361088645
 30
0.0
 11
-73.3576948391445
 21
-5.892888203862077
 31
0.0
  0
LINE
  5
236
330
1F
100
AcDbEntity
  8
0
100
AcDbLine
 10
-73.41016981473041
 20
-6.088730946781986
 30
0.0
 11
-73.38713667264061
 21
-5.989949361088645
 31
0.0
  0
LINE
  5
237
330
1F
100
AcDbEntity
  8
0
100
AcDbLine
 10
70.36973402371476
 20
-6.203714749257024
 30
0.0
 11
70.39277479519916
 21
-6.104936978260934
 31
0.0
  0
LINE
  5
238
330
1F
100
AcDbEntity
  8
0
100
AcDbLine
 10
70.35320875516008
 20
-6.303789517323422
 30
0.0
 11
70.36973402371476
 21
-6.203714749257024
 31
0.0
  0
LINE
  5
239
330
1F
100
AcDbEntity
  8
0
100
AcDbLine
 10
70.34327528348041
 20
-6.404730221669118
 30
0.0
 11
70.35320875516008
 21
-6.303789517323422
 31
0.0
  0
LINE
  5
23A
330
1F
100
AcDbEntity
  8
0
100
AcDbLine
 10
70.33994886746477
 20
-6.506105801503121
 30
0.0
 11
70.34327528348041
 21
-6.404730221669118
 31
0.0
  0
LINE
  5
23B
330
1F
100
AcDbEntity
  8
0
100
AcDbLine
 10
70.34327528348041
 20
-6.607481381337101
 30
0.0
 11
70.35320875516008
 21
-6.708422085682797
 31
0.0
  0
LINE
  5
23C
330
1F
100
AcDbEntity
  8
0
100
AcDbLine
 10
70.35320875516008
 20
-6.708422085682797
 30
0.0
 11
70.36973402371476
 21
-6.808496853749218
 31
0.0
  0
LINE
  5
23D
330
1F
100
AcDbEntity
  8
0
100
AcDbLine
 10
70.36973402371476
 20
-6.808496853749218
 30
0.0
 11
70.39277479519916
 21
-6.907274624745307
 31
0.0
  0
LINE
  5
23E
330
1F
100
AcDbEntity
  8
0
100
AcDbLine
 10
70.42220899930071
 20
-7.004335781971854
 30
0.0
 11
70.39277479519916
 21
-6.907274624745307
 31
0.0
  0
LINE
  5
23F
330
1F
100
AcDbEntity
  8
0
100
AcDbLine
 10
70.45794508328505
 20
-7.099264523426941
 30
0.0
 11
70.42220899930071
 21
-7.004335781971854
 31
0.0
  0
LINE
  5
240
330
1F
100
AcDbEntity
  8
0
100
AcDbLine
 10
70.4997999416835
 20
-7.191652676503112
 30
0.0
 11
70.45794508328505
 21
-7.099264523426941
 31
0.0
  0
LINE
  5
241
330
1F
100
AcDbEntity
  8
0
100
AcDbLine
 10
70.54762098660541
 20
-7.281103512684751
 30
0.0
 11
70.4997999416835
 21
-7.191652676503112
 31
0.0
  0
LINE
  5
242
330
1F
100
AcDbEntity
  8
0
100
AcDbLine
 10
70.60117933621478
 20
-7.367239376942573
 30
0.0
 11
70.54762098660541
 21
-7.281103512684751
 31
0.0
  0
LINE
  5
243
330
1F
100
AcDbEntity
  8
0
100
AcDbLine
 10
70.66026136746478
 20
-7.449686428944514
 30
0.0
 11
70.60117933621478
 21
-7.367239376942573
 31
0.0
  0
LINE
  5
244
330
1F
100
AcDbEntity
  8
0
100
AcDbLine
 10
70.72460768094136
 20
-7.52808990184491
 30
0.0
 11
70.66026136746478
 21
-7.449686428944514
 31
0.0
  0
LINE
  5
245
330
1F
100
AcDbEntity
  8
0
100
AcDbLine
 10
70.79394361844132
 20
-7.602121731678897
 30
0.0
 11
70.72460768094136
 21
-7.52808990184491
 31
0.0
  0
LINE
  5
246
330
1F
100
AcDbEntity
  8
0
100
AcDbLine
 10
70.86796400418353
 20
-7.671457669178888
 30
0.0
 11
70.79394361844132
 21
-7.602121731678897
 31
0.0
  0
LINE
  5
247
330
1F
100
AcDbEntity
  8
0
100
AcDbLine
 10
70.94637892117571
 20
-7.735803982655461
 30
0.0
 11
70.86796400418353
 21
-7.671457669178888
 31
0.0
  0
LINE
  5
248
330
1F
100
AcDbEntity
  8
0
100
AcDbLine
 10
71.0288221584804
 20
-7.794882199208182
 30
0.0
 11
70.94637892117571
 21
-7.735803982655461
 31
0.0
  0
LINE
  5
249
330
1F
100
AcDbEntity
  8
0
100
AcDbLine
 10
71.11495802273822
 20
-7.848444363514829
 30
0.0
 11
71.0288221584804
 21
-7.794882199208182
 31
0.0
  0
LINE
  5
24A
330
1F
100
AcDbEntity
  8
0
100
AcDbLine
 10
71.20440504422258
 20
-7.896257779042185
 30
0.0
 11
71.11495802273822
 21
-7.848444363514829
 31
0.0
  0
LINE
  5
24B
330
1F
100
AcDbEntity
  8
0
100
AcDbLine
 10
71.296797011996
 20
-7.938116452137885
 30
0.0
 11
71.20440504422258
 21
-7.896257779042185
 31
0.0
  0
LINE
  5
24C
330
1F
100
AcDbEntity
  8
0
100
AcDbLine
 10
71.39172193875385
 20
-7.973844906727733
 30
0.0
 11
71.296797011996
 21
-7.938116452137885
 31
0.0
  0
LINE
  5
24D
330
1F
100
AcDbEntity
  8
0
100
AcDbLine
 10
71.48878309598041
 20
-8.003290554921083
 30
0.0
 11
71.39172193875385
 21
-7.973844906727733
 31
0.0
  0
LINE
  5
24E
330
1F
100
AcDbEntity
  8
0
100
AcDbLine
 10
71.58756849637102
 20
-8.026323697010918
 30
0.0
 11
71.48878309598041
 21
-8.003290554921083
 31
0.0
  0
LINE
  5
24F
330
1F
100
AcDbEntity
  8
0
100
AcDbLine
 10
71.6876356350429
 20
-8.042845150868358
 30
0.0
 11
71.58756849637102
 21
-8.026323697010918
 31
0.0
  0
LINE
  5
250
330
1F
100
AcDbEntity
  8
0
100
AcDbLine
 10
71.78857252469135
 20
-8.052786251942564
 30
0.0
 11
71.6876356350429
 21
-8.042845150868358
 31
0.0
  0
LINE
  5
251
330
1F
100
AcDbEntity
  8
0
100
AcDbLine
 10
71.88995191922257
 20
-8.056105038563656
 30
0.0
 11
71.78857252469135
 21
-8.052786251942564
 31
0.0
  0
LINE
  5
252
330
1F
100
AcDbEntity
  8
0
100
AcDbLine
 10
71.99133131375385
 20
-8.052786251942564
 30
0.0
 11
71.88995191922257
 21
-8.056105038563656
 31
0.0
  0
LINE
  5
253
330
1F
100
AcDbEntity
  8
0
100
AcDbLine
 10
72.19235060086322
 20
-8.026323697010918
 30
0.0
 11
72.09226820340226
 21
-8.042845150868358
 31
0.0
  0
LINE
  5
254
330
1F
100
AcDbEntity
  8
0
100
AcDbLine
 10
72.75108167996476
 20
-7.794882199208182
 30
0.0
 11
72.66496107449602
 21
-7.848444363514829
 31
0.0
  0
LINE
  5
255
330
1F
100
AcDbEntity
  8
0
100
AcDbLine
 10
72.98597547879288
 20
-7.602121731678897
 30
0.0
 11
72.91193983426166
 21
-7.671457669178888
 31
0.0
  0
LINE
  5
256
330
1F
100
AcDbEntity
  8
0
100
AcDbLine
 10
73.23229811062883
 20
-7.281103512684751
 30
0.0
 11
73.17873976101946
 21
-7.367239376942573
 31
0.0
  0
LINE
  5
257
330
1F
100
AcDbEntity
  8
0
100
AcDbLine
 10
73.32197401394914
 20
-7.099264523426941
 30
0.0
 11
73.28010389676164
 21
-7.191652676503112
 31
0.0
  0
LINE
  5
258
330
1F
100
AcDbEntity
  8
0
100
AcDbLine
 10
73.4101698147304
 20
-6.808496853749218
 30
0.0
 11
73.38714430203508
 21
-6.907274624745307
 31
0.0
  0
LINE
  5
259
330
1F
100
AcDbEntity
  8
0
100
AcDbLine
 10
73.4101698147304
 20
-6.808496853749218
 30
0.0
 11
73.42669508328507
 21
-6.708422085682797
 31
0.0
  0
LINE
  5
25A
330
1F
100
AcDbEntity
  8
0
100
AcDbLine
 10
73.43664381375383
 20
-6.607481381337101
 30
0.0
 11
73.43995497098038
 21
-6.506105801503121
 31
0.0
  0
LINE
  5
25B
330
1F
100
AcDbEntity
  8
0
100
AcDbLine
 10
73.43664381375383
 20
-6.404730221669118
 30
0.0
 11
73.43995497098038
 21
-6.506105801503121
 31
0.0
  0
LINE
  5
25C
330
1F
100
AcDbEntity
  8
0
100
AcDbLine
 10
73.42669508328507
 20
-6.303789517323422
 30
0.0
 11
73.43664381375383
 21
-6.404730221669118
 31
0.0
  0
LINE
  5
25D
330
1F
100
AcDbEntity
  8
0
100
AcDbLine
 10
73.42669508328507
 20
-6.303789517323422
 30
0.0
 11
73.4101698147304
 21
-6.203714749257024
 31
0.0
  0
LINE
  5
25E
330
1F
100
AcDbEntity
  8
0
100
AcDbLine
 10
73.35769483914444
 20
-6.007872006337092
 30
0.0
 11
73.38714430203508
 21
-6.104936978260934
 31
0.0
  0
LINE
  5
25F
330
1F
100
AcDbEntity
  8
0
100
AcDbLine
 10
73.32197401394914
 20
-5.912947079579278
 30
0.0
 11
73.35769483914444
 21
-6.007872006337092
 31
0.0
  0
LINE
  5
260
330
1F
100
AcDbEntity
  8
0
100
AcDbLine
 10
73.28010389676164
 20
-5.820558926503107
 30
0.0
 11
73.32197401394914
 21
-5.912947079579278
 31
0.0
  0
LINE
  5
261
330
1F
100
AcDbEntity
  8
0
100
AcDbLine
 10
73.23229811062883
 20
-5.731104275624216
 30
0.0
 11
73.28010389676164
 21
-5.820558926503107
 31
0.0
  0
LINE
  5
262
330
1F
100
AcDbEntity
  8
0
100
AcDbLine
 10
73.11965772976946
 20
-5.562525174061705
 30
0.0
 11
73.17873976101946
 21
-5.644972226063669
 31
0.0
  0
LINE
  5
263
330
1F
100
AcDbEntity
  8
0
100
AcDbLine
 10
73.0553114162929
 20
-5.484117886464057
 30
0.0
 11
73.11965772976946
 21
-5.562525174061705
 31
0.0
  0
LINE
  5
264
330
1F
100
AcDbEntity
  8
0
100
AcDbLine
 10
72.98597547879288
 20
-5.410089871327322
 30
0.0
 11
73.0553114162929
 21
-5.484117886464057
 31
0.0
  0
LINE
  5
265
330
1F
100
AcDbEntity
  8
0
100
AcDbLine
 10
72.91193983426166
 20
-5.340753933827331
 30
0.0
 11
72.98597547879288
 21
-5.410089871327322
 31
0.0
  0
LINE
  5
266
330
1F
100
AcDbEntity
  8
0
100
AcDbLine
 10
72.83354017605853
 20
-5.276407620350758
 30
0.0
 11
72.91193983426166
 21
-5.340753933827331
 31
0.0
  0
LINE
  5
267
330
1F
100
AcDbEntity
  8
0
100
AcDbLine
 10
72.75108167996476
 20
-5.217325589100763
 30
0.0
 11
72.83354017605853
 21
-5.276407620350758
 31
0.0
  0
LINE
  5
268
330
1F
100
AcDbEntity
  8
0
100
AcDbLine
 10
72.66496107449602
 20
-5.16376723949139
 30
0.0
 11
72.75108167996476
 21
-5.217325589100763
 31
0.0
  0
LINE
  5
269
330
1F
100
AcDbEntity
  8
0
100
AcDbLine
 10
72.57549879422257
 20
-5.115953823964056
 30
0.0
 11
72.66496107449602
 21
-5.16376723949139
 31
0.0
  0
LINE
  5
26A
330
1F
100
AcDbEntity
  8
0
100
AcDbLine
 10
72.48310682644914
 20
-5.074091336171082
 30
0.0
 11
72.57549879422257
 21
-5.115953823964056
 31
0.0
  0
LINE
  5
26B
330
1F
100
AcDbEntity
  8
0
100
AcDbLine
 10
72.38818189969135
 20
-5.038362881581235
 30
0.0
 11
72.48310682644914
 21
-5.074091336171082
 31
0.0
  0
LINE
  5
26C
330
1F
100
AcDbEntity
  8
0
100
AcDbLine
 10
72.29112074246478
 20
-5.008921048085135
 30
0.0
 11
72.38818189969135
 21
-5.038362881581235
 31
0.0
  0
LINE
  5
26D
330
1F
100
AcDbEntity
  8
0
100
AcDbLine
 10
72.19235060086322
 20
-4.985887905995302
 30
0.0
 11
72.29112074246478
 21
-5.008921048085135
 31
0.0
  0
LINE
  5
26E
330
1F
100
AcDbEntity
  8
0
100
AcDbLine
 10
72.09226820340226
 20
-4.969366452137884
 30
0.0
 11
72.19235060086322
 21
-4.985887905995302
 31
0.0
  0
LINE
  5
26F
330
1F
100
AcDbEntity
  8
0
100
AcDbLine
 10
71.99133131375385
 20
-4.959425351063656
 30
0.0
 11
72.09226820340226
 21
-4.969366452137884
 31
0.0
  0
LINE
  5
270
330
1F
100
AcDbEntity
  8
0
100
AcDbLine
 10
71.88995191922257
 20
-4.956106564442562
 30
0.0
 11
71.99133131375385
 21
-4.959425351063656
 31
0.0
  0
LINE
  5
271
330
1F
100
AcDbEntity
  8
0
100
AcDbLine
 10
71.78857252469135
 20
-4.959425351063656
 30
0.0
 11
71.88995191922257
 21
-4.956106564442562
 31
0.0
  0
LINE
  5
272
330
1F
100
AcDbEntity
  8
0
100
AcDbLine
 10
71.6876356350429
 20
-4.969366452137884
 30
0.0
 11
71.78857252469135
 21
-4.959425351063656
 31
0.0
  0
LINE
  5
273
330
1F
100
AcDbEntity
  8
0
100
AcDbLine
 10
71.58756849637102
 20
-4.985887905995302
 30
0.0
 11
71.6876356350429
 21
-4.969366452137884
 31
0.0
  0
LINE
  5
274
330
1F
100
AcDbEntity
  8
0
100
AcDbLine
 10
71.48878309598041
 20
-5.008921048085135
 30
0.0
 11
71.58756849637102
 21
-4.985887905995302
 31
0.0
  0
LINE
  5
275
330
1F
100
AcDbEntity
  8
0
100
AcDbLine
 10
71.39172193875385
 20
-5.038362881581235
 30
0.0
 11
71.48878309598041
 21
-5.008921048085135
 31
0.0
  0
LINE
  5
276
330
1F
100
AcDbEntity
  8
0
100
AcDbLine
 10
71.296797011996
 20
-5.074091336171082
 30
0.0
 11
71.39172193875385
 21
-5.038362881581235
 31
0.0
  0
LINE
  5
277
330
1F
100
AcDbEntity
  8
0
100
AcDbLine
 10
71.20440504422258
 20
-5.115953823964056
 30
0.0
 11
71.296797011996
 21
-5.074091336171082
 31
0.0
  0
LINE
  5
278
330
1F
100
AcDbEntity
  8
0
100
AcDbLine
 10
71.11495802273822
 20
-5.16376723949139
 30
0.0
 11
71.20440504422258
 21
-5.115953823964056
 31
0.0
  0
LINE
  5
279
330
1F
100
AcDbEntity
  8
0
100
AcDbLine
 10
71.0288221584804
 20
-5.217325589100763
 30
0.0
 11
71.11495802273822
 21
-5.16376723949139
 31
0.0
  0
LINE
  5
27A
330
1F
100
AcDbEntity
  8
0
100
AcDbLine
 10
70.94637892117571
 20
-5.276407620350758
 30
0.0
 11
71.0288221584804
 21
-5.217325589100763
 31
0.0
  0
LINE
  5
27B
330
1F
100
AcDbEntity
  8
0
100
AcDbLine
 10
70.86796400418353
 20
-5.340753933827331
 30
0.0
 11
70.94637892117571
 21
-5.276407620350758
 31
0.0
  0
LINE
  5
27C
330
1F
100
AcDbEntity
  8
0
100
AcDbLine
 10
70.79394361844132
 20
-5.410089871327322
 30
0.0
 11
70.86796400418353
 21
-5.340753933827331
 31
0.0
  0
LINE
  5
27D
330
1F
100
AcDbEntity
  8
0
100
AcDbLine
 10
70.72460768094136
 20
-5.484117886464057
 30
0.0
 11
70.79394361844132
 21
-5.410089871327322
 31
0.0
  0
LINE
  5
27E
330
1F
100
AcDbEntity
  8
0
100
AcDbLine
 10
70.66026136746478
 20
-5.562525174061705
 30
0.0
 11
70.72460768094136
 21
-5.484117886464057
 31
0.0
  0
LINE
  5
27F
330
1F
100
AcDbEntity
  8
0
100
AcDbLine
 10
70.60117933621478
 20
-5.644972226063669
 30
0.0
 11
70.66026136746478
 21
-5.562525174061705
 31
0.0
  0
LINE
  5
280
330
1F
100
AcDbEntity
  8
0
100
AcDbLine
 10
70.54762098660541
 20
-5.731104275624216
 30
0.0
 11
70.60117933621478
 21
-5.644972226063669
 31
0.0
  0
LINE
  5
281
330
1F
100
AcDbEntity
  8
0
100
AcDbLine
 10
70.4997999416835
 20
-5.820558926503107
 30
0.0
 11
70.54762098660541
 21
-5.731104275624216
 31
0.0
  0
LINE
  5
282
330
1F
100
AcDbEntity
  8
0
100
AcDbLine
 10
70.45794508328505
 20
-5.912947079579278
 30
0.0
 11
70.4997999416835
 21
-5.820558926503107
 31
0.0
  0
LINE
  5
283
330
1F
100
AcDbEntity
  8
0
100
AcDbLine
 10
70.42220899930071
 20
-6.007872006337092
 30
0.0
 11
70.45794508328505
 21
-5.912947079579278
 31
0.0
  0
LINE
  5
284
330
1F
100
AcDbEntity
  8
0
100
AcDbLine
 10
70.39277479519916
 20
-6.104936978260934
 30
0.0
 11
70.42220899930071
 21
-6.007872006337092
 31
0.0
  0
LINE
  5
285
330
1F
100
AcDbEntity
  8
0
100
AcDbLine
 10
65.53785536160541
 20
2.042996981699998
 30
0.0
 11
65.56089613308977
 21
1.944215396006646
 31
0.0
  0
LINE
  5
286
330
1F
100
AcDbEntity
  8
0
100
AcDbLine
 10
65.50842115750386
 20
2.140058138926555
 30
0.0
 11
65.53785536160541
 21
2.042996981699998
 31
0.0
  0
LINE
  5
287
330
1F
100
AcDbEntity
  8
0
100
AcDbLine
 10
65.47268507351947
 20
2.234983065684369
 30
0.0
 11
65.50842115750386
 21
2.140058138926555
 31
0.0
  0
LINE
  5
288
330
1F
100
AcDbEntity
  8
0
100
AcDbLine
 10
65.43083021512106
 20
2.327371218760539
 30
0.0
 11
65.47268507351947
 21
2.234983065684369
 31
0.0
  0
LINE
  5
289
330
1F
100
AcDbEntity
  8
0
100
AcDbLine
 10
65.27036878933978
 20
2.585404971201954
 30
0.0
 11
65.32945082058978
 21
2.5029579192
 31
0.0
  0
LINE
  5
28A
330
1F
100
AcDbEntity
  8
0
100
AcDbLine
 10
63.17953321805072
 20
2.930604556162884
 30
0.0
 11
63.26566908230855
 21
2.984166720469531
 31
0.0
  0
LINE
  5
28B
330
1F
100
AcDbEntity
  8
0
100
AcDbLine
 10
63.09708998074603
 20
2.871522524912889
 30
0.0
 11
63.17953321805072
 21
2.930604556162884
 31
0.0
  0
LINE
  5
28C
330
1F
100
AcDbEntity
  8
0
100
AcDbLine
 10
63.01869032254291
 20
2.807176211436326
 30
0.0
 11
63.09708998074603
 21
2.871522524912889
 31
0.0
  0
LINE
  5
28D
330
1F
100
AcDbEntity
  8
0
100
AcDbLine
 10
62.94465467801165
 20
2.737840273936325
 30
0.0
 11
63.01869032254291
 21
2.807176211436326
 31
0.0
  0
LINE
  5
28E
330
1F
100
AcDbEntity
  8
0
100
AcDbLine
 10
62.81097242703511
 20
2.585404971201954
 30
0.0
 11
62.87531874051169
 21
2.663812258799612
 31
0.0
  0
LINE
  5
28F
330
1F
100
AcDbEntity
  8
0
100
AcDbLine
 10
62.75189039578512
 20
2.5029579192
 30
0.0
 11
62.81097242703511
 21
2.585404971201954
 31
0.0
  0
LINE
  5
290
330
1F
100
AcDbEntity
  8
0
100
AcDbLine
 10
62.69833204617574
 20
2.416825869639454
 30
0.0
 11
62.75189039578512
 21
2.5029579192
 31
0.0
  0
LINE
  5
291
330
1F
100
AcDbEntity
  8
0
100
AcDbLine
 10
62.65052626004294
 20
2.327371218760539
 30
0.0
 11
62.69833204617574
 21
2.416825869639454
 31
0.0
  0
LINE
  5
292
330
1F
100
AcDbEntity
  8
0
100
AcDbLine
 10
62.60865614285544
 20
2.234983065684369
 30
0.0
 11
62.65052626004294
 21
2.327371218760539
 31
0.0
  0
LINE
  5
293
330
1F
100
AcDbEntity
  8
0
100
AcDbLine
 10
62.57293531766009
 20
2.140058138926555
 30
0.0
 11
62.60865614285544
 21
2.234983065684369
 31
0.0
  0
LINE
  5
294
330
1F
100
AcDbEntity
  8
0
100
AcDbLine
 10
62.54348585476949
 20
2.042996981699998
 30
0.0
 11
62.57293531766009
 21
2.140058138926555
 31
0.0
  0
LINE
  5
295
330
1F
100
AcDbEntity
  8
0
100
AcDbLine
 10
62.52046034207418
 20
1.944215396006646
 30
0.0
 11
62.54348585476949
 21
2.042996981699998
 31
0.0
  0
LINE
  5
296
330
1F
100
AcDbEntity
  8
0
100
AcDbLine
 10
62.50393507351946
 20
1.844140627940236
 30
0.0
 11
62.52046034207418
 21
1.944215396006646
 31
0.0
  0
LINE
  5
297
330
1F
100
AcDbEntity
  8
0
100
AcDbLine
 10
62.49398634305074
 20
1.743199923594529
 30
0.0
 11
62.50393507351946
 21
1.844140627940236
 31
0.0
  0
LINE
  5
298
330
1F
100
AcDbEntity
  8
0
100
AcDbLine
 10
62.49398634305074
 20
1.540452578623831
 30
0.0
 11
62.49067518582419
 21
1.641824343760549
 31
0.0
  0
LINE
  5
299
330
1F
100
AcDbEntity
  8
0
100
AcDbLine
 10
62.50393507351946
 20
1.439511874278124
 30
0.0
 11
62.49398634305074
 21
1.540452578623831
 31
0.0
  0
LINE
  5
29A
330
1F
100
AcDbEntity
  8
0
100
AcDbLine
 10
62.52046034207418
 20
1.339437106211731
 30
0.0
 11
62.50393507351946
 21
1.439511874278124
 31
0.0
  0
LINE
  5
29B
330
1F
100
AcDbEntity
  8
0
100
AcDbLine
 10
62.54348585476949
 20
1.240655520518368
 30
0.0
 11
62.52046034207418
 21
1.339437106211731
 31
0.0
  0
LINE
  5
29C
330
1F
100
AcDbEntity
  8
0
100
AcDbLine
 10
63.17953321805072
 20
0.3530479460554705
 30
0.0
 11
63.09708998074603
 21
0.4121261626082141
 31
0.0
  0
LINE
  5
29D
330
1F
100
AcDbEntity
  8
0
100
AcDbLine
 10
63.35513136258196
 20
0.2516723662214897
 30
0.0
 11
63.26566908230855
 21
0.2994857817488237
 31
0.0
  0
LINE
  5
29E
330
1F
100
AcDbEntity
  8
0
100
AcDbLine
 10
63.44750807156633
 20
0.2098136931257894
 30
0.0
 11
63.35513136258196
 21
0.2516723662214897
 31
0.0
  0
LINE
  5
29F
330
1F
100
AcDbEntity
  8
0
100
AcDbLine
 10
63.54244825711322
 20
0.1740852385359421
 30
0.0
 11
63.44750807156633
 21
0.2098136931257894
 31
0.0
  0
LINE
  5
2A0
330
1F
100
AcDbEntity
  8
0
100
AcDbLine
 10
63.63950941433979
 20
0.1446395903425909
 30
0.0
 11
63.54244825711322
 21
0.1740852385359421
 31
0.0
  0
LINE
  5
2A1
330
1F
100
AcDbEntity
  8
0
100
AcDbLine
 10
63.73827955594135
 20
0.121610262950009
 30
0.0
 11
63.63950941433979
 21
0.1446395903425909
 31
0.0
  0
LINE
  5
2A2
330
1F
100
AcDbEntity
  8
0
100
AcDbLine
 10
63.83836195340228
 20
0.1050849943953175
 30
0.0
 11
63.73827955594135
 21
0.121610262950009
 31
0.0
  0
LINE
  5
2A3
330
1F
100
AcDbEntity
  8
0
100
AcDbLine
 10
64.040678237582
 20
0.0918251066999961
 30
0.0
 11
63.93929884305072
 21
0.0951438933210891
 31
0.0
  0
LINE
  5
2A4
330
1F
100
AcDbEntity
  8
0
100
AcDbLine
 10
64.14204237332417
 20
0.0951438933210891
 30
0.0
 11
64.040678237582
 21
0.0918251066999961
 31
0.0
  0
LINE
  5
2A5
330
1F
100
AcDbEntity
  8
0
100
AcDbLine
 10
64.34306166043355
 20
0.121610262950009
 30
0.0
 11
64.24299452176167
 21
0.1050849943953175
 31
0.0
  0
LINE
  5
2A6
330
1F
100
AcDbEntity
  8
0
100
AcDbLine
 10
64.44184706082416
 20
0.1446395903425909
 30
0.0
 11
64.34306166043355
 21
0.121610262950009
 31
0.0
  0
LINE
  5
2A7
330
1F
100
AcDbEntity
  8
0
100
AcDbLine
 10
64.53890821805074
 20
0.1740852385359421
 30
0.0
 11
64.44184706082416
 21
0.1446395903425909
 31
0.0
  0
LINE
  5
2A8
330
1F
100
AcDbEntity
  8
0
100
AcDbLine
 10
64.63383314480852
 20
0.2098136931257894
 30
0.0
 11
64.53890821805074
 21
0.1740852385359421
 31
0.0
  0
LINE
  5
2A9
330
1F
100
AcDbEntity
  8
0
100
AcDbLine
 10
64.72622511258199
 20
0.2516723662214897
 30
0.0
 11
64.63383314480852
 21
0.2098136931257894
 31
0.0
  0
LINE
  5
2AA
330
1F
100
AcDbEntity
  8
0
100
AcDbLine
 10
64.81567213406636
 20
0.2994857817488237
 30
0.0
 11
64.72622511258199
 21
0.2516723662214897
 31
0.0
  0
LINE
  5
2AB
330
1F
100
AcDbEntity
  8
0
100
AcDbLine
 10
64.90180799832417
 20
0.3530479460554705
 30
0.0
 11
64.81567213406636
 21
0.2994857817488237
 31
0.0
  0
LINE
  5
2AC
330
1F
100
AcDbEntity
  8
0
100
AcDbLine
 10
64.98425123562886
 20
0.4121261626082141
 30
0.0
 11
64.90180799832417
 21
0.3530479460554705
 31
0.0
  0
LINE
  5
2AD
330
1F
100
AcDbEntity
  8
0
100
AcDbLine
 10
65.20602247586322
 20
0.6198402434187645
 30
0.0
 11
65.13668653836325
 21
0.5458084135847775
 31
0.0
  0
LINE
  5
2AE
330
1F
100
AcDbEntity
  8
0
100
AcDbLine
 10
65.27036878933978
 20
0.6982437163191377
 30
0.0
 11
65.20602247586322
 21
0.6198402434187645
 31
0.0
  0
LINE
  5
2AF
330
1F
100
AcDbEntity
  8
0
100
AcDbLine
 10
65.32945082058978
 20
0.7806907683211024
 30
0.0
 11
65.27036878933978
 21
0.6982437163191377
 31
0.0
  0
LINE
  5
2B0
330
1F
100
AcDbEntity
  8
0
100
AcDbLine
 10
65.38300917019916
 20
0.8668266325789009
 30
0.0
 11
65.32945082058978
 21
0.7806907683211024
 31
0.0
  0
LINE
  5
2B1
330
1F
100
AcDbEntity
  8
0
100
AcDbLine
 10
65.43083021512106
 20
0.956277468760541
 30
0.0
 11
65.38300917019916
 21
0.8668266325789009
 31
0.0
  0
LINE
  5
2B2
330
1F
100
AcDbEntity
  8
0
100
AcDbLine
 10
65.47268507351947
 20
1.048665621836706
 30
0.0
 11
65.43083021512106
 21
0.956277468760541
 31
0.0
  0
LINE
  5
2B3
330
1F
100
AcDbEntity
  8
0
100
AcDbLine
 10
65.50842115750386
 20
1.143594363291793
 30
0.0
 11
65.47268507351947
 21
1.048665621836706
 31
0.0
  0
LINE
  5
2B4
330
1F
100
AcDbEntity
  8
0
100
AcDbLine
 10
65.53785536160541
 20
1.240655520518368
 30
0.0
 11
65.50842115750386
 21
1.143594363291793
 31
0.0
  0
LINE
  5
2B5
330
1F
100
AcDbEntity
  8
0
100
AcDbLine
 10
65.56089613308977
 20
1.339437106211731
 30
0.0
 11
65.53785536160541
 21
1.240655520518368
 31
0.0
  0
LINE
  5
2B6
330
1F
100
AcDbEntity
  8
0
100
AcDbLine
 10
65.57740614285544
 20
1.439511874278124
 30
0.0
 11
65.56089613308977
 21
1.339437106211731
 31
0.0
  0
LINE
  5
2B7
330
1F
100
AcDbEntity
  8
0
100
AcDbLine
 10
65.57740614285544
 20
1.439511874278124
 30
0.0
 11
65.58735487332417
 21
1.540452578623831
 31
0.0
  0
LINE
  5
2B8
330
1F
100
AcDbEntity
  8
0
100
AcDbLine
 10
65.58735487332417
 20
1.540452578623831
 30
0.0
 11
65.59066603055071
 21
1.641824343760549
 31
0.0
  0
LINE
  5
2B9
330
1F
100
AcDbEntity
  8
0
100
AcDbLine
 10
65.58735487332417
 20
1.743199923594529
 30
0.0
 11
65.59066603055071
 21
1.641824343760549
 31
0.0
  0
LINE
  5
2BA
330
1F
100
AcDbEntity
  8
0
100
AcDbLine
 10
65.58735487332417
 20
1.743199923594529
 30
0.0
 11
65.57740614285544
 21
1.844140627940236
 31
0.0
  0
LINE
  5
2BB
330
1F
100
AcDbEntity
  8
0
100
AcDbLine
 10
65.57740614285544
 20
1.844140627940236
 30
0.0
 11
65.56089613308977
 21
1.944215396006646
 31
0.0
  0
LINE
  5
2BC
330
1F
100
AcDbEntity
  8
0
100
AcDbLine
 10
-64.24298498501855
 20
3.293551310298085
 30
0.0
 11
-64.1420442806728
 21
3.303492411372314
 31
0.0
  0
LINE
  5
2BD
330
1F
100
AcDbEntity
  8
0
100
AcDbLine
 10
-64.34305975308492
 20
3.277026041743405
 30
0.0
 11
-64.24298498501855
 21
3.293551310298085
 31
0.0
  0
LINE
  5
2BE
330
1F
100
AcDbEntity
  8
0
100
AcDbLine
 10
-64.44184133877829
 20
3.253996714350835
 30
0.0
 11
-64.34305975308492
 21
3.277026041743405
 31
0.0
  0
LINE
  5
2BF
330
1F
100
AcDbEntity
  8
0
100
AcDbLine
 10
-64.53890249600485
 20
3.224551066157461
 30
0.0
 11
-64.44184133877829
 21
3.253996714350835
 31
0.0
  0
LINE
  5
2C0
330
1F
100
AcDbEntity
  8
0
100
AcDbLine
 10
-64.63383123745994
 20
3.188822611567625
 30
0.0
 11
-64.53890249600485
 21
3.224551066157461
 31
0.0
  0
LINE
  5
2C1
330
1F
100
AcDbEntity
  8
0
100
AcDbLine
 10
-64.72621939053612
 20
3.146963938471913
 30
0.0
 11
-64.63383123745994
 21
3.188822611567625
 31
0.0
  0
LINE
  5
2C2
330
1F
100
AcDbEntity
  8
0
100
AcDbLine
 10
-64.81567022671773
 20
3.099150522944579
 30
0.0
 11
-64.72621939053612
 21
3.146963938471913
 31
0.0
  0
LINE
  5
2C3
330
1F
100
AcDbEntity
  8
0
100
AcDbLine
 10
-64.98424932828024
 20
2.986506327387938
 30
0.0
 11
-64.90180609097555
 21
3.045588358637933
 31
0.0
  0
LINE
  5
2C4
330
1F
100
AcDbEntity
  8
0
100
AcDbLine
 10
-65.06265661587791
 20
2.922163828608638
 30
0.0
 11
-64.98424932828024
 21
2.986506327387938
 31
0.0
  0
LINE
  5
2C5
330
1F
100
AcDbEntity
  8
0
100
AcDbLine
 10
-65.13668463101463
 20
2.852824076411374
 30
0.0
 11
-65.06265661587791
 21
2.922163828608638
 31
0.0
  0
LINE
  5
2C6
330
1F
100
AcDbEntity
  8
0
100
AcDbLine
 10
-65.20602056851459
 20
2.778796061274661
 30
0.0
 11
-65.13668463101463
 21
2.852824076411374
 31
0.0
  0
LINE
  5
2C7
330
1F
100
AcDbEntity
  8
0
100
AcDbLine
 10
-65.27036688199117
 20
2.700388773676991
 30
0.0
 11
-65.20602056851459
 21
2.778796061274661
 31
0.0
  0
LINE
  5
2C8
330
1F
100
AcDbEntity
  8
0
100
AcDbLine
 10
-65.32944891324117
 20
2.617945536372312
 30
0.0
 11
-65.27036688199117
 21
2.700388773676991
 31
0.0
  0
LINE
  5
2C9
330
1F
100
AcDbEntity
  8
0
100
AcDbLine
 10
-65.43082449307519
 20
2.442358835932862
 30
0.0
 11
-65.38301107754783
 21
2.531809672114502
 31
0.0
  0
LINE
  5
2CA
330
1F
100
AcDbEntity
  8
0
100
AcDbLine
 10
-65.47268316617088
 20
2.349970682856692
 30
0.0
 11
-65.43082449307519
 21
2.442358835932862
 31
0.0
  0
LINE
  5
2CB
330
1F
100
AcDbEntity
  8
0
100
AcDbLine
 10
-65.50841162076074
 20
2.255041941401604
 30
0.0
 11
-65.47268316617088
 21
2.349970682856692
 31
0.0
  0
LINE
  5
2CC
330
1F
100
AcDbEntity
  8
0
100
AcDbLine
 10
-65.53785726895408
 20
2.157980784175046
 30
0.0
 11
-65.50841162076074
 21
2.255041941401604
 31
0.0
  0
LINE
  5
2CD
330
1F
100
AcDbEntity
  8
0
100
AcDbLine
 10
-65.56088659634665
 20
2.059199198481694
 30
0.0
 11
-65.53785726895408
 21
2.157980784175046
 31
0.0
  0
LINE
  5
2CE
330
1F
100
AcDbEntity
  8
0
100
AcDbLine
 10
-65.57740805020406
 20
1.959124430415274
 30
0.0
 11
-65.56088659634665
 21
2.059199198481694
 31
0.0
  0
LINE
  5
2CF
330
1F
100
AcDbEntity
  8
0
100
AcDbLine
 10
-65.58735296597554
 20
1.858183726069578
 30
0.0
 11
-65.57740805020406
 21
1.959124430415274
 31
0.0
  0
LINE
  5
2D0
330
1F
100
AcDbEntity
  8
0
100
AcDbLine
 10
-65.59067175259663
 20
1.75681196093286
 30
0.0
 11
-65.58735296597554
 21
1.858183726069578
 31
0.0
  0
LINE
  5
2D1
330
1F
100
AcDbEntity
  8
0
100
AcDbLine
 10
-65.57740805020406
 20
1.554495676753173
 30
0.0
 11
-65.58735296597554
 21
1.655436381098868
 31
0.0
  0
LINE
  5
2D2
330
1F
100
AcDbEntity
  8
0
100
AcDbLine
 10
-65.56088659634665
 20
1.454420908686763
 30
0.0
 11
-65.57740805020406
 21
1.554495676753173
 31
0.0
  0
LINE
  5
2D3
330
1F
100
AcDbEntity
  8
0
100
AcDbLine
 10
-65.53785726895408
 20
1.355639322993411
 30
0.0
 11
-65.56088659634665
 21
1.454420908686763
 31
0.0
  0
LINE
  5
2D4
330
1F
100
AcDbEntity
  8
0
100
AcDbLine
 10
-64.44184133877829
 20
0.2596233928176228
 30
0.0
 11
-64.53890249600485
 21
0.2890690410109852
 31
0.0
  0
LINE
  5
2D5
330
1F
100
AcDbEntity
  8
0
100
AcDbLine
 10
-62.4939882503994
 20
1.655436381098868
 30
0.0
 11
-62.49066946377831
 21
1.75681196093286
 31
0.0
  0
LINE
  5
2D6
330
1F
100
AcDbEntity
  8
0
100
AcDbLine
 10
-62.4939882503994
 20
1.858183726069578
 30
0.0
 11
-62.50392935147359
 21
1.959124430415274
 31
0.0
  0
LINE
  5
2D7
330
1F
100
AcDbEntity
  8
0
100
AcDbLine
 10
-62.50392935147359
 20
1.959124430415274
 30
0.0
 11
-62.5204546200283
 21
2.059199198481694
 31
0.0
  0
LINE
  5
2D8
330
1F
100
AcDbEntity
  8
0
100
AcDbLine
 10
-62.54348394742086
 20
2.157980784175046
 30
0.0
 11
-62.5204546200283
 21
2.059199198481694
 31
0.0
  0
LINE
  5
2D9
330
1F
100
AcDbEntity
  8
0
100
AcDbLine
 10
-62.60865805020406
 20
2.349970682856692
 30
0.0
 11
-62.57292959561421
 21
2.255041941401604
 31
0.0
  0
LINE
  5
2DA
330
1F
100
AcDbEntity
  8
0
100
AcDbLine
 10
-62.69833013882712
 20
2.531809672114502
 30
0.0
 11
-62.65051672329976
 21
2.442358835932862
 31
0.0
  0
LINE
  5
2DB
330
1F
100
AcDbEntity
  8
0
100
AcDbLine
 10
-62.75189230313374
 20
2.617945536372312
 30
0.0
 11
-62.69833013882712
 21
2.531809672114502
 31
0.0
  0
LINE
  5
2DC
330
1F
100
AcDbEntity
  8
0
100
AcDbLine
 10
-62.81097433438378
 20
2.700388773676991
 30
0.0
 11
-62.75189230313374
 21
2.617945536372312
 31
0.0
  0
LINE
  5
2DD
330
1F
100
AcDbEntity
  8
0
100
AcDbLine
 10
-62.94465658536032
 20
2.852824076411374
 30
0.0
 11
-62.87531683316306
 21
2.778796061274661
 31
0.0
  0
LINE
  5
2DE
330
1F
100
AcDbEntity
  8
0
100
AcDbLine
 10
-63.01868460049703
 20
2.922163828608638
 30
0.0
 11
-62.94465658536032
 21
2.852824076411374
 31
0.0
  0
LINE
  5
2DF
330
1F
100
AcDbEntity
  8
0
100
AcDbLine
 10
-63.1795351253994
 20
3.045588358637933
 30
0.0
 11
-63.0970918880947
 21
2.986506327387938
 31
0.0
  0
LINE
  5
2E0
330
1F
100
AcDbEntity
  8
0
100
AcDbLine
 10
-63.63949987759666
 20
3.253996714350835
 30
0.0
 11
-63.54243872037009
 21
3.224551066157461
 31
0.0
  0
LINE
  5
2E1
330
1F
100
AcDbEntity
  8
0
100
AcDbLine
 10
-63.8383562313564
 20
3.293551310298085
 30
0.0
 11
-63.73828146329002
 21
3.277026041743405
 31
0.0
  0
LINE
  5
2E2
330
1F
100
AcDbEntity
  8
0
100
AcDbLine
 10
-63.93929693570214
 20
3.303492411372314
 30
0.0
 11
-63.8383562313564
 21
3.293551310298085
 31
0.0
  0
LINE
  5
2E3
330
1F
100
AcDbEntity
  8
0
100
AcDbLine
 10
18.27302191128804
 20
-0.7320909275988543
 30
0.0
 11
53.81997511258199
 21
-0.8582252473039351
 31
0.0
  0
LINE
  5
2E4
330
1F
100
AcDbEntity
  8
0
100
AcDbLine
 10
-18.27283495474628
 20
-0.8693764346959563
 30
0.0
 11
18.27302191128804
 21
-0.7320909275988543
 31
0.0
  0
LINE
  5
2E5
330
1F
100
AcDbEntity
  8
0
100
AcDbLine
 10
-25.24539742475087
 20
5.621174368902059
 30
0.0
 11
-32.08124945035053
 21
5.650137766596917
 31
0.0
  0
LINE
  5
2E6
330
1F
100
AcDbEntity
  8
0
100
AcDbLine
 10
-11.24548448629944
 20
5.609933757279965
 30
0.0
 11
11.27304614155676
 21
5.669183472785686
 31
0.0
  0
LINE
  5
2E7
330
1F
100
AcDbEntity
  8
0
100
AcDbLine
 10
-25.24539742475087
 20
5.621174368902059
 30
0.0
 11
-24.33289130688836
 21
5.677263074987514
 31
0.0
  0
LINE
  5
2E8
330
1F
100
AcDbEntity
  8
0
100
AcDbLine
 10
-24.33289130688836
 20
5.677263074987514
 30
0.0
 11
-23.4355745948172
 21
5.852294718768478
 31
0.0
  0
LINE
  5
2E9
330
1F
100
AcDbEntity
  8
0
100
AcDbLine
 10
-23.4355745948172
 20
5.852294718768478
 30
0.0
 11
-22.56888344496244
 21
6.143258305580105
 31
0.0
  0
LINE
  5
2EA
330
1F
100
AcDbEntity
  8
0
100
AcDbLine
 10
-22.56888344496244
 20
6.143258305580105
 30
0.0
 11
-21.74772717527322
 21
6.545148513021065
 31
0.0
  0
LINE
  5
2EB
330
1F
100
AcDbEntity
  8
0
100
AcDbLine
 10
-21.74772717527322
 20
6.545148513021065
 30
0.0
 11
-20.98623178658938
 21
7.051051795378573
 31
0.0
  0
LINE
  5
2EC
330
1F
100
AcDbEntity
  8
0
100
AcDbLine
 10
-20.98623178658938
 20
7.051051795378573
 30
0.0
 11
-20.29749695907795
 21
7.6522653144046
 31
0.0
  0
LINE
  5
2ED
330
1F
100
AcDbEntity
  8
0
100
AcDbLine
 10
-20.29749695907795
 20
7.6522653144046
 30
0.0
 11
-19.69337070402616
 21
8.3384466505279
 31
0.0
  0
LINE
  5
2EE
330
1F
100
AcDbEntity
  8
0
100
AcDbLine
 10
-19.69337070402616
 20
8.3384466505279
 30
0.0
 11
-19.18424554755996
 21
9.097791719083775
 31
0.0
  0
LINE
  5
2EF
330
1F
100
AcDbEntity
  8
0
100
AcDbLine
 10
-19.18424554755996
 20
9.097791719083775
 30
0.0
 11
-18.77887975245258
 21
9.9172378309446
 31
0.0
  0
LINE
  5
2F0
330
1F
100
AcDbEntity
  8
0
100
AcDbLine
 10
-17.71225829753227
 20
9.915528483967096
 30
0.0
 11
-17.30703845942877
 21
9.095411153815167
 31
0.0
  0
LINE
  5
2F1
330
1F
100
AcDbEntity
  8
0
100
AcDbLine
 10
-17.30703845942877
 20
9.095411153815167
 30
0.0
 11
-16.79807186792323
 21
8.33531342250728
 31
0.0
  0
LINE
  5
2F2
330
1F
100
AcDbEntity
  8
0
100
AcDbLine
 10
-16.79807186792323
 20
8.33531342250728
 30
0.0
 11
-16.19409623947985
 21
7.648284316388356
 31
0.0
  0
LINE
  5
2F3
330
1F
100
AcDbEntity
  8
0
100
AcDbLine
 10
-16.19409623947985
 20
7.648284316388356
 30
0.0
 11
-15.50548036427205
 21
7.046118451513938
 31
0.0
  0
LINE
  5
2F4
330
1F
100
AcDbEntity
  8
0
100
AcDbLine
 10
-15.50548036427205
 20
7.046118451513938
 30
0.0
 11
-14.74404609931506
 21
6.539153548825827
 31
0.0
  0
LINE
  5
2F5
330
1F
100
AcDbEntity
  8
0
100
AcDbLine
 10
-14.74404609931506
 20
6.539153548825827
 30
0.0
 11
-13.92286541598058
 21
6.136092960667594
 31
0.0
  0
LINE
  5
2F6
330
1F
100
AcDbEntity
  8
0
100
AcDbLine
 10
-13.92286541598058
 20
6.136092960667594
 30
0.0
 11
-13.05603598609341
 21
5.8438562554274
 31
0.0
  0
LINE
  5
2F7
330
1F
100
AcDbEntity
  8
0
100
AcDbLine
 10
-13.05603598609341
 20
5.8438562554274
 30
0.0
 11
-12.15843915925012
 21
5.667460425405794
 31
0.0
  0
LINE
  5
2F8
330
1F
100
AcDbEntity
  8
0
100
AcDbLine
 10
-12.15843915925012
 20
5.667460425405794
 30
0.0
 11
-11.24548448629944
 21
5.609933757279965
 31
0.0
  0
LINE
  5
2F9
330
1F
100
AcDbEntity
  8
0
100
AcDbLine
 10
11.27304614155676
 20
5.669183472785686
 30
0.0
 11
12.1874503331611
 21
5.731432667930455
 31
0.0
  0
LINE
  5
2FA
330
1F
100
AcDbEntity
  8
0
100
AcDbLine
 10
12.1874503331611
 20
5.731432667930455
 30
0.0
 11
13.08594620003777
 21
5.912306007937465
 31
0.0
  0
LINE
  5
2FB
330
1F
100
AcDbEntity
  8
0
100
AcDbLine
 10
13.08594620003777
 20
5.912306007937465
 30
0.0
 11
13.95321161492494
 21
6.208719044189826
 31
0.0
  0
LINE
  5
2FC
330
1F
100
AcDbEntity
  8
0
100
AcDbLine
 10
13.95321161492494
 20
6.208719044189826
 30
0.0
 11
14.77445702614343
 21
6.615617019697594
 31
0.0
  0
LINE
  5
2FD
330
1F
100
AcDbEntity
  8
0
100
AcDbLine
 10
14.77445702614343
 20
6.615617019697594
 30
0.0
 11
15.53567766509298
 21
7.126061068303296
 31
0.0
  0
LINE
  5
2FE
330
1F
100
AcDbEntity
  8
0
100
AcDbLine
 10
15.53567766509298
 20
7.126061068303296
 30
0.0
 11
16.22389237077521
 21
7.731346543762996
 31
0.0
  0
LINE
  5
2FF
330
1F
100
AcDbEntity
  8
0
100
AcDbLine
 10
16.22389237077521
 20
7.731346543762996
 30
0.0
 11
16.82736495864805
 21
8.421151460827094
 31
0.0
  0
LINE
  5
300
330
1F
100
AcDbEntity
  8
0
100
AcDbLine
 10
16.82736495864805
 20
8.421151460827094
 30
0.0
 11
17.33580435878978
 21
9.183712516942125
 31
0.0
  0
LINE
  5
301
330
1F
100
AcDbEntity
  8
0
100
AcDbLine
 10
17.33580435878978
 20
9.183712516942125
 30
0.0
 11
17.74054011039906
 21
10.00602569286054
 31
0.0
  0
LINE
  5
302
330
1F
100
AcDbEntity
  8
0
100
AcDbLine
 10
18.8052817367636
 20
10.00432431114769
 30
0.0
 11
19.20986800670922
 21
9.181342212294533
 31
0.0
  0
LINE
  5
303
330
1F
100
AcDbEntity
  8
0
100
AcDbLine
 10
19.20986800670922
 20
9.181342212294533
 30
0.0
 11
19.71814422629044
 21
8.418030434926008
 31
0.0
  0
LINE
  5
304
330
1F
100
AcDbEntity
  8
0
100
AcDbLine
 10
19.71814422629044
 20
8.418030434926008
 30
0.0
 11
20.32146043466116
 21
7.727379193286314
 31
0.0
  0
LINE
  5
305
330
1F
100
AcDbEntity
  8
0
100
AcDbLine
 10
20.32146043466116
 20
7.727379193286314
 30
0.0
 11
21.00954925872942
 21
7.121142148019672
 31
0.0
  0
LINE
  5
306
330
1F
100
AcDbEntity
  8
0
100
AcDbLine
 10
21.00954925872942
 20
7.121142148019672
 30
0.0
 11
21.77070064565874
 21
6.60963637968775
 31
0.0
  0
LINE
  5
307
330
1F
100
AcDbEntity
  8
0
100
AcDbLine
 10
21.77070064565874
 20
6.60963637968775
 30
0.0
 11
22.59196114722308
 21
6.201566810335225
 31
0.0
  0
LINE
  5
308
330
1F
100
AcDbEntity
  8
0
100
AcDbLine
 10
22.59196114722308
 20
6.201566810335225
 30
0.0
 11
23.45935436454857
 21
5.903878061137338
 31
0.0
  0
LINE
  5
309
330
1F
100
AcDbEntity
  8
0
100
AcDbLine
 10
23.45935436454857
 20
5.903878061137338
 30
0.0
 11
24.35811880166318
 21
5.721636267249903
 31
0.0
  0
LINE
  5
30A
330
1F
100
AcDbEntity
  8
0
100
AcDbLine
 10
24.35811880166318
 20
5.721636267249903
 30
0.0
 11
25.27295908000821
 21
5.657942861163587
 31
0.0
  0
LINE
  5
30B
330
1F
100
AcDbEntity
  8
0
100
AcDbLine
 10
-18.77887975245258
 20
9.9172378309446
 30
0.0
 11
-17.71225829753227
 21
9.915528483967096
 31
0.0
  0
LINE
  5
30C
330
1F
100
AcDbEntity
  8
0
100
AcDbLine
 10
17.74054011039906
 20
10.00602569286054
 30
0.0
 11
18.8052817367636
 21
10.00432431114769
 31
0.0
  0
LINE
  5
30D
330
1F
100
AcDbEntity
  8
0
100
AcDbLine
 10
68.56107923855856
 20
1.102414706309371
 30
0.0
 11
68.51432630887106
 21
1.692426302989066
 31
0.0
  0
LINE
  5
30E
330
1F
100
AcDbEntity
  8
0
100
AcDbLine
 10
-68.56108305325581
 20
1.217402323481694
 30
0.0
 11
-68.51432630887106
 21
1.807410105464115
 31
0.0
  0
ENDSEC
  0
SECTION
  2
OBJECTS
  0
DICTIONARY
  5
C
330
0
100
AcDbDictionary
  3
ACAD_GROUP
350
D
  3
ACAD_LAYOUT
350
1A
  3
ACAD_MATERIAL
350
43
  3
ACAD_MLEADERSTYLE
350
6B
  3
ACAD_MLINESTYLE
350
17
  3
ACAD_PLOTSETTINGS
350
19
  3
ACAD_SCALELIST
350
47
  3
ACAD_VISUALSTYLE
350
2A
  3
ACDBHEADERROUNDTRIPXREC
350
30F
  3
ACDBVARIABLEDICTIONARY
350
330
  0
DICTIONARY
  5
337
330
8
100
AcDbDictionary
280
     1
  3
ACAD_XREC_ROUNDTRIP
360
338
  0
DICTIONARY
  5
D
102
{ACAD_REACTORS
330
C
102
}
330
C
100
AcDbDictionary
  0
DICTIONARY
  5
1A
102
{ACAD_REACTORS
330
C
102
}
330
C
100
AcDbDictionary
  0
DICTIONARY
  5
43
102
{ACAD_REACTORS
330
C
102
}
330
C
100
AcDbDictionary
  3
BYBLOCK
350
45
  3
BYLAYER
350
44
  3
GLOBAL
350
46
  0
DICTIONARY
  5
6B
102
{ACAD_REACTORS
330
C
102
}
330
C
100
AcDbDictionary
  3
STANDARD
350
6C
  0
DICTIONARY
  5
17
102
{ACAD_REACTORS
330
C
102
}
330
C
100
AcDbDictionary
  3
STANDARD
350
18
  0
DICTIONARY
  5
19
102
{ACAD_REACTORS
330
C
102
}
330
C
100
AcDbDictionary
  0
DICTIONARY
  5
47
102
{ACAD_REACTORS
330
C
102
}
330
C
100
AcDbDictionary
  3
A0
350
48
  3
A1
350
49
  3
A2
350
4A
  3
A3
350
4B
  3
A4
350
4C
  3
A5
350
4D
  3
A6
350
4E
  3
A7
350
4F
  3
A8
350
50
  3
A9
350
51
  3
B0
350
52
  3
B1
350
53
  3
B2
350
54
  3
B3
350
55
  3
B4
350
56
  3
B5
350
57
  3
B6
350
58
  3
B7
350
59
  3
B8
350
5A
  3
B9
350
5B
  3
C0
350
5C
  3
C1
350
5D
  3
C2
350
5E
  3
C3
350
5F
  3
C4
350
60
  3
C5
350
61
  3
C6
350
62
  3
C7
350
63
  3
C8
350
64
  3
C9
350
65
  3
D0
350
66
  3
D1
350
67
  3
D2
350
68
  0
DICTIONARY
  5
2A
102
{ACAD_REACTORS
330
C
102
}
330
C
100
AcDbDictionary
  3
2DWIREFRAME
350
2F
  3
BASIC
350
32
  3
BRIGHTEN
350
36
  3
COLORCHANGE
350
3A
  3
CONCEPTUAL
350
34
  3
DIM
350
35
  3
EDGECOLOROFF
350
3D
  3
FACEPATTERN
350
39
  3
FLAT
350
2B
  3
FLATWITHEDGES
350
2C
  3
GOURAUD
350
2D
  3
GOURAUDWITHEDGES
350
2E
  3
HIDDEN
350
31
  3
JITTEROFF
350
3B
  3
LINEPATTERN
350
38
  3
OVERHANGOFF
350
3C
  3
REALISTIC
350
33
  3
SHADED
350
42
  3
SHADED_WITH_EDGES
350
41
  3
SHADES_OF_GRAY
350
3E
  3
SKETCHY
350
3F
  3
THICKEN
350
37
  3
WIREFRAME
350
30
  3
X-RAY
350
40
  0
DICTIONARY
  5
30F
102
{ACAD_REACTORS
330
C
102
}
330
C
100
AcDbDictionary
  3
CEPSNID
350
319
  3
CEPSNTYPE
350
318
  3
DIMSTYLEDATA
350
32F
  3
FINGERPRINTGUID
350
31A
  3
HYPERLINKBASE
350
312
  3
INSUNITS
350
317
  3
LAYOUTDICT
350
314
  3
LWETCUNION
350
316
  3
PLOTSETDICT
350
315
  3
PSVPSCALE
350
31C
  3
PUCSBASE
350
31F
  3
PUCSORGBACK
350
325
  3
PUCSORGBOTTOM
350
321
  3
PUCSORGFRONT
350
324
  3
PUCSORGLEFT
350
322
  3
PUCSORGRIGHT
350
323
  3
PUCSORGTOP
350
320
  3
PUCSORTHOREF
350
31D
  3
PUCSORTHOVIEW
350
31E
  3
STYLESHEET
350
313
  3
TSTACKALIGN
350
310
  3
TSTACKSIZE
350
311
  3
UCSBASE
350
328
  3
UCSORGBACK
350
32E
  3
UCSORGBOTTOM
350
32A
  3
UCSORGFRONT
350
32D
  3
UCSORGLEFT
350
32B
  3
UCSORGRIGHT
350
32C
  3
UCSORGTOP
350
329
  3
UCSORTHOREF
350
326
  3
UCSORTHOVIEW
350
327
  3
VERSIONGUID
350
31B
  0
DICTIONARY
  5
330
102
{ACAD_REACTORS
330
C
102
}
330
C
100
AcDbDictionary
  3
CANNOSCALE
350
339
  3
CMLEADERSTYLE
350
332
  3
CTABLESTYLE
350
331
  3
DIMASSOC
350
335
  3
HIDETEXT
350
336
  3
MSLTSCALE
350
33A
  0
XRECORD
  5
338
102
{ACAD_REACTORS
330
337
102
}
330
337
100
AcDbXrecord
102
VTR_0.000_0.000_1.000_1.000_VISUALSTYLE
340
2F
102
VTR_0.000_0.000_1.000_1.000_GRIDDISPLAY
 70
     3
102
VTR_0.000_0.000_1.000_1.000_GRIDMAJOR
 70
     5
102
VTR_0.000_0.000_1.000_1.000_DEFAULTLIGHTING
280
     1
102
VTR_0.000_0.000_1.000_1.000_DEFAULTLIGHTINGTYPE
 70
     1
102
VTR_0.000_0.000_1.000_1.000_BRIGHTNESS
141
0.0
102
VTR_0.000_0.000_1.000_1.000_CONTRAST
142
0.0
  0
MATERIAL
  5
45
102
{ACAD_REACTORS
330
43
102
}
102
{ACAD_XDICTIONARY
360
33D
102
}
330
43
100
AcDbMaterial
  1
BYBLOCK
  0
MATERIAL
  5
44
102
{ACAD_REACTORS
330
43
102
}
102
{ACAD_XDICTIONARY
360
33B
102
}
330
43
100
AcDbMaterial
  1
BYLAYER
  0
MATERIAL
  5
46
102
{ACAD_REACTORS
330
43
102
}
102
{ACAD_XDICTIONARY
360
33F
102
}
330
43
100
AcDbMaterial
  1
GLOBAL
  0
ACAD_PROXY_OBJECT
  5
6C
102
{ACAD_REACTORS
330
6B
102
}
330
6B
100
AcDbProxyObject
 90
      499
 91
      505
 93
      610
310
40901902A4063FBFFFFFE056BD1B81E855B9FC0AD7A3703D0AD73F4214DD185B99185C9900AD7A3703D0AC73F90141901A02B5E8DC0F42B1CFC02B5E8DC0F42B1CFE5764000000000000300FC0
340
14
340
0
340
11
340
0
 94
        0
1001
ACAD_MLEADERVER
1070
     2
  0
MLINESTYLE
  5
18
102
{ACAD_REACTORS
330
17
102
}
330
17
100
AcDbMlineStyle
  2
Standard
 70
     0
  3

 62
   256
 51
90.0
 52
90.0
 71
     2
 49
0.5
 62
   256
  6
BYLAYER
 49
-0.5
 62
   256
  6
BYLAYER
  0
ACAD_PROXY_OBJECT
  5
48
102
{ACAD_REACTORS
330
47
102
}
330
47
100
AcDbProxyObject
 90
      499
 91
      503
 93
       41
310
903313A31580
  0
ACAD_PROXY_OBJECT
  5
49
102
{ACAD_REACTORS
330
47
102
}
330
47
100
AcDbProxyObject
 90
      499
 91
      503
 93
      105
310
903313A324000000000000004000
  0
ACAD_PROXY_OBJECT
  5
4A
102
{ACAD_REACTORS
330
47
102
}
330
47
100
AcDbProxyObject
 90
      499
 91
      503
 93
      105
310
903313A344000000000000104000
  0
ACAD_PROXY_OBJECT
  5
4B
102
{ACAD_REACTORS
330
47
102
}
330
47
100
AcDbProxyObject
 90
      499
 91
      503
 93
      105
310
903313A354000000000000144000
  0
ACAD_PROXY_OBJECT
  5
4C
102
{ACAD_REACTORS
330
47
102
}
330
47
100
AcDbProxyObject
 90
      499
 91
      503
 93
      105
310
903313A384000000000000204000
  0
ACAD_PROXY_OBJECT
  5
4D
102
{ACAD_REACTORS
330
47
102
}
330
47
100
AcDbProxyObject
 90
      499
 91
      503
 93
      113
310
904313A31304000000000000244000
  0
ACAD_PROXY_OBJECT
  5
4E
102
{ACAD_REACTORS
330
47
102
}
330
47
100
AcDbProxyObject
 90
      499
 91
      503
 93
      113
310
904313A31364000000000000304000
  0
ACAD_PROXY_OBJECT
  5
4F
102
{ACAD_REACTORS
330
47
102
}
330
47
100
AcDbProxyObject
 90
      499
 91
      503
 93
      113
310
904313A32304000000000000344000
  0
ACAD_PROXY_OBJECT
  5
50
102
{ACAD_REACTORS
330
47
102
}
330
47
100
AcDbProxyObject
 90
      499
 91
      503
 93
      113
310
904313A333040000000000003E4000
  0
ACAD_PROXY_OBJECT
  5
51
102
{ACAD_REACTORS
330
47
102
}
330
47
100
AcDbProxyObject
 90
      499
 91
      503
 93
      113
310
904313A34304000000000000444000
  0
ACAD_PROXY_OBJECT
  5
52
102
{ACAD_REACTORS
330
47
102
}
330
47
100
AcDbProxyObject
 90
      499
 91
      503
 93
      113
310
904313A35304000000000000494000
  0
ACAD_PROXY_OBJECT
  5
53
102
{ACAD_REACTORS
330
47
102
}
330
47
100
AcDbProxyObject
 90
      499
 91
      503
 93
      121
310
905313A3130304000000000000594000
  0
ACAD_PROXY_OBJECT
  5
54
102
{ACAD_REACTORS
330
47
102
}
330
47
100
AcDbProxyObject
 90
      499
 91
      503
 93
      105
310
903323A310000000000000010100
  0
ACAD_PROXY_OBJECT
  5
55
102
{ACAD_REACTORS
330
47
102
}
330
47
100
AcDbProxyObject
 90
      499
 91
      503
 93
      105
310
903343A310000000000000410100
  0
ACAD_PROXY_OBJECT
  5
56
102
{ACAD_REACTORS
330
47
102
}
330
47
100
AcDbProxyObject
 90
      499
 91
      503
 93
      105
310
903383A310000000000000810100
  0
ACAD_PROXY_OBJECT
  5
57
102
{ACAD_REACTORS
330
47
102
}
330
47
100
AcDbProxyObject
 90
      499
 91
      503
 93
      113
310
90431303A310000000000000910100
  0
ACAD_PROXY_OBJECT
  5
58
102
{ACAD_REACTORS
330
47
102
}
330
47
100
AcDbProxyObject
 90
      499
 91
      503
 93
      121
310
9053130303A310000000000001650100
  0
ACAD_PROXY_OBJECT
  5
59
102
{ACAD_REACTORS
330
47
102
}
330
47
100
AcDbProxyObject
 90
      499
 91
      503
 93
      257
310
90E312F31323822203D2031272D3022000000000000200FC000000000000284000
  0
ACAD_PROXY_OBJECT
  5
5A
102
{ACAD_REACTORS
330
47
102
}
330
47
100
AcDbProxyObject
 90
      499
 91
      503
 93
      249
310
90D312F363422203D2031272D3022000000000000240FC000000000000284000
  0
ACAD_PROXY_OBJECT
  5
5B
102
{ACAD_REACTORS
330
47
102
}
330
47
100
AcDbProxyObject
 90
      499
 91
      503
 93
      249
310
90D312F333222203D2031272D3022000000000000280FC000000000000284000
  0
ACAD_PROXY_OBJECT
  5
5C
102
{ACAD_REACTORS
330
47
102
}
330
47
100
AcDbProxyObject
 90
      499
 91
      503
 93
      249
310
90D312F313622203D2031272D30220000000000002C0FC000000000000284000
  0
ACAD_PROXY_OBJECT
  5
5D
102
{ACAD_REACTORS
330
47
102
}
330
47
100
AcDbProxyObject
 90
      499
 91
      503
 93
      249
310
90D332F333222203D2031272D30220000000000002E0FC000000000000284000
  0
ACAD_PROXY_OBJECT
  5
5E
102
{ACAD_REACTORS
330
47
102
}
330
47
100
AcDbProxyObject
 90
      499
 91
      503
 93
      241
310
90C312F3822203D2031272D3022000000000000300FC000000000000284000
  0
ACAD_PROXY_OBJECT
  5
5F
102
{ACAD_REACTORS
330
47
102
}
330
47
100
AcDbProxyObject
 90
      499
 91
      503
 93
      249
310
90D332F313622203D2031272D3022000000000000320FC000000000000284000
  0
ACAD_PROXY_OBJECT
  5
60
102
{ACAD_REACTORS
330
47
102
}
330
47
100
AcDbProxyObject
 90
      499
 91
      503
 93
      241
310
90C312F3422203D2031272D3022000000000000340FC000000000000284000
  0
ACAD_PROXY_OBJECT
  5
61
102
{ACAD_REACTORS
330
47
102
}
330
47
100
AcDbProxyObject
 90
      499
 91
      503
 93
      241
310
90C332F3822203D2031272D3022000000000000360FC000000000000284000
  0
ACAD_PROXY_OBJECT
  5
62
102
{ACAD_REACTORS
330
47
102
}
330
47
100
AcDbProxyObject
 90
      499
 91
      503
 93
      241
310
90C312F3222203D2031272D3022000000000000380FC000000000000284000
  0
ACAD_PROXY_OBJECT
  5
63
102
{ACAD_REACTORS
330
47
102
}
330
47
100
AcDbProxyObject
 90
      499
 91
      503
 93
      241
310
90C332F3422203D2031272D30220000000000003A0FC000000000000284000
  0
ACAD_PROXY_OBJECT
  5
64
102
{ACAD_REACTORS
330
47
102
}
330
47
100
AcDbProxyObject
 90
      499
 91
      503
 93
      161
310
90A3122203D2031272D30224000000000000284000
  0
ACAD_PROXY_OBJECT
  5
65
102
{ACAD_REACTORS
330
47
102
}
330
47
100
AcDbProxyObject
 90
      499
 91
      503
 93
      257
310
90E312D312F3222203D2031272D30220000000000003E0FC000000000000284000
  0
ACAD_PROXY_OBJECT
  5
66
102
{ACAD_REACTORS
330
47
102
}
330
47
100
AcDbProxyObject
 90
      499
 91
      503
 93
      225
310
90A3322203D2031272D302200000000000002100000000000000284000
  0
ACAD_PROXY_OBJECT
  5
67
102
{ACAD_REACTORS
330
47
102
}
330
47
100
AcDbProxyObject
 90
      499
 91
      503
 93
      225
310
90A3622203D2031272D302200000000000006100000000000000284000
  0
ACAD_PROXY_OBJECT
  5
68
102
{ACAD_REACTORS
330
47
102
}
330
47
100
AcDbProxyObject
 90
      499
 91
      503
 93
      249
310
90D31272D3022203D2031272D30220000000000000A100000000000000284000
  0
ACAD_PROXY_OBJECT
  5
2F
102
{ACAD_REACTORS
330
2A
102
}
330
2A
100
AcDbProxyObject
 90
      499
 91
      501
 93
      436
310
42CC9915DA5C99599C985B595049028333333333333E33F0000000000000F90107901411070040501600405405064090741402480A0340
1001
ACAD
1000
AcDbSavedByObjectVersion
1070
     0
  0
ACAD_PROXY_OBJECT
  5
32
102
{ACAD_REACTORS
330
2A
102
}
330
2A
100
AcDbProxyObject
 90
      499
 91
      501
 93
      388
310
4150985CDA58D07406404333333333333E33F0000000000000F90107A41107004050150841D405064090741402480A0350
1001
ACAD
1000
AcDbSavedByObjectVersion
1070
     0
  0
ACAD_PROXY_OBJECT
  5
36
102
{ACAD_REACTORS
330
2A
102
}
330
2A
100
AcDbProxyObject
 90
      499
 91
      501
 93
      428
310
42109C9A59DA1D195B90C409028333333333333E33F0000000000000F9010790141107004050150841D405064090741402480A029950
1001
ACAD
1000
AcDbSavedByObjectVersion
1070
     0
  0
ACAD_PROXY_OBJECT
  5
3A
102
{ACAD_REACTORS
330
2A
102
}
330
2A
100
AcDbProxyObject
 90
      499
 91
      501
 93
      452
310
42D0DBDB1BDC90DA185B99D95104090240C333333333333E33F0000000000000F90108901411070040501508421405064090741402480A0350
1001
ACAD
1000
AcDbSavedByObjectVersion
1070
     0
  0
ACAD_PROXY_OBJECT
  5
34
102
{ACAD_REACTORS
330
2A
102
}
330
2A
100
AcDbProxyObject
 90
      499
 91
      501
 93
      500
310
4290DBDB98D95C1D1D585B10940D028333333333333E33F0000000000000F90107902409070040501000000000018199010841D405064090740C02480A0340
1001
ACAD
1000
AcDbSavedByObjectVersion
1070
     0
  0
ACAD_PROXY_OBJECT
  5
35
102
{ACAD_REACTORS
330
2A
102
}
330
2A
100
AcDbProxyObject
 90
      499
 91
      501
 93
      412
310
40D11A5B50B409028333333333333E33F0000000000000F9010790141107004050150841D405064090741402480A02677FFFFFD0
1001
ACAD
1000
AcDbSavedByObjectVersion
1070
     0
  0
ACAD_PROXY_OBJECT
  5
3D
102
{ACAD_REACTORS
330
2A
102
}
330
2A
100
AcDbProxyObject
 90
      499
 91
      501
 93
      452
310
43115919D950DBDB1BDC93D999916409028333333333333E33F0000000000000F9010790141107004050150841D405064090741402480A0350
1001
ACAD
1000
AcDbSavedByObjectVersion
1070
     0
  0
ACAD_PROXY_OBJECT
  5
39
102
{ACAD_REACTORS
330
2A
102
}
330
2A
100
AcDbProxyObject
 90
      499
 91
      501
 93
      444
310
42D19858D95C185D1D195C9B90F409028333333333333E33F0000000000000F9010790141107004050150841D405064090741402480A0350
1001
ACAD
1000
AcDbSavedByObjectVersion
1070
     0
  0
ACAD_PROXY_OBJECT
  5
2B
102
{ACAD_REACTORS
330
2A
102
}
330
2A
100
AcDbProxyObject
 90
      499
 91
      501
 93
      380
310
41119B185D240901404333333333333E33F0000000000000F9010740A907004050150841D405064090741402480A1B50
1001
ACAD
1000
AcDbSavedByObjectVersion
1070
     0
  0
ACAD_PROXY_OBJECT
  5
2C
102
{ACAD_REACTORS
330
2A
102
}
330
2A
100
AcDbProxyObject
 90
      499
 91
      501
 93
      468
310
43519B185D15DA5D1A115919D95CD0140901404333333333333E33F0000000000000F90107409019070040501600405405064090741402480A1B50
1001
ACAD
1000
AcDbSavedByObjectVersion
1070
     0
  0
ACAD_PROXY_OBJECT
  5
2D
102
{ACAD_REACTORS
330
2A
102
}
330
2A
100
AcDbProxyObject
 90
      499
 91
      501
 93
      404
310
41D1DBDD5C985D5910240902404333333333333E33F0000000000000F9010740A9070040501641D405064090741402480A1B50
1001
ACAD
1000
AcDbSavedByObjectVersion
1070
     0
  0
ACAD_PROXY_OBJECT
  5
2E
102
{ACAD_REACTORS
330
2A
102
}
330
2A
100
AcDbProxyObject
 90
      499
 91
      501
 93
      492
310
4411DBDD5C985D5915DA5D1A115919D95CD0340902404333333333333E33F0000000000000F90107409019070040501600405405064090741402480A1B50
1001
ACAD
1000
AcDbSavedByObjectVersion
1070
     0
  0
ACAD_PROXY_OBJECT
  5
31
102
{ACAD_REACTORS
330
2A
102
}
330
2A
100
AcDbProxyObject
 90
      499
 91
      501
 93
      476
310
41921A5919195B90640502408333333333333E33F0000000000000F901079024090700405020000000000001110200405405064090740C02480A0340
1001
ACAD
1000
AcDbSavedByObjectVersion
1070
     0
  0
ACAD_PROXY_OBJECT
  5
3B
102
{ACAD_REACTORS
330
2A
102
}
330
2A
100
AcDbProxyObject
 90
      499
 91
      501
 93
      428
310
42529A5D1D195C93D999914409028333333333333E33F0000000000000F9010790141107004050150A41D405064090741402480A0350
1001
ACAD
1000
AcDbSavedByObjectVersion
1070
     0
  0
ACAD_PROXY_OBJECT
  5
38
102
{ACAD_REACTORS
330
2A
102
}
330
2A
100
AcDbProxyObject
 90
      499
 91
      501
 93
      444
310
42D31A5B995C185D1D195C9B90E409028333333333333E33F0000000000000F9010790141107004050750841D405064090741402483A0350
1001
ACAD
1000
AcDbSavedByObjectVersion
1070
     0
  0
ACAD_PROXY_OBJECT
  5
3C
102
{ACAD_REACTORS
330
2A
102
}
330
2A
100
AcDbProxyObject
 90
      499
 91
      501
 93
      444
310
42D3DD995C9A185B99D3D999915409028333333333333E33F0000000000000F9010790141107004050150941D405064090741402480A0350
1001
ACAD
1000
AcDbSavedByObjectVersion
1070
     0
  0
ACAD_PROXY_OBJECT
  5
33
102
{ACAD_REACTORS
330
2A
102
}
330
2A
100
AcDbProxyObject
 90
      499
 91
      501
 93
      428
310
425499585B1A5CDD1A58D08409038333333333333E33F0000000000000F9010740A907004050150800405405064090740C02480A1B40
1001
ACAD
1000
AcDbSavedByObjectVersion
1070
     0
  0
ACAD_PROXY_OBJECT
  5
42
102
{ACAD_REACTORS
330
2A
102
}
330
2A
100
AcDbProxyObject
 90
      499
 91
      501
 93
      420
310
4194DA1859195911B40902404333333333333E33F0000000000000F9010740A41107004050150800405405064090840C02480A0B40
1001
ACAD
1000
AcDbSavedByObjectVersion
1070
     0
  0
ACAD_PROXY_OBJECT
  5
41
102
{ACAD_REACTORS
330
2A
102
}
330
2A
100
AcDbProxyObject
 90
      499
 91
      501
 93
      516
310
4454DA18591959081DDA5D1A08195919D95CD1A40902404333333333333E33F0000000000000F901074090142907004050250800405405064090740C02480A0B40
1001
ACAD
1000
AcDbSavedByObjectVersion
1070
     0
  0
ACAD_PROXY_OBJECT
  5
3E
102
{ACAD_REACTORS
330
2A
102
}
330
2A
100
AcDbProxyObject
 90
      499
 91
      501
 93
      532
310
4394DA1859195CC81BD98811DC985E5174090240C333333333333E33F0000000000000F901079024090741D01000000000000111010841D405064090740C02480A0340
1001
ACAD
1000
AcDbSavedByObjectVersion
1070
     0
  0
ACAD_PROXY_OBJECT
  5
3F
102
{ACAD_REACTORS
330
2A
102
}
330
2A
100
AcDbProxyObject
 90
      499
 91
      501
 93
      476
310
41D4DAD95D18DA1E51840502408333333333333E33F0000000000000F901079024090741D01000000000000111010B41D405064090741802480A0340
1001
ACAD
1000
AcDbSavedByObjectVersion
1070
     0
  0
ACAD_PROXY_OBJECT
  5
37
102
{ACAD_REACTORS
330
2A
102
}
330
2A
100
AcDbProxyObject
 90
      499
 91
      501
 93
      412
310
41D51A1A58DAD95B90D409028333333333333E33F0000000000000F9010790141107004050150C41D405064090741402480A0350
1001
ACAD
1000
AcDbSavedByObjectVersion
1070
     0
  0
ACAD_PROXY_OBJECT
  5
30
102
{ACAD_REACTORS
330
2A
102
}
330
2A
100
AcDbProxyObject
 90
      499
 91
      501
 93
      420
310
4255DA5C99599C985B595059028333333333333E33F0000000000000F90107901411070040501600405405064090740C02480A0340
1001
ACAD
1000
AcDbSavedByObjectVersion
1070
     0
  0
ACAD_PROXY_OBJECT
  5
40
102
{ACAD_REACTORS
330
2A
102
}
330
2A
100
AcDbProxyObject
 90
      499
 91
      501
 93
      404
310
41560B54985E51940902404000000000000E03F0000000000000F9010740501907004050150841D405064090740C02480A1B40
1001
ACAD
1000
AcDbSavedByObjectVersion
1070
     0
  0
XRECORD
  5
319
102
{ACAD_REACTORS
330
30F
102
}
330
30F
100
AcDbXrecord
340
0
  0
XRECORD
  5
318
102
{ACAD_REACTORS
330
30F
102
}
330
30F
100
AcDbXrecord
 90
        0
  0
XRECORD
  5
32F
102
{ACAD_REACTORS
330
30F
102
}
330
30F
100
AcDbXrecord
1000
DSTYLE
1002
{
1070
   171
 70
     2
1070
   143
 40
25.4
1070
   274
 70
     2
1070
    41
 40
0.18
1070
   141
 40
0.09
1070
   271
 70
     4
1070
    43
 40
0.38
1070
   278
 70
    46
1070
    44
 40
0.18
1070
    42
 40
0.0625
1070
   147
 40
0.09
1070
    77
 70
     0
1070
   272
 70
     4
1070
    73
 70
     1
1070
   172
 70
     0
1070
    74
 70
     1
1070
   283
 70
     1
1070
   340
340
11
1070
   140
 40
0.18
1070
   284
 70
     0
1070
    78
 70
     0
1002
}
  0
XRECORD
  5
31A
102
{ACAD_REACTORS
330
30F
102
}
330
30F
100
AcDbXrecord
  1
{4DCEA854-AD27-47C3-953E-9E9811C60993}
  0
XRECORD
  5
312
102
{ACAD_REACTORS
330
30F
102
}
330
30F
100
AcDbXrecord
  1

  0
XRECORD
  5
317
102
{ACAD_REACTORS
330
30F
102
}
330
30F
100
AcDbXrecord
 90
        4
  0
XRECORD
  5
314
102
{ACAD_REACTORS
330
30F
102
}
330
30F
100
AcDbXrecord
340
1A
  0
XRECORD
  5
316
102
{ACAD_REACTORS
330
30F
102
}
330
30F
100
AcDbXrecord
 90
    10781
  0
XRECORD
  5
315
102
{ACAD_REACTORS
330
30F
102
}
330
30F
100
AcDbXrecord
340
19
  0
XRECORD
  5
31C
102
{ACAD_REACTORS
330
30F
102
}
330
30F
100
AcDbXrecord
 40
0.0
  0
XRECORD
  5
31F
102
{ACAD_REACTORS
330
30F
102
}
330
30F
100
AcDbXrecord
340
0
  0
XRECORD
  5
325
102
{ACAD_REACTORS
330
30F
102
}
330
30F
100
AcDbXrecord
 10
0.0
 20
0.0
 30
0.0
  0
XRECORD
  5
321
102
{ACAD_REACTORS
330
30F
102
}
330
30F
100
AcDbXrecord
 10
0.0
 20
0.0
 30
0.0
  0
XRECORD
  5
324
102
{ACAD_REACTORS
330
30F
102
}
330
30F
100
AcDbXrecord
 10
0.0
 20
0.0
 30
0.0
  0
XRECORD
  5
322
102
{ACAD_REACTORS
330
30F
102
}
330
30F
100
AcDbXrecord
 10
0.0
 20
0.0
 30
0.0
  0
XRECORD
  5
323
102
{ACAD_REACTORS
330
30F
102
}
330
30F
100
AcDbXrecord
 10
0.0
 20
0.0
 30
0.0
  0
XRECORD
  5
320
102
{ACAD_REACTORS
330
30F
102
}
330
30F
100
AcDbXrecord
 10
0.0
 20
0.0
 30
0.0
  0
XRECORD
  5
31D
102
{ACAD_REACTORS
330
30F
102
}
330
30F
100
AcDbXrecord
340
0
  0
XRECORD
  5
31E
102
{ACAD_REACTORS
330
30F
102
}
330
30F
100
AcDbXrecord
 70
     0
  0
XRECORD
  5
313
102
{ACAD_REACTORS
330
30F
102
}
330
30F
100
AcDbXrecord
  1

  0
XRECORD
  5
310
102
{ACAD_REACTORS
330
30F
102
}
330
30F
100
AcDbXrecord
 90
        1
  0
XRECORD
  5
311
102
{ACAD_REACTORS
330
30F
102
}
330
30F
100
AcDbXrecord
 90
       70
  0
XRECORD
  5
328
102
{ACAD_REACTORS
330
30F
102
}
330
30F
100
AcDbXrecord
340
0
  0
XRECORD
  5
32E
102
{ACAD_REACTORS
330
30F
102
}
330
30F
100
AcDbXrecord
 10
0.0
 20
0.0
 30
0.0
  0
XRECORD
  5
32A
102
{ACAD_REACTORS
330
30F
102
}
330
30F
100
AcDbXrecord
 10
0.0
 20
0.0
 30
0.0
  0
XRECORD
  5
32D
102
{ACAD_REACTORS
330
30F
102
}
330
30F
100
AcDbXrecord
 10
0.0
 20
0.0
 30
0.0
  0
XRECORD
  5
32B
102
{ACAD_REACTORS
330
30F
102
}
330
30F
100
AcDbXrecord
 10
0.0
 20
0.0
 30
0.0
  0
XRECORD
  5
32C
102
{ACAD_REACTORS
330
30F
102
}
330
30F
100
AcDbXrecord
 10
0.0
 20
0.0
 30
0.0
  0
XRECORD
  5
329
102
{ACAD_REACTORS
330
30F
102
}
330
30F
100
AcDbXrecord
 10
0.0
 20
0.0
 30
0.0
  0
XRECORD
  5
326
102
{ACAD_REACTORS
330
30F
102
}
330
30F
100
AcDbXrecord
340
0
  0
XRECORD
  5
327
102
{ACAD_REACTORS
330
30F
102
}
330
30F
100
AcDbXrecord
 70
     0
  0
XRECORD
  5
31B
102
{ACAD_REACTORS
330
30F
102
}
330
30F
100
AcDbXrecord
  1
{FAEB1C32-E019-11D5-929B-00C0DF256EC4}
  0
DICTIONARYVAR
  5
339
102
{ACAD_REACTORS
330
330
102
}
330
330
100
DictionaryVariables
280
     0
  1
1:1
  0
DICTIONARYVAR
  5
332
102
{ACAD_REACTORS
330
330
102
}
330
330
100
DictionaryVariables
280
     0
  1
Standard
  0
DICTIONARYVAR
  5
331
102
{ACAD_REACTORS
330
330
102
}
330
330
100
DictionaryVariables
280
     0
  1
Standard
  0
DICTIONARYVAR
  5
335
102
{ACAD_REACTORS
330
330
102
}
330
330
100
DictionaryVariables
280
     0
  1
2
  0
DICTIONARYVAR
  5
336
102
{ACAD_REACTORS
330
330
102
}
330
330
100
DictionaryVariables
280
     0
  1
1
  0
DICTIONARYVAR
  5
33A
102
{ACAD_REACTORS
330
330
102
}
330
330
100
DictionaryVariables
280
     0
  1
1
  0
DICTIONARY
  5
33D
330
45
100
AcDbDictionary
280
     1
  3
ACAD_XREC_ROUNDTRIP
360
33E
  0
DICTIONARY
  5
33B
330
44
100
AcDbDictionary
280
     1
  3
ACAD_XREC_ROUNDTRIP
360
33C
  0
DICTIONARY
  5
33F
330
46
100
AcDbDictionary
280
     1
  3
ACAD_XREC_ROUNDTRIP
360
340
  0
XRECORD
  5
33E
102
{ACAD_REACTORS
330
33D
102
}
330
33D
100
AcDbXrecord
102
MATERIAL
148
0.0
149
0.0
149
0.0
 93
        0
 94
      127
282
     0
 72
     1
 77
     1
171
     1
175
     1
179
     1
273
     0
  0
XRECORD
  5
33C
102
{ACAD_REACTORS
330
33B
102
}
330
33B
100
AcDbXrecord
102
MATERIAL
148
0.0
149
0.0
149
0.0
 93
        0
 94
      127
282
     0
 72
     1
 77
     1
171
     1
175
     1
179
     1
273
     0
  0
XRECORD
  5
340
102
{ACAD_REACTORS
330
33F
102
}
330
33F
100
AcDbXrecord
102
MATERIAL
148
0.0
149
0.0
149
0.0
 93
        0
 94
      127
282
     0
 72
     1
 77
     1
171
     1
175
     1
179
     1
273
     0
  0
ENDSEC
  0
EOF
