0
SECTION
2
HEADER
9
$INSUNITS
70
4
9
$ACADVER
1
AC1014
9
$HANDSEED
5
FFFF
0
ENDSEC
0
SECTION
2
TABLES
0
TABLE
2
VPORT
5
8
100
AcDbSymbolTable
0
ENDTAB
0
TABLE
2
LTYPE
5
5
100
AcDbSymbolTable
0
LTYPE
5
14
100
AcDbSymbolTableRecord
100
AcDbLinetypeTableRecord
2
BYBLOCK
70
0
0
LTYPE
5
15
100
AcDbSymbolTableRecord
100
AcDbLinetypeTableRecord
2
BYLAYER
70
0
0
ENDTAB
0
TABLE
2
LAYER
5
2
100
AcDbSymbolTable
70
2
0
LAYER
5
50
100
AcDbSymbolTableRecord
100
AcDbLayerTableRecord
2
0
70
0
6
CONTINUOUS
0
ENDTAB
0
TABLE
2
STYLE
5
3
100
AcDbSymbolTable
70
1
0
STYLE
5
11
100
AcDbSymbolTableRecord
100
AcDbTextStyleTableRecord
2
STANDARD
70
0
0
ENDTAB
0
TABLE
2
VIEW
5
6
100
AcDbSymbolTable
70
0
0
ENDTAB
0
TABLE
2
UCS
5
7
100
AcDbSymbolTable
70
0
0
ENDTAB
0
TABLE
2
APPID
5
9
100
AcDbSymbolTable
70
2
0
APPID
5
12
100
AcDbSymbolTableRecord
100
AcDbRegAppTableRecord
2
ACAD
70
0
0
ENDTAB
0
TABLE
2
DIMSTYLE
5
A
100
AcDbSymbolTable
70
1
0
ENDTAB
0
TABLE
2
BLOCK_RECORD
5
1
100
AcDbSymbolTable
70
1
0
BLOCK_RECORD
5
1F
100
AcDbSymbolTableRecord
100
AcDbBlockTableRecord
2
*MODEL_SPACE
0
BLOCK_RECORD
5
1B
100
AcDbSymbolTableRecord
100
AcDbBlockTableRecord
2
*PAPER_SPACE
0
ENDTAB
0
ENDSEC
0
SECTION
2
BLOCKS
0
BLOCK
5
20
100
AcDbEntity
100
AcDbBlockBegin
2
*MODEL_SPACE
0
ENDBLK
5
21
100
AcDbEntity
100
AcDbBlockEnd
0
BLOCK
5
1C
100
AcDbEntity
100
AcDbBlockBegin
2
*PAPER_SPACE
0
ENDBLK
5
1D
100
AcDbEntity
100
AcDbBlockEnd
0
ENDSEC
0
SECTION
2
ENTITIES
0
LWPOLYLINE
5
100
100
AcDbEntity
8
0
100
AcDbPolyline
90
14
70
1
43
0.0
10
44.116802959770645
20
12.277306099133501
42
-1.8031209039301237
10
44.116802959770709
20
6.1696973746115669
42
0.54055351766397663
10
15.855831852401106
20
-42.820187132356857
42
-0.90570576514618661
10
13.13493686141604
20
-49.448273942529411
42
-0.12768434271300186
10
-7.9768185581235524
20
-54.77649826266962
42
-0.12768434271300277
10
-29.088573977663287
20
-49.44827394252934
42
-0.90570576514616508
10
-31.809468968648279
20
-42.820187132356999
42
0.54055351766397741
10
-60.070440076017775
20
6.1696973746116104
42
-1.8031209039301466
10
-60.070440076017775
20
12.277306099133529
42
0.54055351766397852
10
-31.809468968648254
20
61.267190606101977
42
-0.9057057651461794
10
-29.088573977663181
20
67.895277416274524
42
-0.12768434271300208
10
-7.9768185581235107
20
73.223501736414732
42
-0.12768434271300252
10
13.134936861416186
20
67.895277416274439
42
-0.90570576514615986
10
15.855831852401145
20
61.267190606102119
42
0.54055351766397775
0
ARC
5
101
100
AcDbEntity
8
0
100
AcDbCircle
10
-61.976818558123469
20
46.023491863996533
30
0
40
38.800000000000004
210
0
220
0
230
1
100
AcDbArc
50
-13.493321152320989
51
23.62379092560251
0
ARC
5
102
100
AcDbEntity
8
0
100
AcDbCircle
10
-24.596013926822728
20
62.373251479658769
30
0
40
1.9999999999999916
210
0
220
0
230
1
100
AcDbArc
50
117.50027381181754
51
203.62379092560198
0
ARC
5
103
100
AcDbEntity
8
0
100
AcDbCircle
10
-10.030711498068918
20
34.393892303024138
30
0
40
33.543502893245559
210
0
220
0
230
1
100
AcDbArc
50
94.447586588919862
51
117.50027381181748
0
ARC
5
104
100
AcDbEntity
8
0
100
AcDbCircle
10
-12.47681855812356
20
65.842407928200174
30
0
40
2.000000000000004
210
0
220
0
230
1
100
AcDbArc
50
0
51
94.447586588919691
0
LINE
5
105
100
AcDbEntity
8
0
100
AcDbLine
10
-10.476818558123554
20
65.842407928200174
30
0
11
-10.476818558123565
21
39.313868506270282
31
0
0
ARC
5
106
100
AcDbEntity
8
0
100
AcDbCircle
10
-7.976818558123564
20
36.723501736872556
30
0
40
3.6000000000000028
210
0
220
0
230
1
100
AcDbArc
50
133.98296313035871
51
226.0170368696412
0
LINE
5
107
100
AcDbEntity
8
0
100
AcDbLine
10
-10.476818558123568
20
34.133134967474838
30
0
11
-10.476818558123572
21
26.231034436527985
31
0
0
ARC
5
108
100
AcDbEntity
8
0
100
AcDbCircle
10
-12.476818558123572
20
26.231034436527985
30
0
40
2.0000000000000009
210
0
220
0
230
1
100
AcDbArc
50
-91.759948143660608
51
0
0
ARC
5
109
100
AcDbEntity
8
0
100
AcDbCircle
10
-11.985425604070016
20
42.223486811467438
30
0
40
18
210
0
220
0
230
1
100
AcDbArc
50
251.50018160955739
51
268.24005185633939
0
ARC
5
110
100
AcDbEntity
8
0
100
AcDbCircle
10
-14.52383880820193
20
34.636889523810162
30
0
40
10.000000000000007
210
0
220
0
230
1
100
AcDbArc
50
166.50667884767904
51
251.50018160955739
0
LINE
5
111
100
AcDbEntity
8
0
100
AcDbLine
10
-10.476818558123579
20
-7.7840309627828752
30
0
11
-10.476818558123577
21
-15.686131493729727
31
0
0
ARC
5
112
100
AcDbEntity
8
0
100
AcDbCircle
10
-7.976818558123572
20
-18.276498263127444
30
0
40
3.5999999999999996
210
0
220
0
230
1
100
AcDbArc
50
133.98296313035883
51
226.01703686964115
0
LINE
5
113
100
AcDbEntity
8
0
100
AcDbLine
10
-10.476818558123579
20
-20.866865032525158
30
0
11
-10.476818558123577
21
-47.395404454455061
31
0
0
ARC
5
114
100
AcDbEntity
8
0
100
AcDbCircle
10
-12.476818558123579
20
-47.395404454455061
30
0
40
1.9999999999999949
210
0
220
0
230
1
100
AcDbArc
50
-94.447586588919691
51
0
0
ARC
5
115
100
AcDbEntity
8
0
100
AcDbCircle
10
-10.030711498068925
20
-15.946888829279025
30
0
40
33.543502893245559
210
0
220
0
230
1
100
AcDbArc
50
242.49972618818254
51
265.55241341108012
0
ARC
5
116
100
AcDbEntity
8
0
100
AcDbCircle
10
-24.596013926822742
20
-43.926248005913649
30
0
40
2.0000000000000067
210
0
220
0
230
1
100
AcDbArc
50
156.37620907439836
51
242.49972618818276
0
ARC
5
117
100
AcDbEntity
8
0
100
AcDbCircle
10
-61.976818558123583
20
-27.576488390251484
30
0
40
38.79999012712404
210
0
220
0
230
1
100
AcDbArc
50
-23.62379092560241
51
13.493321152320981
0
ARC
5
118
100
AcDbEntity
8
0
100
AcDbCircle
10
-14.523838808202063
20
-16.189886050065109
30
0
40
10
210
0
220
0
230
1
100
AcDbArc
50
108.49981839044385
51
193.49332115232104
0
ARC
5
119
100
AcDbEntity
8
0
100
AcDbCircle
10
-11.985425604069984
20
-23.776483337722325
30
0
40
18.000000000000004
210
0
220
0
230
1
100
AcDbArc
50
91.759948143660736
51
108.49981839044385
0
ARC
5
120
100
AcDbEntity
8
0
100
AcDbCircle
10
-12.476818558123579
20
-7.7840309627828752
30
0
40
1.9999999999999996
210
0
220
0
230
1
100
AcDbArc
50
0
51
91.759948143660736
0
LWPOLYLINE
5
121
100
AcDbEntity
8
0
100
AcDbPolyline
90
10
70
1
43
0.0
10
8.8920089699951976
20
21.218707321043389
42
-0.55014833657837403
10
15.611894833427877
20
21.927980937294965
42
0.11405249371773983
10
29.268625298089859
20
11.027422821535504
42
-0.6299405750247411
10
29.268625298089866
20
7.4195806522096142
42
0.11405249371773972
10
15.611894833427902
20
-3.4809774635498085
42
-0.55014833657837248
10
8.8920089699952225
20
-2.7717038472982347
42
-0.11569651958032344
10
7.0231757805158734
20
5.2331568243785132
42
0.00025364079132509455
10
7.0231814418764333
20
5.2443170170438682
10
7.0231814418764316
20
13.202686456701242
42
0.00025364079132509455
10
7.023175780515869
20
13.213846649366625
42
-0.11569651958032355
0
LWPOLYLINE
5
122
100
AcDbEntity
8
0
100
AcDbPolyline
90
10
70
1
43
0.0
10
-24.845646086242365
20
-2.7717038472982587
42
-0.55014833657837237
10
-31.565531949675044
20
-3.4809774635498281
42
0.11405249371773894
10
-45.22226241433691
20
7.4195806522095573
42
-0.62994057502473833
10
-45.222262414336896
20
11.027422821535442
42
0.11405249371773914
10
-31.565531949674988
20
21.927980937294809
42
-0.55014833657837481
10
-24.845646086242294
20
21.218707321043198
42
-0.11569651958032119
10
-22.976812896763015
20
13.213846649366594
42
0.00025364079132509455
10
-22.976818558123572
20
13.202686456701251
10
-22.976818558123568
20
5.2443170170438691
42
0.00025364079132509455
10
-22.976812896763008
20
5.2331568243785203
42
-0.1156965195803239
0
ARC
5
123
100
AcDbEntity
8
0
100
AcDbCircle
10
46.023181441876424
20
-27.576488390251484
30
0
40
38.800000000000011
210
0
220
0
230
1
100
AcDbArc
50
166.50667884767898
51
203.62379092560235
0
ARC
5
124
100
AcDbEntity
8
0
100
AcDbCircle
10
8.6423768105755947
20
-43.926248005913649
30
0
40
1.9999999999999885
210
0
220
0
230
1
100
AcDbArc
50
-62.499726188182706
51
23.62379092560246
0
ARC
5
125
100
AcDbEntity
8
0
100
AcDbCircle
10
-5.9229256181782173
20
-15.946888829279025
30
0
40
33.543502893245531
210
0
220
0
230
1
100
AcDbArc
50
274.44758658891993
51
297.50027381181746
0
ARC
5
126
100
AcDbEntity
8
0
100
AcDbCircle
10
-3.4768185581235711
20
-47.395404454455061
30
0
40
2.0000000000000053
210
0
220
0
230
1
100
AcDbArc
50
180
51
274.44758658892079
0
LINE
5
127
100
AcDbEntity
8
0
100
AcDbLine
10
-5.4768185581235764
20
-47.395404454455061
30
0
11
-5.4768185581235773
21
-20.866865032525173
31
0
0
ARC
5
128
100
AcDbEntity
8
0
100
AcDbCircle
10
-7.976818558123572
20
-18.276498263127444
30
0
40
3.5999999999999988
210
0
220
0
230
1
100
AcDbArc
50
-46.01703686964143
51
46.017036869641409
0
LINE
5
129
100
AcDbEntity
8
0
100
AcDbLine
10
-5.4768185581235773
20
-15.686131493729716
30
0
11
-5.4768185581235791
21
-7.7840309627828752
31
0
0
ARC
5
130
100
AcDbEntity
8
0
100
AcDbCircle
10
-3.4768185581235818
20
-7.7840309627828752
30
0
40
2.0000000000000009
210
0
220
-0
230
1
100
AcDbArc
50
88.240051856339434
51
180
0
ARC
5
131
100
AcDbEntity
8
0
100
AcDbCircle
10
-3.968211512177124
20
-23.776483337722333
30
0
40
18.000000000000004
210
0
220
-0
230
1
100
AcDbArc
50
71.50018160955652
51
88.240051856339463
0
ARC
5
132
100
AcDbEntity
8
0
100
AcDbCircle
10
-1.4297983080450916
20
-16.189886050065095
30
0
40
9.9999999999999893
210
0
220
0
230
1
100
AcDbArc
50
-13.493321152320989
51
71.500181609556535
0
LINE
5
133
100
AcDbEntity
8
0
100
AcDbLine
10
-5.476818558123572
20
26.231034436527992
30
0
11
-5.476818558123564
21
34.133134967474831
31
0
0
ARC
5
134
100
AcDbEntity
8
0
100
AcDbCircle
10
-7.976818558123564
20
36.723501736872556
30
0
40
3.6000000000000028
210
0
220
0
230
1
100
AcDbArc
50
-46.017036869641331
51
46.017036869641217
0
LINE
5
135
100
AcDbEntity
8
0
100
AcDbLine
10
-5.4768185581235613
20
39.313868506270275
30
0
11
-5.4768185581235507
21
65.842407928200174
31
0
0
ARC
5
136
100
AcDbEntity
8
0
100
AcDbCircle
10
-3.4768185581235516
20
65.842407928200174
30
0
40
2.000000000000004
210
0
220
-0
230
1
100
AcDbArc
50
85.552413411080181
51
180
0
ARC
5
137
100
AcDbEntity
8
0
100
AcDbCircle
10
-5.9229256181782111
20
34.393892303024138
30
0
40
33.543502893245559
210
0
220
-0
230
1
100
AcDbArc
50
62.499726188182493
51
85.55241341108011
0
ARC
5
138
100
AcDbEntity
8
0
100
AcDbCircle
10
8.6423768105756125
20
62.373251479658762
30
0
40
2.0000000000000013
210
0
220
0
230
1
100
AcDbArc
50
-23.62379092560241
51
62.499726188182308
0
ARC
5
139
100
AcDbEntity
8
0
100
AcDbCircle
10
46.023181441876446
20
46.023491863996583
30
0
40
38.79999012712404
210
0
220
0
230
1
100
AcDbArc
50
156.37620907439765
51
193.49332115232093
0
ARC
5
140
100
AcDbEntity
8
0
100
AcDbCircle
10
-1.4297983080450827
20
34.63688952381024
30
0
40
10.000000000000002
210
0
220
0
230
1
100
AcDbArc
50
-71.500181609555867
51
13.493321152321036
0
ARC
5
141
100
AcDbEntity
8
0
100
AcDbCircle
10
-3.9682115121772044
20
42.223486811467446
30
0
40
18.000000000000004
210
0
220
0
230
1
100
AcDbArc
50
271.75994814366089
51
288.49981839044415
0
ARC
5
142
100
AcDbEntity
8
0
100
AcDbCircle
10
-3.4768185581235747
20
26.231034436527992
30
0
40
1.9999999999999973
210
0
220
0
230
1
100
AcDbArc
50
180
51
271.75994814366089
0
LWPOLYLINE
5
143
100
AcDbEntity
8
0
100
AcDbPolyline
90
16
70
1
43
0.0
10
-3.9976338382948828
20
19.223501736872556
10
-11.956003277952263
20
19.22350173687256
42
0.19891236737965787
10
-16.198643965071547
20
17.466142423991844
10
-16.219459245242859
20
17.445327143820531
42
0.19891236737965784
10
-17.976818558123568
20
13.202686456701249
10
-17.976818558123572
20
5.2443170170438691
42
0.19891236737965792
10
-16.219459245242859
20
1.0016763299245834
10
-16.198643965071547
20
0.98086104975327215
42
0.19891236737965792
10
-11.956003277952263
20
-0.7764982631274453
10
-3.9976338382948802
20
-0.77649826312744641
42
0.19891236737965792
10
0.24500684882440282
20
0.98086104975326993
10
0.265822128995718
20
1.001676329924583
42
0.19891236737965792
10
2.0231814418764316
20
5.2443170170438673
10
2.0231814418764307
20
13.20268645670124
42
0.19891236737965792
10
0.26582212899572077
20
17.445327143820531
10
0.24500684882440504
20
17.466142423991837
42
0.19891236737965814
0
CIRCLE
5
144
100
AcDbEntity
8
0
100
AcDbCircle
10
-30.120259140696941
20
64.44627383199466
30
0
40
1.6000000000000014
210
0
220
0
230
1
0
CIRCLE
5
145
100
AcDbEntity
8
0
100
AcDbCircle
10
-7.976818558123564
20
36.723501736872556
30
0
40
1.6000000000000003
210
0
220
0
230
1
0
CIRCLE
5
146
100
AcDbEntity
8
0
100
AcDbCircle
10
14.166622024449831
20
64.446273831994645
30
0
40
1.6000000000000014
210
0
220
0
230
1
0
CIRCLE
5
147
100
AcDbEntity
8
0
100
AcDbCircle
10
46.023181441876432
20
9.2235017368725529
30
0
40
1.6000000000000014
210
0
220
0
230
1
0
CIRCLE
5
148
100
AcDbEntity
8
0
100
AcDbCircle
10
14.166622024449811
20
-45.999270358249547
30
0
40
1.5999999999999992
210
0
220
0
230
1
0
CIRCLE
5
149
100
AcDbEntity
8
0
100
AcDbCircle
10
-7.976818558123572
20
-18.276498263127444
30
0
40
1.6000000000000003
210
0
220
0
230
1
0
CIRCLE
5
150
100
AcDbEntity
8
0
100
AcDbCircle
10
-30.120259140696959
20
-45.999270358249547
30
0
40
1.6000000000000014
210
0
220
0
230
1
0
CIRCLE
5
151
100
AcDbEntity
8
0
100
AcDbCircle
10
-61.976818558123568
20
9.2235017368725707
30
0
40
1.6000000000000014
210
0
220
0
230
1
0
LWPOLYLINE
5
152
100
AcDbEntity
8
0
100
AcDbPolyline
90
14
70
1
43
0.0
10
-31.80946896864825
20
61.267190606101977
42
-0.90570576514617995
10
-29.088573977663181
20
67.895277416274524
42
-0.12768434271300208
10
-7.9768185581235418
20
73.223501736414732
42
-0.12768434271300277
10
13.134936861416177
20
67.895277416274439
42
-0.90570576514616163
10
15.855831852401149
20
61.267190606102119
42
0.54055351766397775
10
44.116802959770645
20
12.277306099133501
42
-1.8031209039301237
10
44.116802959770709
20
6.1696973746115669
42
0.54055351766397708
10
15.855831852401108
20
-42.820187132356857
42
-0.90570576514618695
10
13.134936861416019
20
-49.448273942529426
42
-0.12768434271300175
10
-7.9768185581235702
20
-54.776498262669612
42
-0.12768434271300264
10
-29.088573977663287
20
-49.44827394252934
42
-0.90570576514616508
10
-31.809468968648279
20
-42.820187132356999
42
0.54055351766397752
10
-60.070440076017775
20
6.1696973746116104
42
-1.8031209039301466
10
-60.070440076017775
20
12.277306099133529
42
0.5405535176639783
0
CIRCLE
5
153
100
AcDbEntity
8
0
100
AcDbCircle
10
-30.120259140696941
20
64.44627383199466
30
0
40
1.6000000000000014
210
0
220
0
230
1
0
CIRCLE
5
154
100
AcDbEntity
8
0
100
AcDbCircle
10
14.166622024449831
20
64.446273831994645
30
0
40
1.6000000000000014
210
0
220
0
230
1
0
CIRCLE
5
155
100
AcDbEntity
8
0
100
AcDbCircle
10
-7.976818558123564
20
36.723501736872556
30
0
40
1.6000000000000003
210
0
220
0
230
1
0
CIRCLE
5
156
100
AcDbEntity
8
0
100
AcDbCircle
10
-61.976818558123568
20
9.2235017368725707
30
0
40
1.6000000000000014
210
0
220
0
230
1
0
CIRCLE
5
157
100
AcDbEntity
8
0
100
AcDbCircle
10
46.023181441876432
20
9.2235017368725529
30
0
40
1.6000000000000014
210
0
220
0
230
1
0
CIRCLE
5
158
100
AcDbEntity
8
0
100
AcDbCircle
10
-7.976818558123572
20
-18.276498263127444
30
0
40
1.6000000000000003
210
0
220
0
230
1
0
CIRCLE
5
159
100
AcDbEntity
8
0
100
AcDbCircle
10
14.166622024449811
20
-45.999270358249547
30
0
40
1.5999999999999992
210
0
220
0
230
1
0
CIRCLE
5
160
100
AcDbEntity
8
0
100
AcDbCircle
10
-30.120259140696959
20
-45.999270358249547
30
0
40
1.6000000000000014
210
0
220
0
230
1
0
ARC
5
161
100
AcDbEntity
8
0
100
AcDbCircle
10
-14.523838808202063
20
-16.189886050065109
30
0
40
10
210
0
220
0
230
1
100
AcDbArc
50
108.49981839044385
51
193.49332115232104
0
ARC
5
162
100
AcDbEntity
8
0
100
AcDbCircle
10
-61.976818558123583
20
-27.576488390251484
30
0
40
38.79999012712404
210
0
220
0
230
1
100
AcDbArc
50
-23.62379092560241
51
13.493321152320981
0
ARC
5
163
100
AcDbEntity
8
0
100
AcDbCircle
10
-24.596013926822742
20
-43.926248005913649
30
0
40
2.0000000000000027
210
0
220
0
230
1
100
AcDbArc
50
156.3762090743983
51
242.49972618818305
0
ARC
5
164
100
AcDbEntity
8
0
100
AcDbCircle
10
-10.030711498068925
20
-15.946888829279025
30
0
40
33.543502893245559
210
0
220
0
230
1
100
AcDbArc
50
242.49972618818254
51
265.55241341108012
0
ARC
5
165
100
AcDbEntity
8
0
100
AcDbCircle
10
-12.476818558123579
20
-47.395404454455061
30
0
40
2.0000000000000044
210
0
220
0
230
1
100
AcDbArc
50
-94.447586588919947
51
0
0
LINE
5
166
100
AcDbEntity
8
0
100
AcDbLine
10
-10.476818558123579
20
-20.866865032525158
30
0
11
-10.476818558123584
21
-47.395404454455061
31
0
0
ARC
5
167
100
AcDbEntity
8
0
100
AcDbCircle
10
-7.976818558123572
20
-18.276498263127444
30
0
40
3.5999999999999996
210
0
220
0
230
1
100
AcDbArc
50
133.98296313035883
51
226.01703686964115
0
LINE
5
168
100
AcDbEntity
8
0
100
AcDbLine
10
-10.476818558123579
20
-7.7840309627828752
30
0
11
-10.476818558123577
21
-15.686131493729727
31
0
0
ARC
5
169
100
AcDbEntity
8
0
100
AcDbCircle
10
-12.476818558123579
20
-7.7840309627828752
30
0
40
1.9999999999999996
210
0
220
0
230
1
100
AcDbArc
50
0
51
91.759948143660736
0
ARC
5
170
100
AcDbEntity
8
0
100
AcDbCircle
10
-11.985425604069984
20
-23.776483337722325
30
0
40
18
210
0
220
0
230
1
100
AcDbArc
50
91.759948143660736
51
108.49981839044385
0
LINE
5
171
100
AcDbEntity
8
0
100
AcDbLine
10
-5.4768185581235791
20
-15.686131493729718
30
0
11
-5.4768185581235791
21
-7.7840309627828752
31
0
0
ARC
5
172
100
AcDbEntity
8
0
100
AcDbCircle
10
-3.4768185581235818
20
-7.7840309627828752
30
0
40
2.0000000000000009
210
0
220
-0
230
1
100
AcDbArc
50
88.240051856339434
51
180
0
ARC
5
173
100
AcDbEntity
8
0
100
AcDbCircle
10
-3.968211512177124
20
-23.776483337722333
30
0
40
18.000000000000004
210
0
220
-0
230
1
100
AcDbArc
50
71.50018160955652
51
88.240051856339463
0
ARC
5
174
100
AcDbEntity
8
0
100
AcDbCircle
10
-1.4297983080450916
20
-16.189886050065095
30
0
40
9.9999999999999893
210
0
220
0
230
1
100
AcDbArc
50
-13.493321152320989
51
71.500181609556535
0
ARC
5
175
100
AcDbEntity
8
0
100
AcDbCircle
10
46.023181441876424
20
-27.576488390251484
30
0
40
38.800000000000011
210
0
220
0
230
1
100
AcDbArc
50
166.50667884767898
51
203.62379092560235
0
ARC
5
176
100
AcDbEntity
8
0
100
AcDbCircle
10
8.6423768105755947
20
-43.926248005913649
30
0
40
1.9999999999999885
210
0
220
0
230
1
100
AcDbArc
50
-62.499726188182706
51
23.623790925602496
0
ARC
5
177
100
AcDbEntity
8
0
100
AcDbCircle
10
-5.9229256181782173
20
-15.946888829279025
30
0
40
33.543502893245531
210
0
220
0
230
1
100
AcDbArc
50
274.44758658891993
51
297.50027381181746
0
ARC
5
178
100
AcDbEntity
8
0
100
AcDbCircle
10
-3.4768185581235711
20
-47.395404454455061
30
0
40
2.0000000000000053
210
0
220
0
230
1
100
AcDbArc
50
180
51
274.44758658892079
0
LINE
5
179
100
AcDbEntity
8
0
100
AcDbLine
10
-5.4768185581235764
20
-47.395404454455061
30
0
11
-5.4768185581235773
21
-20.866865032525173
31
0
0
ARC
5
180
100
AcDbEntity
8
0
100
AcDbCircle
10
-7.976818558123572
20
-18.276498263127444
30
0
40
3.5999999999999988
210
0
220
0
230
1
100
AcDbArc
50
-46.01703686964143
51
46.017036869641416
0
LWPOLYLINE
5
181
100
AcDbEntity
8
0
100
AcDbPolyline
90
10
70
1
43
0.0
10
7.0231757805158646
20
13.213846649366623
42
-0.11569651958032355
10
8.892008969995203
20
21.218707321043382
42
-0.55014833657837403
10
15.611894833427872
20
21.927980937294965
42
0.11405249371773996
10
29.268625298089859
20
11.027422821535499
42
-0.62994057502474043
10
29.268625298089866
20
7.4195806522096142
42
0.11405249371773965
10
15.611894833427906
20
-3.4809774635498081
42
-0.55014833657837248
10
8.8920089699952261
20
-2.7717038472982427
42
-0.11569651958032355
10
7.0231757805158734
20
5.2331568243785132
42
0.00025364079132509455
10
7.0231814418764333
20
5.2443170170438682
10
7.0231814418764316
20
13.202686456701242
42
0.00025364079132509455
0
LWPOLYLINE
5
182
100
AcDbEntity
8
0
100
AcDbPolyline
90
16
70
1
43
0.0
10
2.0231814418764316
20
5.2443170170438673
42
-0.1989123673796579
10
0.265822128995718
20
1.001676329924583
10
0.2450068488244056
20
0.98086104975326815
42
-0.1989123673796579
10
-3.9976338382948806
20
-0.77649826312744585
10
-11.956003277952261
20
-0.77649826312744585
42
-0.19891236737965798
10
-16.198643965071547
20
0.98086104975327226
10
-16.219459245242859
20
1.0016763299245834
42
-0.1989123673796579
10
-17.976818558123572
20
5.2443170170438691
10
-17.976818558123572
20
13.202686456701247
42
-0.19891236737965776
10
-16.219459245242859
20
17.445327143820531
10
-16.19864396507155
20
17.46614242399184
42
-0.19891236737965798
10
-11.956003277952263
20
19.22350173687256
10
-3.9976338382948828
20
19.223501736872556
42
-0.19891236737965812
10
0.24500684882440504
20
17.466142423991837
10
0.26582212899571783
20
17.445327143820531
42
-0.19891236737965798
10
2.0231814418764307
20
13.20268645670124
0
LWPOLYLINE
5
183
100
AcDbEntity
8
0
100
AcDbPolyline
90
10
70
1
43
0.0
10
-22.976812896763008
20
5.2331568243785203
42
-0.1156965195803239
10
-24.845646086242365
20
-2.7717038472982591
42
-0.55014833657837237
10
-31.565531949675044
20
-3.4809774635498281
42
0.11405249371773889
10
-45.22226241433691
20
7.4195806522095564
42
-0.62994057502473855
10
-45.222262414336896
20
11.027422821535442
42
0.11405249371773907
10
-31.565531949674988
20
21.927980937294809
42
-0.5501483365783747
10
-24.845646086242294
20
21.218707321043198
42
-0.11569651958032119
10
-22.976812896763015
20
13.213846649366594
42
0.00025364079132509455
10
-22.976818558123572
20
13.202686456701251
10
-22.976818558123568
20
5.2443170170438691
42
0.00025364079132509455
0
ARC
5
184
100
AcDbEntity
8
0
100
AcDbCircle
10
46.023181441876446
20
46.023491863996583
30
0
40
38.79999012712404
210
0
220
0
230
1
100
AcDbArc
50
156.37620907439765
51
193.49332115232093
0
ARC
5
185
100
AcDbEntity
8
0
100
AcDbCircle
10
-1.4297983080450827
20
34.63688952381024
30
0
40
10.000000000000002
210
0
220
0
230
1
100
AcDbArc
50
-71.500181609555867
51
13.493321152321007
0
ARC
5
186
100
AcDbEntity
8
0
100
AcDbCircle
10
-3.9682115121772044
20
42.223486811467446
30
0
40
18.000000000000004
210
0
220
0
230
1
100
AcDbArc
50
271.75994814366089
51
288.49981839044415
0
ARC
5
187
100
AcDbEntity
8
0
100
AcDbCircle
10
-3.4768185581235747
20
26.231034436527992
30
0
40
1.9999999999999973
210
0
220
0
230
1
100
AcDbArc
50
180
51
271.75994814366089
0
LINE
5
188
100
AcDbEntity
8
0
100
AcDbLine
10
-5.476818558123572
20
26.231034436527992
30
0
11
-5.476818558123564
21
34.133134967474831
31
0
0
ARC
5
189
100
AcDbEntity
8
0
100
AcDbCircle
10
-7.976818558123564
20
36.723501736872556
30
0
40
3.6000000000000028
210
0
220
0
230
1
100
AcDbArc
50
-46.017036869641331
51
46.017036869641309
0
LINE
5
190
100
AcDbEntity
8
0
100
AcDbLine
10
-5.4768185581235613
20
39.313868506270282
30
0
11
-5.4768185581235507
21
65.842407928200174
31
0
0
ARC
5
191
100
AcDbEntity
8
0
100
AcDbCircle
10
-3.4768185581235516
20
65.842407928200174
30
0
40
2.000000000000004
210
0
220
-0
230
1
100
AcDbArc
50
85.552413411080181
51
180
0
ARC
5
192
100
AcDbEntity
8
0
100
AcDbCircle
10
-5.9229256181782111
20
34.393892303024138
30
0
40
33.543502893245559
210
0
220
-0
230
1
100
AcDbArc
50
62.499726188182514
51
85.55241341108011
0
ARC
5
193
100
AcDbEntity
8
0
100
AcDbCircle
10
8.6423768105756125
20
62.373251479658762
30
0
40
2.0000000000000013
210
0
220
0
230
1
100
AcDbArc
50
-23.62379092560241
51
62.499726188182358
0
LINE
5
194
100
AcDbEntity
8
0
100
AcDbLine
10
-10.47681855812357
20
34.133134967474831
30
0
11
-10.476818558123572
21
26.231034436527985
31
0
0
ARC
5
195
100
AcDbEntity
8
0
100
AcDbCircle
10
-12.476818558123572
20
26.231034436527985
30
0
40
2.0000000000000009
210
0
220
0
230
1
100
AcDbArc
50
-91.759948143660608
51
0
0
ARC
5
196
100
AcDbEntity
8
0
100
AcDbCircle
10
-11.985425604070016
20
42.223486811467438
30
0
40
18
210
0
220
0
230
1
100
AcDbArc
50
251.50018160955739
51
268.24005185633939
0
ARC
5
197
100
AcDbEntity
8
0
100
AcDbCircle
10
-14.52383880820193
20
34.636889523810162
30
0
40
10.000000000000007
210
0
220
0
230
1
100
AcDbArc
50
166.50667884767904
51
251.50018160955739
0
ARC
5
198
100
AcDbEntity
8
0
100
AcDbCircle
10
-61.976818558123469
20
46.023491863996533
30
0
40
38.800000000000004
210
0
220
0
230
1
100
AcDbArc
50
-13.493321152320989
51
23.62379092560251
0
ARC
5
199
100
AcDbEntity
8
0
100
AcDbCircle
10
-24.596013926822728
20
62.373251479658769
30
0
40
1.9999999999999916
210
0
220
0
230
1
100
AcDbArc
50
117.50027381181754
51
203.62379092560198
0
ARC
5
200
100
AcDbEntity
8
0
100
AcDbCircle
10
-10.030711498068918
20
34.393892303024138
30
0
40
33.543502893245567
210
0
220
0
230
1
100
AcDbArc
50
94.447586588919862
51
117.50027381181748
0
ARC
5
201
100
AcDbEntity
8
0
100
AcDbCircle
10
-12.47681855812356
20
65.842407928200174
30
0
40
2.000000000000004
210
0
220
0
230
1
100
AcDbArc
50
0
51
94.447586588919663
0
LINE
5
202
100
AcDbEntity
8
0
100
AcDbLine
10
-10.476818558123554
20
65.842407928200174
30
0
11
-10.476818558123565
21
39.313868506270282
31
0
0
ARC
5
203
100
AcDbEntity
8
0
100
AcDbCircle
10
-7.976818558123564
20
36.723501736872556
30
0
40
3.6000000000000028
210
0
220
0
230
1
100
AcDbArc
50
133.98296313035871
51
226.01703686964126
0
ENDSEC
0
SECTION
2
OBJECTS
0
DICTIONARY
5
C
100
AcDbDictionary
3
ACAD_GROUP
350
D
3
ACAD_MLINESTYLE
350
17
0
DICTIONARY
5
D
100
AcDbDictionary
0
DICTIONARY
5
1A
330
C
100
AcDbDictionary
0
DICTIONARY
5
17
100
AcDbDictionary
0
ENDSEC
0
EOF
