0
SECTION
2
HEADER
9
$INSUNITS
70
4
9
$ACADVER
1
AC1014
9
$HANDSEED
5
FFFF
0
ENDSEC
0
SECTION
2
TABLES
0
TABLE
2
VPORT
5
8
100
AcDbSymbolTable
0
ENDTAB
0
TABLE
2
LTYPE
5
5
100
AcDbSymbolTable
0
LTYPE
5
14
100
AcDbSymbolTableRecord
100
AcDbLinetypeTableRecord
2
BYBLOCK
70
0
0
LTYPE
5
15
100
AcDbSymbolTableRecord
100
AcDbLinetypeTableRecord
2
BYLAYER
70
0
0
ENDTAB
0
TABLE
2
LAYER
5
2
100
AcDbSymbolTable
70
2
0
LAYER
5
50
100
AcDbSymbolTableRecord
100
AcDbLayerTableRecord
2
0
70
0
6
CONTINUOUS
0
ENDTAB
0
TABLE
2
STYLE
5
3
100
AcDbSymbolTable
70
1
0
STYLE
5
11
100
AcDbSymbolTableRecord
100
AcDbTextStyleTableRecord
2
STANDARD
70
0
0
ENDTAB
0
TABLE
2
VIEW
5
6
100
AcDbSymbolTable
70
0
0
ENDTAB
0
TABLE
2
UCS
5
7
100
AcDbSymbolTable
70
0
0
ENDTAB
0
TABLE
2
APPID
5
9
100
AcDbSymbolTable
70
2
0
APPID
5
12
100
AcDbSymbolTableRecord
100
AcDbRegAppTableRecord
2
ACAD
70
0
0
ENDTAB
0
TABLE
2
DIMSTYLE
5
A
100
AcDbSymbolTable
70
1
0
ENDTAB
0
TABLE
2
BLOCK_RECORD
5
1
100
AcDbSymbolTable
70
1
0
BLOCK_RECORD
5
1F
100
AcDbSymbolTableRecord
100
AcDbBlockTableRecord
2
*MODEL_SPACE
0
BLOCK_RECORD
5
1B
100
AcDbSymbolTableRecord
100
AcDbBlockTableRecord
2
*PAPER_SPACE
0
ENDTAB
0
ENDSEC
0
SECTION
2
BLOCKS
0
BLOCK
5
20
100
AcDbEntity
100
AcDbBlockBegin
2
*MODEL_SPACE
0
ENDBLK
5
21
100
AcDbEntity
100
AcDbBlockEnd
0
BLOCK
5
1C
100
AcDbEntity
100
AcDbBlockBegin
2
*PAPER_SPACE
0
ENDBLK
5
1D
100
AcDbEntity
100
AcDbBlockEnd
0
ENDSEC
0
SECTION
2
ENTITIES
0
LWPOLYLINE
5
100
100
AcDbEntity
8
0
100
AcDbPolyline
90
6
70
1
43
0.0
10
-19.455063930745222
20
-48.470852810075442
42
-0.48609164525910237
10
-72.613968958655761
20
-48.4419946585205
42
-0.4563634805185548
10
-72.040549119373594
20
-45.475298148997723
10
-52.716218909518787
20
-34.318390900428845
42
0.41099411560205917
10
-39.35533835699129
20
-34.343309549063783
10
-20.027142349183041
20
-45.502448717121631
42
-0.45669148471130988
0
LWPOLYLINE
5
101
100
AcDbEntity
8
0
100
AcDbPolyline
90
6
70
1
43
0.0
10
35.408701046992398
20
66.917856283820569
42
-0.48609164525910031
10
88.567606074902727
20
66.88899813226557
42
-0.45636348051855957
10
87.99418623562056
20
63.922301622742772
10
68.669856025765924
20
52.765394374173965
42
0.41099411560205584
10
55.308975473238334
20
52.790313022808995
10
35.98077946543021
20
63.949452190866758
42
-0.45669148471131288
0
LWPOLYLINE
5
102
100
AcDbEntity
8
0
100
AcDbPolyline
90
6
70
1
43
0.0
10
-72.613968958655803
20
66.888998132265613
42
-0.48609164525910276
10
-19.455063930745176
20
66.917856283820512
42
-0.45669148471131321
10
-20.027142349182988
20
63.949452190866694
10
-39.355338356991325
20
52.790313022808874
42
0.41099411560205873
10
-52.716218909518787
20
52.765394374173937
10
-72.040549119373637
20
63.922301622742843
42
-0.45636348051855824
0
LWPOLYLINE
5
103
100
AcDbEntity
8
0
100
AcDbPolyline
90
6
70
1
43
0.0
10
33.474263434091313
20
-41.176083730647015
10
52.796541575720809
20
-30.020361244220382
42
-0.41242250993112906
10
59.476818558123568
20
-18.411337000339802
10
59.476818558123568
20
3.9034952832701162
42
0.45643890107867924
10
57.19379960233077
20
5.8833690849711306
42
0.48653132555514811
10
30.618756246441741
20
-40.190419603412629
42
0.45618639581023868
0
LINE
5
104
100
AcDbEntity
8
0
100
AcDbLine
10
10.476818558123577
20
-15.686131493729727
30
0
11
10.476818558123579
21
-7.7840309627828752
31
0
0
ARC
5
105
100
AcDbEntity
8
0
100
AcDbCircle
10
12.476818558123579
20
-7.7840309627828752
30
0
40
1.9999999999999993
210
0
220
-0
230
1
100
AcDbArc
50
88.240051856339264
51
180
0
ARC
5
106
100
AcDbEntity
8
0
100
AcDbCircle
10
11.985425604069984
20
-23.776483337722325
30
0
40
18.000000000000004
210
0
220
-0
230
1
100
AcDbArc
50
71.500181609556151
51
88.240051856339264
0
ARC
5
107
100
AcDbEntity
8
0
100
AcDbCircle
10
14.523838808202063
20
-16.189886050065109
30
0
40
10
210
0
220
0
230
1
100
AcDbArc
50
-13.493321152321043
51
71.500181609556137
0
ARC
5
108
100
AcDbEntity
8
0
100
AcDbCircle
10
61.976818558123583
20
-27.576488390251484
30
0
40
38.799999999999997
210
0
220
0
230
1
100
AcDbArc
50
166.50667884767904
51
203.62379092560235
0
ARC
5
109
100
AcDbEntity
8
0
100
AcDbCircle
10
24.596013926822742
20
-43.926248005913649
30
0
40
2.0000000000000013
210
0
220
0
230
1
100
AcDbArc
50
-62.499726188183054
51
23.623790925601796
0
ARC
5
110
100
AcDbEntity
8
0
100
AcDbCircle
10
10.030711498068925
20
-15.946888829279025
30
0
40
33.543502893245559
210
0
220
0
230
1
100
AcDbArc
50
274.44758658891988
51
297.50027381181746
0
ARC
5
111
100
AcDbEntity
8
0
100
AcDbCircle
10
12.476818558123579
20
-47.395404454455061
30
0
40
2.000000000000004
210
0
220
0
230
1
100
AcDbArc
50
180
51
274.44758658892005
0
LINE
5
112
100
AcDbEntity
8
0
100
AcDbLine
10
10.476818558123576
20
-47.395404454455061
30
0
11
10.476818558123583
21
-20.866865032525158
31
0
0
ARC
5
113
100
AcDbEntity
8
0
100
AcDbCircle
10
7.976818558123572
20
-18.276498263127444
30
0
40
3.5999999999999996
210
0
220
0
230
1
100
AcDbArc
50
-46.017036869641075
51
46.017036869641174
0
LINE
5
114
100
AcDbEntity
8
0
100
AcDbLine
10
5.4768185581235773
20
-20.866865032525173
30
0
11
5.4768185581235764
21
-47.395404454455061
31
0
0
ARC
5
115
100
AcDbEntity
8
0
100
AcDbCircle
10
3.4768185581235711
20
-47.395404454455061
30
0
40
2.0000000000000067
210
0
220
0
230
1
100
AcDbArc
50
-94.447586588920814
51
0
0
ARC
5
116
100
AcDbEntity
8
0
100
AcDbCircle
10
5.9229256181782173
20
-15.946888829279025
30
0
40
33.543502893245531
210
0
220
0
230
1
100
AcDbArc
50
242.49972618818254
51
265.55241341108007
0
ARC
5
117
100
AcDbEntity
8
0
100
AcDbCircle
10
-8.6423768105755947
20
-43.926248005913649
30
0
40
1.9999999999999896
210
0
220
0
230
1
100
AcDbArc
50
156.37620907439748
51
242.49972618818327
0
ARC
5
118
100
AcDbEntity
8
0
100
AcDbCircle
10
-46.023181441876424
20
-27.576488390251484
30
0
40
38.799990127124047
210
0
220
0
230
1
100
AcDbArc
50
-23.623790925602357
51
13.493321152321007
0
ARC
5
119
100
AcDbEntity
8
0
100
AcDbCircle
10
1.4297983080450916
20
-16.189886050065095
30
0
40
9.9999999999999893
210
0
220
0
230
1
100
AcDbArc
50
108.49981839044347
51
193.49332115232099
0
ARC
5
120
100
AcDbEntity
8
0
100
AcDbCircle
10
3.968211512177124
20
-23.776483337722333
30
0
40
18.000000000000004
210
0
220
0
230
1
100
AcDbArc
50
91.759948143660509
51
108.49981839044348
0
ARC
5
121
100
AcDbEntity
8
0
100
AcDbCircle
10
3.4768185581235818
20
-7.7840309627828752
30
0
40
2.0000000000000013
210
0
220
0
230
1
100
AcDbArc
50
0
51
91.759948143660253
0
LINE
5
122
100
AcDbEntity
8
0
100
AcDbLine
10
5.4768185581235826
20
-7.7840309627828752
30
0
11
5.4768185581235791
21
-15.686131493729718
31
0
0
ARC
5
123
100
AcDbEntity
8
0
100
AcDbCircle
10
7.976818558123572
20
-18.276498263127444
30
0
40
3.599999999999997
210
0
220
0
230
1
100
AcDbArc
50
133.9829631303586
51
226.01703686964143
0
LWPOLYLINE
5
124
100
AcDbEntity
8
0
100
AcDbPolyline
90
6
70
1
43
0.0
10
-43.523181441876432
20
3.9034952832701064
10
-43.523181441876432
20
-18.411337000339806
42
-0.41242250993112956
10
-36.842904459473672
20
-30.020361244220378
10
-17.520626317844169
20
-41.176083730647022
42
0.45618639581024067
10
-14.665119130194594
20
-40.190419603412629
42
0.48653132555514822
10
-41.240162486083634
20
5.883369084971104
42
0.45643890107867935
0
LWPOLYLINE
5
125
100
AcDbEntity
8
0
100
AcDbPolyline
90
10
70
1
43
0.0
10
-7.0231757805158725
20
5.2331568243785123
42
-0.00025364079132506832
10
-7.0231814418764351
20
5.2443170170428886
10
-7.0231814418764236
20
13.202686456702441
42
-0.00025364079132506832
10
-7.0231757805158672
20
13.213846649366818
42
0.11569651958032087
10
-8.8920089699951959
20
21.218707321043389
42
0.55014833657837403
10
-15.611894833427868
20
21.927980937294983
42
-0.1140524937177399
10
-29.268625298089855
20
11.027422821535502
42
0.6299405750247411
10
-29.268625298089859
20
7.4195806522096186
42
-0.11405249371773958
10
-15.611894833427904
20
-3.4809774635498099
42
0.55014833657837237
10
-8.8920089699952172
20
-2.7717038472982369
42
0.11569651958032352
0
LWPOLYLINE
5
126
100
AcDbEntity
8
0
100
AcDbPolyline
90
16
70
1
43
0.0
10
-0.265822128995718
20
1.001676329924583
10
-0.24500684882440615
20
0.98086104975326827
42
0.19891236737965792
10
3.9976338382948806
20
-0.77649826312744641
10
11.956003277952263
20
-0.77649826312744641
42
0.19891236737965792
10
16.198643965071547
20
0.98086104975327215
10
16.219459245242859
20
1.001676329924583
42
0.19891236737965792
10
17.976818558123572
20
5.2443170170438691
10
17.976818558123572
20
13.202686456701247
42
0.19891236737965784
10
16.219459245242859
20
17.445327143820531
10
16.198643965071547
20
17.466142423991844
42
0.19891236737965787
10
11.956003277952263
20
19.22350173687256
10
3.9976338382948824
20
19.223501736872556
42
0.19891236737965814
10
-0.24500684882440504
20
17.466142423991837
10
-0.26582212899571966
20
17.445327143820528
42
0.19891236737965792
10
-2.0231814418764307
20
13.20268645670124
10
-2.0231814418764316
20
5.2443170170438673
42
0.19891236737965792
0
LWPOLYLINE
5
127
100
AcDbEntity
8
0
100
AcDbPolyline
90
10
70
1
43
0.0
10
45.22226241433691
20
11.027422821535422
42
-0.11405249371773912
10
31.565531949674991
20
21.927980937294798
42
0.55014833657837536
10
24.845646086242294
20
21.218707321043198
42
0.11569651958032125
10
22.976812896763015
20
13.213846649369001
42
-0.00025364079137980231
10
22.976818558123576
20
13.202686456702217
10
22.976818558123568
20
5.2443170170428957
42
-0.00025364079132506832
10
22.976812896763008
20
5.2331568243785203
42
0.11569651958032391
10
24.845646086242365
20
-2.7717038472982591
42
0.55014833657837237
10
31.565531949675041
20
-3.4809774635498334
42
-0.1140524937177389
10
45.22226241433691
20
7.4195806522095564
42
0.62994057502473877
0
LWPOLYLINE
5
128
100
AcDbEntity
8
0
100
AcDbPolyline
90
6
70
1
43
0.0
10
-17.52062631784419
20
59.623087204392121
10
-36.842904459473679
20
48.467364717965495
42
-0.41242250993112967
10
-43.523181441876446
20
36.858340474084905
10
-43.523181441876432
20
14.543508190474988
42
0.45643890107868201
10
-41.240162486083619
20
12.563634388773966
42
0.48653132555514794
10
-14.665119130194601
20
58.637423077157734
42
0.45618639581024167
0
LINE
5
129
100
AcDbEntity
8
0
100
AcDbLine
10
5.476818558123564
20
34.133134967474831
30
0
11
5.476818558123572
21
26.231034436527992
31
0
0
ARC
5
130
100
AcDbEntity
8
0
100
AcDbCircle
10
3.4768185581235747
20
26.231034436527992
30
0
40
1.9999999999999969
210
0
220
0
230
1
100
AcDbArc
50
-91.75994814366085
51
0
0
ARC
5
131
100
AcDbEntity
8
0
100
AcDbCircle
10
3.9682115121772044
20
42.223486811467446
30
0
40
18.000000000000004
210
0
220
0
230
1
100
AcDbArc
50
251.5001816095558
51
268.24005185633911
0
ARC
5
132
100
AcDbEntity
8
0
100
AcDbCircle
10
1.4297983080450827
20
34.63688952381024
30
0
40
10.000000000000002
210
0
220
0
230
1
100
AcDbArc
50
166.50667884767898
51
251.5001816095558
0
ARC
5
133
100
AcDbEntity
8
0
100
AcDbCircle
10
-46.023181441876446
20
46.023491863996583
30
0
40
38.799999999999997
210
0
220
0
230
1
100
AcDbArc
50
-13.493321152320938
51
23.623790925602364
0
ARC
5
134
100
AcDbEntity
8
0
100
AcDbCircle
10
-8.6423768105756125
20
62.373251479658762
30
0
40
2.0000000000000031
210
0
220
0
230
1
100
AcDbArc
50
117.50027381181766
51
203.62379092560241
0
ARC
5
135
100
AcDbEntity
8
0
100
AcDbCircle
10
5.9229256181782111
20
34.393892303024138
30
0
40
33.543502893245559
210
0
220
0
230
1
100
AcDbArc
50
94.44758658891989
51
117.50027381181751
0
ARC
5
136
100
AcDbEntity
8
0
100
AcDbCircle
10
3.4768185581235516
20
65.842407928200174
30
0
40
2.0000000000000036
210
0
220
0
230
1
100
AcDbArc
50
0
51
94.447586588919805
0
LINE
5
137
100
AcDbEntity
8
0
100
AcDbLine
10
5.4768185581235551
20
65.842407928200174
30
0
11
5.4768185581235613
21
39.313868506270282
31
0
0
ARC
5
138
100
AcDbEntity
8
0
100
AcDbCircle
10
7.976818558123564
20
36.723501736872556
30
0
40
3.6000000000000041
210
0
220
0
230
1
100
AcDbArc
50
133.98296313035871
51
226.01703686964132
0
LINE
5
139
100
AcDbEntity
8
0
100
AcDbLine
10
10.476818558123565
20
39.313868506270282
30
0
11
10.476818558123554
21
65.842407928200174
31
0
0
ARC
5
140
100
AcDbEntity
8
0
100
AcDbCircle
10
12.47681855812356
20
65.842407928200174
30
0
40
2.0000000000000036
210
0
220
-0
230
1
100
AcDbArc
50
85.552413411080309
51
180
0
ARC
5
141
100
AcDbEntity
8
0
100
AcDbCircle
10
10.030711498068918
20
34.393892303024138
30
0
40
33.543502893245581
210
0
220
-0
230
1
100
AcDbArc
50
62.499726188182514
51
85.552413411080138
0
ARC
5
142
100
AcDbEntity
8
0
100
AcDbCircle
10
24.596013926822728
20
62.373251479658769
30
0
40
1.9999999999999947
210
0
220
0
230
1
100
AcDbArc
50
-23.623790925601849
51
62.499726188182052
0
ARC
5
143
100
AcDbEntity
8
0
100
AcDbCircle
10
61.976818558123469
20
46.023491863996533
30
0
40
38.799990127123991
210
0
220
0
230
1
100
AcDbArc
50
156.37620907439748
51
193.49332115232096
0
ARC
5
144
100
AcDbEntity
8
0
100
AcDbCircle
10
14.52383880820193
20
34.636889523810162
30
0
40
10.000000000000002
210
0
220
0
230
1
100
AcDbArc
50
-71.500181609557387
51
13.493321152320956
0
ARC
5
145
100
AcDbEntity
8
0
100
AcDbCircle
10
11.985425604070016
20
42.223486811467438
30
0
40
17.999999999999996
210
0
220
0
230
1
100
AcDbArc
50
271.75994814366055
51
288.49981839044261
0
ARC
5
146
100
AcDbEntity
8
0
100
AcDbCircle
10
12.476818558123572
20
26.231034436527985
30
0
40
2.0000000000000018
210
0
220
0
230
1
100
AcDbArc
50
180
51
271.75994814366032
0
LINE
5
147
100
AcDbEntity
8
0
100
AcDbLine
10
10.47681855812357
20
26.231034436527985
30
0
11
10.47681855812357
21
34.133134967474831
31
0
0
ARC
5
148
100
AcDbEntity
8
0
100
AcDbCircle
10
7.976818558123564
20
36.723501736872556
30
0
40
3.6000000000000036
210
0
220
0
230
1
100
AcDbArc
50
-46.017036869641281
51
46.017036869641331
0
LWPOLYLINE
5
149
100
AcDbEntity
8
0
100
AcDbPolyline
90
6
70
1
43
0.0
10
59.476818558123568
20
14.543508190475016
10
59.476818558123554
20
36.858340474084898
42
-0.412422509931135
10
52.796541575720809
20
48.467364717965523
10
33.474263434091306
20
59.623087204392135
42
0.45618639581023751
10
30.61875624644172
20
58.637423077157763
42
0.48653132555515005
10
57.19379960233077
20
12.56363438877402
42
0.45643890107867935
0
LWPOLYLINE
5
150
100
AcDbEntity
8
0
100
AcDbPolyline
90
6
70
1
43
0.0
10
55.308975473238455
20
-34.343309549063761
10
35.980779465430118
20
-45.502448717121588
42
0.45669148471130966
10
35.408701046992292
20
-48.470852810075385
42
0.48609164525910326
10
88.567606074902955
20
-48.441994658520514
42
0.4563634805185573
10
87.994186235620774
20
-45.475298148997744
10
68.669856025765938
20
-34.318390900428824
42
-0.41099411560205951
0
LWPOLYLINE
5
151
100
AcDbEntity
8
0
100
AcDbPolyline
90
30
70
1
43
0.0
10
7.9768185581235613
20
-54.776498262669612
42
-0.12155925217379407
10
-12.212247255418625
20
-49.93941948752196
42
0.36921913916989785
10
-14.743015321407302
20
-50.532777451767018
42
-0.51612536579979118
10
-77.988650264920381
20
-49.568505190058787
42
-1.1358312283046696
10
-76.903513541730902
20
-42.509429275409055
10
-55.212505458994357
20
-29.98611991984675
42
-0.41133239149084627
10
-48.523181441876432
20
-18.411337000339802
10
-48.523181441876432
20
6.633134967474831
42
-0.42465029006519922
10
-48.523181441876446
20
11.813868506270264
10
-48.523181441876432
20
36.858340474084905
42
-0.41133239149084505
10
-55.212505458994386
20
48.433123393591799
10
-76.903513541730945
20
60.956432749154132
42
-1.1358331688345091
10
-77.98863806704199
20
68.015508974975333
42
-0.51612529524222228
10
-14.743024154640707
20
68.979776274822214
42
0.36921919099420003
10
-12.212255741951243
20
68.386418574449664
42
-0.121559308111498
10
7.9768185581235489
20
73.223501736414718
42
-0.12155925217379407
10
28.16588437166574
20
68.386422961267101
42
0.36921913916989629
10
30.696652437654407
20
68.979780925512117
42
-0.51612536579978952
10
93.942287381167347
20
68.015508663803928
42
-1.1358312283046985
10
92.857150657978039
20
60.956432749154182
10
71.166142575241338
20
48.433123393591835
42
-0.41133239149084461
10
64.476818558123568
20
36.858340474084919
10
64.476818558123568
20
11.8138685062703
42
-0.42465029006520022
10
64.476818558123583
20
6.6331349674748523
10
64.476818558123583
20
-18.411337000339813
42
-0.41133239149084594
10
71.166142575241508
20
-29.986119919846736
10
92.857150657978053
20
-42.50942927540904
42
-1.1358331688345102
10
93.942275183289155
20
-49.568505501230256
42
-0.51612529524222217
10
30.696661270887823
20
-50.53277280107713
42
0.36921919099420153
10
28.165892858198394
20
-49.939415100704565
42
-0.12155930811149823
0
CIRCLE
5
152
100
AcDbEntity
8
0
100
AcDbCircle
10
-93.85047408539549
20
64.41667964331414
30
0
40
1.6000000000000014
210
0
220
0
230
-1
0
CIRCLE
5
153
100
AcDbEntity
8
0
100
AcDbCircle
10
-66.219459245242859
20
50.266132551115902
30
0
40
1.1000000000000032
210
0
220
0
230
-1
0
CIRCLE
5
154
100
AcDbEntity
8
0
100
AcDbCircle
10
-61.976818558123469
20
46.023491863996533
30
0
40
3.100000000000005
210
0
220
0
230
-1
0
CIRCLE
5
155
100
AcDbEntity
8
0
100
AcDbCircle
10
-57.734177871004292
20
50.266132551115902
30
0
40
1.1000000000000032
210
0
220
0
230
-1
0
CIRCLE
5
156
100
AcDbEntity
8
0
100
AcDbCircle
10
-57.734177871004285
20
41.780851176877327
30
0
40
1.1000000000000032
210
0
220
0
230
-1
0
CIRCLE
5
157
100
AcDbEntity
8
0
100
AcDbCircle
10
-66.219459245242859
20
41.780851176877334
30
0
40
1.1000000000000032
210
0
220
0
230
-1
0
CIRCLE
5
158
100
AcDbEntity
8
0
100
AcDbCircle
10
-30.120259140696941
20
64.44627383199466
30
0
40
1.6000000000000014
210
0
220
0
230
-1
0
CIRCLE
5
159
100
AcDbEntity
8
0
100
AcDbCircle
10
-7.976818558123564
20
36.723501736872556
30
0
40
1.6000000000000003
210
0
220
0
230
-1
0
CIRCLE
5
160
100
AcDbEntity
8
0
100
AcDbCircle
10
14.166622024449831
20
64.446273831994645
30
0
40
1.6000000000000014
210
0
220
0
230
-1
0
CIRCLE
5
161
100
AcDbEntity
8
0
100
AcDbCircle
10
41.780540754757169
20
50.266132551115859
30
0
40
1.1000000000000032
210
0
220
0
230
-1
0
CIRCLE
5
162
100
AcDbEntity
8
0
100
AcDbCircle
10
46.023181441876446
20
46.023491863996583
30
0
40
3.0999999999999961
210
0
220
0
230
-1
0
CIRCLE
5
163
100
AcDbEntity
8
0
100
AcDbCircle
10
41.780540754757155
20
41.780851176877299
30
0
40
1.1000000000000032
210
0
220
0
230
-1
0
CIRCLE
5
164
100
AcDbEntity
8
0
100
AcDbCircle
10
50.26582212899573
20
41.780851176877292
30
0
40
1.1000000000000032
210
0
220
0
230
-1
0
CIRCLE
5
165
100
AcDbEntity
8
0
100
AcDbCircle
10
50.26582212899573
20
50.266132551115859
30
0
40
1.1000000000000032
210
0
220
0
230
-1
0
CIRCLE
5
166
100
AcDbEntity
8
0
100
AcDbCircle
10
77.896836969148367
20
64.416679643314083
30
0
40
1.6000000000000014
210
0
220
0
230
-1
0
CIRCLE
5
167
100
AcDbEntity
8
0
100
AcDbCircle
10
7.2731814418764262
20
24.473501736872564
30
0
40
1.6000000000000014
210
0
220
0
230
-1
0
CIRCLE
5
168
100
AcDbEntity
8
0
100
AcDbCircle
10
2.0231814418764311
20
19.223501736872553
30
0
40
1.1000000000000012
210
0
220
0
230
-1
0
CIRCLE
5
169
100
AcDbEntity
8
0
100
AcDbCircle
10
-17.976818558123572
20
19.223501736872556
30
0
40
1.100000000000001
210
0
220
0
230
-1
0
CIRCLE
5
170
100
AcDbEntity
8
0
100
AcDbCircle
10
-23.226818558123576
20
24.473501736872553
30
0
40
1.6000000000000014
210
0
220
0
230
-1
0
CIRCLE
5
171
100
AcDbEntity
8
0
100
AcDbCircle
10
-61.976818558123568
20
9.2235017368725707
30
0
40
1.6000000000000014
210
0
220
0
230
-1
0
CIRCLE
5
172
100
AcDbEntity
8
0
100
AcDbCircle
10
-17.976818558123572
20
-0.77649826312744041
30
0
40
1.100000000000001
210
0
220
0
230
-1
0
CIRCLE
5
173
100
AcDbEntity
8
0
100
AcDbCircle
10
-23.226818558123568
20
-6.0264982631274489
30
0
40
1.6000000000000014
210
0
220
0
230
-1
0
CIRCLE
5
174
100
AcDbEntity
8
0
100
AcDbCircle
10
2.0231814418764311
20
-0.77649826312744308
30
0
40
1.1000000000000005
210
0
220
0
230
-1
0
CIRCLE
5
175
100
AcDbEntity
8
0
100
AcDbCircle
10
7.2731814418764351
20
-6.02649826312744
30
0
40
1.6000000000000003
210
0
220
0
230
-1
0
CIRCLE
5
176
100
AcDbEntity
8
0
100
AcDbCircle
10
-7.976818558123572
20
-18.276498263127444
30
0
40
1.6000000000000003
210
0
220
0
230
-1
0
CIRCLE
5
177
100
AcDbEntity
8
0
100
AcDbCircle
10
-57.734177871004306
20
-31.819129077370761
30
0
40
1.1000000000000032
210
0
220
0
230
-1
0
CIRCLE
5
178
100
AcDbEntity
8
0
100
AcDbCircle
10
-57.734177871004292
20
-23.3338477031322
30
0
40
1.1000000000000032
210
0
220
0
230
-1
0
CIRCLE
5
179
100
AcDbEntity
8
0
100
AcDbCircle
10
-61.976818558123583
20
-27.576488390251484
30
0
40
3.0999999999999961
210
0
220
0
230
-1
0
CIRCLE
5
180
100
AcDbEntity
8
0
100
AcDbCircle
10
-66.219459245242859
20
-23.3338477031322
30
0
40
1.1000000000000032
210
0
220
0
230
-1
0
CIRCLE
5
181
100
AcDbEntity
8
0
100
AcDbCircle
10
-66.219459245242859
20
-31.819129077370761
30
0
40
1.1000000000000032
210
0
220
0
230
-1
0
CIRCLE
5
182
100
AcDbEntity
8
0
100
AcDbCircle
10
-93.850474085395504
20
-45.969676169568991
30
0
40
1.6000000000000014
210
0
220
0
230
-1
0
CIRCLE
5
183
100
AcDbEntity
8
0
100
AcDbCircle
10
-30.120259140696959
20
-45.999270358249547
30
0
40
1.6000000000000014
210
0
220
0
230
-1
0
CIRCLE
5
184
100
AcDbEntity
8
0
100
AcDbCircle
10
14.166622024449811
20
-45.999270358249547
30
0
40
1.5999999999999992
210
0
220
0
230
-1
0
CIRCLE
5
185
100
AcDbEntity
8
0
100
AcDbCircle
10
77.896836969148353
20
-45.969676169569013
30
0
40
1.6000000000000014
210
0
220
0
230
-1
0
CIRCLE
5
186
100
AcDbEntity
8
0
100
AcDbCircle
10
46.023181441876424
20
-27.576488390251484
30
0
40
3.100000000000005
210
0
220
0
230
-1
0
CIRCLE
5
187
100
AcDbEntity
8
0
100
AcDbCircle
10
50.265822128995723
20
-23.333847703132207
30
0
40
1.1000000000000032
210
0
220
0
230
-1
0
CIRCLE
5
188
100
AcDbEntity
8
0
100
AcDbCircle
10
50.265822128995723
20
-31.819129077370771
30
0
40
1.1000000000000032
210
0
220
0
230
-1
0
CIRCLE
5
189
100
AcDbEntity
8
0
100
AcDbCircle
10
41.780540754757155
20
-31.819129077370775
30
0
40
1.1000000000000032
210
0
220
0
230
-1
0
CIRCLE
5
190
100
AcDbEntity
8
0
100
AcDbCircle
10
41.780540754757148
20
-23.333847703132207
30
0
40
1.1000000000000032
210
0
220
0
230
-1
0
CIRCLE
5
191
100
AcDbEntity
8
0
100
AcDbCircle
10
46.023181441876432
20
9.2235017368725529
30
0
40
1.6000000000000014
210
0
220
0
230
-1
0
LWPOLYLINE
5
192
100
AcDbEntity
8
0
100
AcDbPolyline
90
30
70
1
43
0.0
10
-12.212255741951259
20
68.386418574449664
42
-0.36921919099419975
10
-14.743024154640709
20
68.979776274822214
42
0.51612529524222228
10
-77.988638067042004
20
68.015508974975347
42
1.1358331688345091
10
-76.903513541730945
20
60.956432749154132
10
-55.212505458994386
20
48.433123393591799
42
0.41133239149084505
10
-48.523181441876432
20
36.858340474084912
10
-48.523181441876446
20
11.813868506270264
42
0.42465029006519922
10
-48.523181441876432
20
6.6331349674748319
10
-48.523181441876432
20
-18.411337000339799
42
0.41133239149084627
10
-55.212505458994357
20
-29.98611991984675
10
-76.903513541730902
20
-42.509429275409055
42
1.1358312283046701
10
-77.988650264920381
20
-49.568505190058794
42
0.51612536579979107
10
-14.743015321407322
20
-50.532777451767018
42
-0.36921913916989874
10
-12.212247255418633
20
-49.939419487521981
42
0.12155925217379394
10
7.9768185581235613
20
-54.77649826266962
42
0.12155930811149805
10
28.165892858198369
20
-49.939415100704565
42
-0.36921919099420153
10
30.69666127088783
20
-50.53277280107713
42
0.51612529524222217
10
93.942275183289155
20
-49.568505501230256
42
1.1358331688345102
10
92.857150657978053
20
-42.50942927540904
10
71.166142575241508
20
-29.986119919846736
42
0.41133239149084594
10
64.476818558123583
20
-18.411337000339813
10
64.476818558123583
20
6.6331349674748497
42
0.42465029006520022
10
64.476818558123568
20
11.8138685062703
10
64.476818558123568
20
36.858340474084919
42
0.41133239149084461
10
71.166142575241338
20
48.433123393591835
10
92.857150657978039
20
60.956432749154182
42
1.1358312283046985
10
93.942287381167347
20
68.015508663803928
42
0.51612536579978929
10
30.696652437654425
20
68.979780925512131
42
-0.36921913916989679
10
28.16588437166574
20
68.386422961267101
42
0.12155925217379407
10
7.9768185581235462
20
73.223501736414732
42
0.12155930811149805
0
CIRCLE
5
193
100
AcDbEntity
8
0
100
AcDbCircle
10
77.896836969148367
20
64.416679643314083
30
0
40
1.6000000000000014
210
0
220
0
230
-1
0
CIRCLE
5
194
100
AcDbEntity
8
0
100
AcDbCircle
10
14.166622024449831
20
64.446273831994645
30
0
40
1.6000000000000014
210
0
220
0
230
-1
0
CIRCLE
5
195
100
AcDbEntity
8
0
100
AcDbCircle
10
50.26582212899573
20
50.266132551115859
30
0
40
1.1000000000000032
210
0
220
0
230
-1
0
CIRCLE
5
196
100
AcDbEntity
8
0
100
AcDbCircle
10
41.780540754757169
20
50.266132551115859
30
0
40
1.1000000000000032
210
0
220
0
230
-1
0
CIRCLE
5
197
100
AcDbEntity
8
0
100
AcDbCircle
10
46.023181441876446
20
46.023491863996583
30
0
40
3.0999999999999961
210
0
220
0
230
-1
0
CIRCLE
5
198
100
AcDbEntity
8
0
100
AcDbCircle
10
50.26582212899573
20
41.780851176877292
30
0
40
1.1000000000000032
210
0
220
0
230
-1
0
CIRCLE
5
199
100
AcDbEntity
8
0
100
AcDbCircle
10
41.780540754757155
20
41.780851176877299
30
0
40
1.1000000000000032
210
0
220
0
230
-1
0
CIRCLE
5
200
100
AcDbEntity
8
0
100
AcDbCircle
10
46.023181441876432
20
9.2235017368725529
30
0
40
1.6000000000000014
210
0
220
0
230
-1
0
CIRCLE
5
201
100
AcDbEntity
8
0
100
AcDbCircle
10
-7.976818558123564
20
36.723501736872556
30
0
40
1.6000000000000003
210
0
220
0
230
-1
0
CIRCLE
5
202
100
AcDbEntity
8
0
100
AcDbCircle
10
7.2731814418764262
20
24.473501736872564
30
0
40
1.6000000000000014
210
0
220
0
230
-1
0
CIRCLE
5
203
100
AcDbEntity
8
0
100
AcDbCircle
10
2.0231814418764311
20
19.223501736872553
30
0
40
1.1000000000000012
210
0
220
0
230
-1
0
CIRCLE
5
204
100
AcDbEntity
8
0
100
AcDbCircle
10
-17.976818558123572
20
19.223501736872556
30
0
40
1.100000000000001
210
0
220
0
230
-1
0
CIRCLE
5
205
100
AcDbEntity
8
0
100
AcDbCircle
10
-23.226818558123576
20
24.473501736872553
30
0
40
1.6000000000000014
210
0
220
0
230
-1
0
CIRCLE
5
206
100
AcDbEntity
8
0
100
AcDbCircle
10
-30.120259140696941
20
64.44627383199466
30
0
40
1.6000000000000014
210
0
220
0
230
-1
0
CIRCLE
5
207
100
AcDbEntity
8
0
100
AcDbCircle
10
-57.734177871004292
20
50.266132551115902
30
0
40
1.1000000000000032
210
0
220
0
230
-1
0
CIRCLE
5
208
100
AcDbEntity
8
0
100
AcDbCircle
10
-66.219459245242859
20
50.266132551115902
30
0
40
1.1000000000000032
210
0
220
0
230
-1
0
CIRCLE
5
209
100
AcDbEntity
8
0
100
AcDbCircle
10
-61.976818558123469
20
46.023491863996533
30
0
40
3.100000000000005
210
0
220
0
230
-1
0
CIRCLE
5
210
100
AcDbEntity
8
0
100
AcDbCircle
10
-57.734177871004285
20
41.780851176877327
30
0
40
1.1000000000000032
210
0
220
0
230
-1
0
CIRCLE
5
211
100
AcDbEntity
8
0
100
AcDbCircle
10
-66.219459245242859
20
41.780851176877334
30
0
40
1.1000000000000032
210
0
220
0
230
-1
0
CIRCLE
5
212
100
AcDbEntity
8
0
100
AcDbCircle
10
-93.85047408539549
20
64.41667964331414
30
0
40
1.6000000000000014
210
0
220
0
230
-1
0
CIRCLE
5
213
100
AcDbEntity
8
0
100
AcDbCircle
10
-61.976818558123568
20
9.2235017368725707
30
0
40
1.6000000000000014
210
0
220
0
230
-1
0
CIRCLE
5
214
100
AcDbEntity
8
0
100
AcDbCircle
10
-17.976818558123572
20
-0.77649826312744041
30
0
40
1.100000000000001
210
0
220
0
230
-1
0
CIRCLE
5
215
100
AcDbEntity
8
0
100
AcDbCircle
10
2.0231814418764311
20
-0.77649826312744308
30
0
40
1.1000000000000005
210
0
220
0
230
-1
0
CIRCLE
5
216
100
AcDbEntity
8
0
100
AcDbCircle
10
7.2731814418764351
20
-6.02649826312744
30
0
40
1.6000000000000003
210
0
220
0
230
-1
0
CIRCLE
5
217
100
AcDbEntity
8
0
100
AcDbCircle
10
-23.226818558123568
20
-6.0264982631274489
30
0
40
1.6000000000000014
210
0
220
0
230
-1
0
CIRCLE
5
218
100
AcDbEntity
8
0
100
AcDbCircle
10
-7.976818558123572
20
-18.276498263127444
30
0
40
1.6000000000000003
210
0
220
0
230
-1
0
CIRCLE
5
219
100
AcDbEntity
8
0
100
AcDbCircle
10
41.780540754757148
20
-23.333847703132207
30
0
40
1.1000000000000032
210
0
220
0
230
-1
0
CIRCLE
5
220
100
AcDbEntity
8
0
100
AcDbCircle
10
50.265822128995723
20
-23.333847703132207
30
0
40
1.1000000000000032
210
0
220
0
230
-1
0
CIRCLE
5
221
100
AcDbEntity
8
0
100
AcDbCircle
10
46.023181441876424
20
-27.576488390251484
30
0
40
3.100000000000005
210
0
220
0
230
-1
0
CIRCLE
5
222
100
AcDbEntity
8
0
100
AcDbCircle
10
41.780540754757155
20
-31.819129077370775
30
0
40
1.1000000000000032
210
0
220
0
230
-1
0
CIRCLE
5
223
100
AcDbEntity
8
0
100
AcDbCircle
10
50.265822128995723
20
-31.819129077370771
30
0
40
1.1000000000000032
210
0
220
0
230
-1
0
CIRCLE
5
224
100
AcDbEntity
8
0
100
AcDbCircle
10
77.896836969148353
20
-45.969676169569013
30
0
40
1.6000000000000014
210
0
220
0
230
-1
0
CIRCLE
5
225
100
AcDbEntity
8
0
100
AcDbCircle
10
14.166622024449811
20
-45.999270358249547
30
0
40
1.5999999999999992
210
0
220
0
230
-1
0
CIRCLE
5
226
100
AcDbEntity
8
0
100
AcDbCircle
10
-30.120259140696959
20
-45.999270358249547
30
0
40
1.6000000000000014
210
0
220
0
230
-1
0
CIRCLE
5
227
100
AcDbEntity
8
0
100
AcDbCircle
10
-57.734177871004306
20
-31.819129077370761
30
0
40
1.1000000000000032
210
0
220
0
230
-1
0
CIRCLE
5
228
100
AcDbEntity
8
0
100
AcDbCircle
10
-66.219459245242859
20
-31.819129077370761
30
0
40
1.1000000000000032
210
0
220
0
230
-1
0
CIRCLE
5
229
100
AcDbEntity
8
0
100
AcDbCircle
10
-93.850474085395504
20
-45.969676169568991
30
0
40
1.6000000000000014
210
0
220
0
230
-1
0
CIRCLE
5
230
100
AcDbEntity
8
0
100
AcDbCircle
10
-66.219459245242859
20
-23.3338477031322
30
0
40
1.1000000000000032
210
0
220
0
230
-1
0
CIRCLE
5
231
100
AcDbEntity
8
0
100
AcDbCircle
10
-57.734177871004292
20
-23.3338477031322
30
0
40
1.1000000000000032
210
0
220
0
230
-1
0
CIRCLE
5
232
100
AcDbEntity
8
0
100
AcDbCircle
10
-61.976818558123583
20
-27.576488390251484
30
0
40
3.0999999999999961
210
0
220
0
230
-1
0
LWPOLYLINE
5
233
100
AcDbEntity
8
0
100
AcDbPolyline
90
6
70
1
43
0.0
10
87.994186235620774
20
-45.475298148997744
10
68.669856025765938
20
-34.318390900428831
42
-0.41099411560205945
10
55.308975473238455
20
-34.343309549063761
10
35.980779465430118
20
-45.502448717121588
42
0.45669148471130966
10
35.408701046992292
20
-48.470852810075385
42
0.48609164525910326
10
88.567606074902955
20
-48.441994658520514
42
0.4563634805185573
0
LWPOLYLINE
5
234
100
AcDbEntity
8
0
100
AcDbPolyline
90
6
70
1
43
0.0
10
33.474263434091313
20
-41.176083730647015
42
-0.45618639581023868
10
30.618756246441727
20
-40.190419603412636
42
-0.48653132555514811
10
57.19379960233077
20
5.8833690849711138
42
-0.45643890107867952
10
59.476818558123568
20
3.9034952832701153
10
59.476818558123568
20
-18.411337000339799
42
0.41242250993112906
10
52.796541575720816
20
-30.020361244220382
0
ARC
5
235
100
AcDbEntity
8
0
100
AcDbCircle
10
24.596013926822742
20
-43.926248005913649
30
0
40
2.0000000000000013
210
0
220
0
230
1
100
AcDbArc
50
-62.499726188183054
51
23.6237909256017
0
ARC
5
236
100
AcDbEntity
8
0
100
AcDbCircle
10
61.976818558123583
20
-27.576488390251484
30
0
40
38.800000000000004
210
0
220
0
230
1
100
AcDbArc
50
166.50667884767904
51
203.62379092560238
0
ARC
5
237
100
AcDbEntity
8
0
100
AcDbCircle
10
14.523838808202063
20
-16.189886050065109
30
0
40
9.9999999999999964
210
0
220
0
230
1
100
AcDbArc
50
-13.493321152321043
51
71.500181609556165
0
ARC
5
238
100
AcDbEntity
8
0
100
AcDbCircle
10
11.985425604069984
20
-23.776483337722325
30
0
40
18
210
0
220
-0
230
1
100
AcDbArc
50
71.500181609556165
51
88.240051856339264
0
ARC
5
239
100
AcDbEntity
8
0
100
AcDbCircle
10
12.476818558123579
20
-7.7840309627828752
30
0
40
2.0000000000000013
210
0
220
-0
230
1
100
AcDbArc
50
88.240051856339221
51
180
0
LINE
5
240
100
AcDbEntity
8
0
100
AcDbLine
10
10.476818558123577
20
-15.686131493729727
30
0
11
10.476818558123583
21
-7.7840309627828752
31
0
0
ARC
5
241
100
AcDbEntity
8
0
100
AcDbCircle
10
7.976818558123572
20
-18.276498263127444
30
0
40
3.5999999999999996
210
0
220
0
230
1
100
AcDbArc
50
-46.017036869641075
51
46.017036869641174
0
LINE
5
242
100
AcDbEntity
8
0
100
AcDbLine
10
10.476818558123576
20
-47.395404454455061
30
0
11
10.476818558123583
21
-20.866865032525158
31
0
0
ARC
5
243
100
AcDbEntity
8
0
100
AcDbCircle
10
12.476818558123579
20
-47.395404454455061
30
0
40
2.000000000000004
210
0
220
0
230
1
100
AcDbArc
50
180
51
274.44758658892005
0
ARC
5
244
100
AcDbEntity
8
0
100
AcDbCircle
10
10.030711498068925
20
-15.946888829279025
30
0
40
33.543502893245559
210
0
220
0
230
1
100
AcDbArc
50
274.44758658891988
51
297.50027381181746
0
ARC
5
245
100
AcDbEntity
8
0
100
AcDbCircle
10
3.4768185581235711
20
-47.395404454455061
30
0
40
2.0000000000000067
210
0
220
0
230
1
100
AcDbArc
50
-94.447586588920814
51
0
0
LINE
5
246
100
AcDbEntity
8
0
100
AcDbLine
10
5.4768185581235773
20
-20.866865032525173
30
0
11
5.4768185581235773
21
-47.395404454455061
31
0
0
ARC
5
247
100
AcDbEntity
8
0
100
AcDbCircle
10
7.976818558123572
20
-18.276498263127444
30
0
40
3.599999999999997
210
0
220
0
230
1
100
AcDbArc
50
133.9829631303586
51
226.01703686964143
0
LINE
5
248
100
AcDbEntity
8
0
100
AcDbLine
10
5.4768185581235826
20
-7.7840309627828752
30
0
11
5.4768185581235791
21
-15.686131493729718
31
0
0
ARC
5
249
100
AcDbEntity
8
0
100
AcDbCircle
10
3.4768185581235818
20
-7.7840309627828752
30
0
40
2.0000000000000013
210
0
220
0
230
1
100
AcDbArc
50
0
51
91.759948143660253
0
ARC
5
250
100
AcDbEntity
8
0
100
AcDbCircle
10
3.968211512177124
20
-23.776483337722333
30
0
40
18.000000000000004
210
0
220
0
230
1
100
AcDbArc
50
91.759948143660509
51
108.49981839044348
0
ARC
5
251
100
AcDbEntity
8
0
100
AcDbCircle
10
1.4297983080450916
20
-16.189886050065095
30
0
40
10.000000000000007
210
0
220
0
230
1
100
AcDbArc
50
108.49981839044348
51
193.49332115232099
0
ARC
5
252
100
AcDbEntity
8
0
100
AcDbCircle
10
-46.023181441876424
20
-27.576488390251484
30
0
40
38.799990127124055
210
0
220
0
230
1
100
AcDbArc
50
-23.623790925602357
51
13.493321152321007
0
ARC
5
253
100
AcDbEntity
8
0
100
AcDbCircle
10
-8.6423768105755947
20
-43.926248005913649
30
0
40
1.999999999999986
210
0
220
0
230
1
100
AcDbArc
50
156.37620907439785
51
242.49972618818319
0
ARC
5
254
100
AcDbEntity
8
0
100
AcDbCircle
10
5.9229256181782173
20
-15.946888829279025
30
0
40
33.543502893245531
210
0
220
0
230
1
100
AcDbArc
50
242.49972618818254
51
265.55241341108007
0
LWPOLYLINE
5
255
100
AcDbEntity
8
0
100
AcDbPolyline
90
6
70
1
43
0.0
10
-20.027142349183041
20
-45.502448717121631
42
-0.45669148471130999
10
-19.455063930745222
20
-48.470852810075442
42
-0.48609164525910237
10
-72.613968958655761
20
-48.4419946585205
42
-0.4563634805185548
10
-72.040549119373594
20
-45.475298148997723
10
-52.716218909518787
20
-34.318390900428845
42
0.41099411560205917
10
-39.35533835699129
20
-34.343309549063783
0
LWPOLYLINE
5
256
100
AcDbEntity
8
0
100
AcDbPolyline
90
6
70
1
43
0.0
10
-43.523181441876432
20
3.9034952832701086
10
-43.523181441876432
20
-18.411337000339806
42
-0.41242250993112956
10
-36.842904459473672
20
-30.020361244220378
10
-17.520626317844169
20
-41.176083730647022
42
0.45618639581024067
10
-14.665119130194594
20
-40.190419603412629
42
0.48653132555514822
10
-41.240162486083634
20
5.883369084971104
42
0.45643890107867907
0
LWPOLYLINE
5
257
100
AcDbEntity
8
0
100
AcDbPolyline
90
10
70
1
43
0.0
10
-7.0231757805158725
20
5.2331568243785123
42
-0.00025364079132506832
10
-7.023181441876436
20
5.2443170170428886
10
-7.0231814418764307
20
13.202686456702441
42
-0.00025364079132506832
10
-7.0231757805158672
20
13.213846649366818
42
0.11569651958032087
10
-8.8920089699951959
20
21.218707321043389
42
0.55014833657837392
10
-15.611894833427868
20
21.927980937294983
42
-0.1140524937177399
10
-29.268625298089855
20
11.027422821535502
42
0.62994057502474221
10
-29.268625298089859
20
7.4195806522096186
42
-0.11405249371773958
10
-15.611894833427904
20
-3.4809774635498099
42
0.55014833657837237
10
-8.8920089699952172
20
-2.7717038472982369
42
0.11569651958030658
0
LWPOLYLINE
5
258
100
AcDbEntity
8
0
100
AcDbPolyline
90
16
70
1
43
0.0
10
3.9976338382948824
20
-0.77649826312744641
42
-0.19891236737965798
10
-0.24500684882440615
20
0.98086104975326827
10
-0.265822128995718
20
1.001676329924583
42
-0.1989123673796579
10
-2.0231814418764316
20
5.2443170170438673
10
-2.0231814418764316
20
13.202686456701239
42
-0.19891236737965798
10
-0.26582212899571894
20
17.445327143820528
10
-0.2450068488244056
20
17.466142423991837
42
-0.19891236737965812
10
3.9976338382948828
20
19.223501736872556
10
11.956003277952263
20
19.22350173687256
42
-0.1989123673796579
10
16.198643965071547
20
17.466142423991844
10
16.219459245242856
20
17.445327143820531
42
-0.1989123673796579
10
17.976818558123572
20
13.202686456701247
10
17.976818558123572
20
5.2443170170438691
42
-0.1989123673796579
10
16.219459245242859
20
1.0016763299245834
10
16.198643965071547
20
0.98086104975326927
42
-0.19891236737965776
10
11.956003277952263
20
-0.77649826312744641
0
LWPOLYLINE
5
259
100
AcDbEntity
8
0
100
AcDbPolyline
90
10
70
1
43
0.0
10
31.565531949675037
20
-3.4809774635498272
42
-0.1140524937177389
10
45.22226241433691
20
7.4195806522095609
42
0.62994057502473955
10
45.222262414336889
20
11.027422821535431
42
-0.11405249371773901
10
31.565531949674991
20
21.927980937294798
42
0.55014833657837536
10
24.845646086242294
20
21.218707321043198
42
0.1156965195803043
10
22.976812896763011
20
13.21384664937141
42
-0.00025364079143453631
10
22.976818558123576
20
13.202686456702217
10
22.976818558123568
20
5.2443170170428957
42
-0.00025364079132506832
10
22.976812896763008
20
5.2331568243785203
42
0.11569651958032391
10
24.845646086242365
20
-2.7717038472982591
42
0.55014833657837259
0
LWPOLYLINE
5
260
100
AcDbEntity
8
0
100
AcDbPolyline
90
6
70
1
43
0.0
10
59.476818558123568
20
14.543508190475016
10
59.476818558123554
20
36.858340474084898
42
-0.41242250993113505
10
52.796541575720809
20
48.467364717965523
10
33.474263434091306
20
59.623087204392135
42
0.45618639581023751
10
30.61875624644172
20
58.637423077157763
42
0.48653132555515005
10
57.19379960233077
20
12.56363438877402
42
0.45643890107867935
0
LWPOLYLINE
5
261
100
AcDbEntity
8
0
100
AcDbPolyline
90
6
70
1
43
0.0
10
35.98077946543021
20
63.949452190866758
42
-0.45669148471131288
10
35.408701046992405
20
66.917856283820583
42
-0.48609164525910026
10
88.567606074902727
20
66.88899813226557
42
-0.45636348051856057
10
87.99418623562056
20
63.922301622742772
10
68.669856025765924
20
52.765394374173965
42
0.41099411560205584
10
55.308975473238334
20
52.790313022808995
0
ARC
5
262
100
AcDbEntity
8
0
100
AcDbCircle
10
14.52383880820193
20
34.636889523810162
30
0
40
10.000000000000002
210
0
220
0
230
1
100
AcDbArc
50
-71.50018160955733
51
13.493321152320981
0
ARC
5
263
100
AcDbEntity
8
0
100
AcDbCircle
10
61.976818558123469
20
46.023491863996533
30
0
40
38.799990127123991
210
0
220
0
230
1
100
AcDbArc
50
156.37620907439748
51
193.49332115232096
0
ARC
5
264
100
AcDbEntity
8
0
100
AcDbCircle
10
24.596013926822728
20
62.373251479658769
30
0
40
1.9999999999999905
210
0
220
0
230
1
100
AcDbArc
50
-23.623790925601899
51
62.499726188182116
0
ARC
5
265
100
AcDbEntity
8
0
100
AcDbCircle
10
10.030711498068918
20
34.393892303024138
30
0
40
33.543502893245545
210
0
220
-0
230
1
100
AcDbArc
50
62.499726188182521
51
85.552413411080124
0
ARC
5
266
100
AcDbEntity
8
0
100
AcDbCircle
10
12.47681855812356
20
65.842407928200174
30
0
40
2.0000000000000222
210
0
220
-0
230
1
100
AcDbArc
50
85.552413411080039
51
180
0
LINE
5
267
100
AcDbEntity
8
0
100
AcDbLine
10
10.476818558123565
20
39.313868506270282
30
0
11
10.476818558123554
21
65.842407928200174
31
0
0
ARC
5
268
100
AcDbEntity
8
0
100
AcDbCircle
10
7.976818558123564
20
36.723501736872556
30
0
40
3.6000000000000036
210
0
220
0
230
1
100
AcDbArc
50
-46.017036869641281
51
46.017036869641331
0
LINE
5
269
100
AcDbEntity
8
0
100
AcDbLine
10
10.47681855812357
20
26.231034436527985
30
0
11
10.47681855812357
21
34.133134967474831
31
0
0
ARC
5
270
100
AcDbEntity
8
0
100
AcDbCircle
10
12.476818558123572
20
26.231034436527985
30
0
40
2.0000000000000018
210
0
220
0
230
1
100
AcDbArc
50
180
51
271.75994814366032
0
ARC
5
271
100
AcDbEntity
8
0
100
AcDbCircle
10
11.985425604070016
20
42.223486811467438
30
0
40
18.000000000000004
210
0
220
0
230
1
100
AcDbArc
50
271.75994814366055
51
288.49981839044261
0
LINE
5
272
100
AcDbEntity
8
0
100
AcDbLine
10
5.4768185581235613
20
34.133134967474831
30
0
11
5.476818558123572
21
26.231034436527992
31
0
0
ARC
5
273
100
AcDbEntity
8
0
100
AcDbCircle
10
3.4768185581235747
20
26.231034436527992
30
0
40
1.9999999999999969
210
0
220
0
230
1
100
AcDbArc
50
-91.75994814366085
51
0
0
ARC
5
274
100
AcDbEntity
8
0
100
AcDbCircle
10
3.9682115121772044
20
42.223486811467446
30
0
40
18.000000000000004
210
0
220
0
230
1
100
AcDbArc
50
251.5001816095558
51
268.24005185633911
0
ARC
5
275
100
AcDbEntity
8
0
100
AcDbCircle
10
1.4297983080450827
20
34.63688952381024
30
0
40
10.000000000000002
210
0
220
0
230
1
100
AcDbArc
50
166.50667884767898
51
251.5001816095558
0
ARC
5
276
100
AcDbEntity
8
0
100
AcDbCircle
10
-46.023181441876446
20
46.023491863996583
30
0
40
38.799999999999997
210
0
220
0
230
1
100
AcDbArc
50
-13.493321152320938
51
23.623790925602339
0
ARC
5
277
100
AcDbEntity
8
0
100
AcDbCircle
10
-8.6423768105756125
20
62.373251479658762
30
0
40
2.0000000000000031
210
0
220
0
230
1
100
AcDbArc
50
117.50027381181766
51
203.62379092560289
0
ARC
5
278
100
AcDbEntity
8
0
100
AcDbCircle
10
5.9229256181782111
20
34.393892303024138
30
0
40
33.543502893245559
210
0
220
0
230
1
100
AcDbArc
50
94.44758658891989
51
117.50027381181751
0
ARC
5
279
100
AcDbEntity
8
0
100
AcDbCircle
10
3.4768185581235516
20
65.842407928200174
30
0
40
2.0000000000000036
210
0
220
0
230
1
100
AcDbArc
50
0
51
94.447586588919805
0
LINE
5
280
100
AcDbEntity
8
0
100
AcDbLine
10
5.4768185581235551
20
65.842407928200174
30
0
11
5.4768185581235613
21
39.313868506270282
31
0
0
ARC
5
281
100
AcDbEntity
8
0
100
AcDbCircle
10
7.976818558123564
20
36.723501736872556
30
0
40
3.6000000000000041
210
0
220
0
230
1
100
AcDbArc
50
133.98296313035871
51
226.01703686964129
0
LWPOLYLINE
5
282
100
AcDbEntity
8
0
100
AcDbPolyline
90
6
70
1
43
0.0
10
-17.52062631784419
20
59.623087204392121
42
-0.45618639581024018
10
-14.665119130194594
20
58.637423077157749
42
-0.486531325555148
10
-41.240162486083619
20
12.563634388773989
42
-0.45643890107868246
10
-43.523181441876432
20
14.54350819047499
10
-43.523181441876446
20
36.858340474084905
42
0.41242250993112967
10
-36.842904459473687
20
48.467364717965495
0
LWPOLYLINE
5
283
100
AcDbEntity
8
0
100
AcDbPolyline
90
6
70
1
43
0.0
10
-72.040549119373637
20
63.922301622742836
10
-52.716218909518787
20
52.765394374173944
42
-0.41099411560205856
10
-39.355338356991325
20
52.790313022808874
10
-20.027142349182988
20
63.949452190866694
42
0.45669148471131321
10
-19.45506393074519
20
66.917856283820512
42
0.48609164525910276
10
-72.613968958655803
20
66.888998132265627
42
0.45636348051855824
0
ENDSEC
0
SECTION
2
OBJECTS
0
DICTIONARY
5
C
100
AcDbDictionary
3
ACAD_GROUP
350
D
3
ACAD_MLINESTYLE
350
17
0
DICTIONARY
5
D
100
AcDbDictionary
0
DICTIONARY
5
1A
330
C
100
AcDbDictionary
0
DICTIONARY
5
17
100
AcDbDictionary
0
ENDSEC
0
EOF
