  0
SECTION
  2
HEADER
  9
$ACADVER
  1
AC1027
  9
$ACADMAINTVER
 70
   125
  9
$DWGCODEPAGE
  3
ANSI_1252
  9
$REQUIREDVERSIONS
160
                 0
  9
$INSBASE
 10
0.0
 20
0.0
 30
0.0
  9
$EXTMIN
 10
1.000000000000000E+20
 20
1.000000000000000E+20
 30
1.000000000000000E+20
  9
$EXTMAX
 10
-1.000000000000000E+20
 20
-1.000000000000000E+20
 30
-1.000000000000000E+20
  9
$LIMMIN
 10
0.0
 20
0.0
  9
$LIMMAX
 10
12.0
 20
9.0
  9
$ORTHOMODE
 70
     0
  9
$REGENMODE
 70
     1
  9
$FILLMODE
 70
     1
  9
$QTEXTMODE
 70
     0
  9
$MIRRTEXT
 70
     0
  9
$LTSCALE
 40
1.0
  9
$ATTMODE
 70
     1
  9
$TEXTSIZE
 40
0.2
  9
$TRACEWID
 40
0.05
  9
$TEXTSTYLE
  7
Standard
  9
$CLAYER
  8
0
  9
$CELTYPE
  6
ByLayer
  9
$CECOLOR
 62
   256
  9
$CELTSCALE
 40
1.0
  9
$DISPSILH
 70
     0
  9
$DIMSCALE
 40
1.0
  9
$DIMASZ
 40
0.18
  9
$DIMEXO
 40
0.0625
  9
$DIMDLI
 40
0.38
  9
$DIMRND
 40
0.0
  9
$DIMDLE
 40
0.0
  9
$DIMEXE
 40
0.18
  9
$DIMTP
 40
0.0
  9
$DIMTM
 40
0.0
  9
$DIMTXT
 40
0.18
  9
$DIMCEN
 40
0.09
  9
$DIMTSZ
 40
0.0
  9
$DIMTOL
 70
     0
  9
$DIMLIM
 70
     0
  9
$DIMTIH
 70
     1
  9
$DIMTOH
 70
     1
  9
$DIMSE1
 70
     0
  9
$DIMSE2
 70
     0
  9
$DIMTAD
 70
     0
  9
$DIMZIN
 70
     0
  9
$DIMBLK
  1

  9
$DIMASO
 70
     1
  9
$DIMSHO
 70
     1
  9
$DIMPOST
  1

  9
$DIMAPOST
  1

  9
$DIMALT
 70
     0
  9
$DIMALTD
 70
     2
  9
$DIMALTF
 40
25.4
  9
$DIMLFAC
 40
1.0
  9
$DIMTOFL
 70
     0
  9
$DIMTVP
 40
0.0
  9
$DIMTIX
 70
     0
  9
$DIMSOXD
 70
     0
  9
$DIMSAH
 70
     0
  9
$DIMBLK1
  1

  9
$DIMBLK2
  1

  9
$DIMSTYLE
  2
Standard
  9
$DIMCLRD
 70
     0
  9
$DIMCLRE
 70
     0
  9
$DIMCLRT
 70
     0
  9
$DIMTFAC
 40
1.0
  9
$DIMGAP
 40
0.09
  9
$DIMJUST
 70
     0
  9
$DIMSD1
 70
     0
  9
$DIMSD2
 70
     0
  9
$DIMTOLJ
 70
     1
  9
$DIMTZIN
 70
     0
  9
$DIMALTZ
 70
     0
  9
$DIMALTTZ
 70
     0
  9
$DIMUPT
 70
     0
  9
$DIMDEC
 70
     4
  9
$DIMTDEC
 70
     4
  9
$DIMALTU
 70
     2
  9
$DIMALTTD
 70
     2
  9
$DIMTXSTY
  7
Standard
  9
$DIMAUNIT
 70
     0
  9
$DIMADEC
 70
     0
  9
$DIMALTRND
 40
0.0
  9
$DIMAZIN
 70
     0
  9
$DIMDSEP
 70
    46
  9
$DIMATFIT
 70
     3
  9
$DIMFRAC
 70
     0
  9
$DIMLDRBLK
  1

  9
$DIMLUNIT
 70
     2
  9
$DIMLWD
 70
    -2
  9
$DIMLWE
 70
    -2
  9
$DIMTMOVE
 70
     0
  9
$DIMFXL
 40
1.0
  9
$DIMFXLON
 70
     0
  9
$DIMJOGANG
 40
0.7853981633974483
  9
$DIMTFILL
 70
     0
  9
$DIMTFILLCLR
 70
     0
  9
$DIMARCSYM
 70
     0
  9
$DIMLTYPE
  6

  9
$DIMLTEX1
  6

  9
$DIMLTEX2
  6

  9
$DIMTXTDIRECTION
 70
     0
  9
$LUNITS
 70
     2
  9
$LUPREC
 70
     4
  9
$SKETCHINC
 40
0.1
  9
$FILLETRAD
 40
0.0
  9
$AUNITS
 70
     0
  9
$AUPREC
 70
     0
  9
$MENU
  1
.
  9
$ELEVATION
 40
0.0
  9
$PELEVATION
 40
0.0
  9
$THICKNESS
 40
0.0
  9
$LIMCHECK
 70
     0
  9
$CHAMFERA
 40
0.0
  9
$CHAMFERB
 40
0.0
  9
$CHAMFERC
 40
0.0
  9
$CHAMFERD
 40
0.0
  9
$SKPOLY
 70
     0
  9
$TDCREATE
 40
2458958.841296296
  9
$TDUCREATE
 40
2458958.841296296
  9
$TDUPDATE
 40
2458958.841296296
  9
$TDUUPDATE
 40
2458958.841296296
  9
$TDINDWG
 40
0.0000000000
  9
$TDUSRTIMER
 40
0.0000000000
  9
$USRTIMER
 70
     1
  9
$ANGBASE
 50
0.0
  9
$ANGDIR
 70
     0
  9
$PDMODE
 70
     0
  9
$PDSIZE
 40
0.0
  9
$PLINEWID
 40
0.0
  9
$SPLFRAME
 70
     0
  9
$SPLINETYPE
 70
     6
  9
$SPLINESEGS
 70
     8
  9
$HANDSEED
  5
17A
  9
$SURFTAB1
 70
     6
  9
$SURFTAB2
 70
     6
  9
$SURFTYPE
 70
     6
  9
$SURFU
 70
     6
  9
$SURFV
 70
     6
  9
$UCSBASE
  2

  9
$UCSNAME
  2

  9
$UCSORG
 10
0.0
 20
0.0
 30
0.0
  9
$UCSXDIR
 10
1.0
 20
0.0
 30
0.0
  9
$UCSYDIR
 10
0.0
 20
1.0
 30
0.0
  9
$UCSORTHOREF
  2

  9
$UCSORTHOVIEW
 70
     0
  9
$UCSORGTOP
 10
0.0
 20
0.0
 30
0.0
  9
$UCSORGBOTTOM
 10
0.0
 20
0.0
 30
0.0
  9
$UCSORGLEFT
 10
0.0
 20
0.0
 30
0.0
  9
$UCSORGRIGHT
 10
0.0
 20
0.0
 30
0.0
  9
$UCSORGFRONT
 10
0.0
 20
0.0
 30
0.0
  9
$UCSORGBACK
 10
0.0
 20
0.0
 30
0.0
  9
$PUCSBASE
  2

  9
$PUCSNAME
  2

  9
$PUCSORG
 10
0.0
 20
0.0
 30
0.0
  9
$PUCSXDIR
 10
1.0
 20
0.0
 30
0.0
  9
$PUCSYDIR
 10
0.0
 20
1.0
 30
0.0
  9
$PUCSORTHOREF
  2

  9
$PUCSORTHOVIEW
 70
     0
  9
$PUCSORGTOP
 10
0.0
 20
0.0
 30
0.0
  9
$PUCSORGBOTTOM
 10
0.0
 20
0.0
 30
0.0
  9
$PUCSORGLEFT
 10
0.0
 20
0.0
 30
0.0
  9
$PUCSORGRIGHT
 10
0.0
 20
0.0
 30
0.0
  9
$PUCSORGFRONT
 10
0.0
 20
0.0
 30
0.0
  9
$PUCSORGBACK
 10
0.0
 20
0.0
 30
0.0
  9
$USERI1
 70
     0
  9
$USERI2
 70
     0
  9
$USERI3
 70
     0
  9
$USERI4
 70
     0
  9
$USERI5
 70
     0
  9
$USERR1
 40
0.0
  9
$USERR2
 40
0.0
  9
$USERR3
 40
0.0
  9
$USERR4
 40
0.0
  9
$USERR5
 40
0.0
  9
$WORLDVIEW
 70
     1
  9
$SHADEDGE
 70
     3
  9
$SHADEDIF
 70
    70
  9
$TILEMODE
 70
     1
  9
$MAXACTVP
 70
    64
  9
$PINSBASE
 10
0.0
 20
0.0
 30
0.0
  9
$PLIMCHECK
 70
     0
  9
$PEXTMIN
 10
1.000000000000000E+20
 20
1.000000000000000E+20
 30
1.000000000000000E+20
  9
$PEXTMAX
 10
-1.000000000000000E+20
 20
-1.000000000000000E+20
 30
-1.000000000000000E+20
  9
$PLIMMIN
 10
0.0
 20
0.0
  9
$PLIMMAX
 10
12.0
 20
9.0
  9
$UNITMODE
 70
     0
  9
$VISRETAIN
 70
     1
  9
$PLINEGEN
 70
     0
  9
$PSLTSCALE
 70
     1
  9
$TREEDEPTH
 70
  3020
  9
$CMLSTYLE
  2
Standard
  9
$CMLJUST
 70
     0
  9
$CMLSCALE
 40
1.0
  9
$PROXYGRAPHICS
 70
     1
  9
$MEASUREMENT
 70
     0
  9
$CELWEIGHT
370
    -1
  9
$ENDCAPS
280
     0
  9
$JOINSTYLE
280
     0
  9
$LWDISPLAY
290
     0
  9
$INSUNITS
 70
     5
  9
$HYPERLINKBASE
  1

  9
$STYLESHEET
  1

  9
$XEDIT
290
     1
  9
$CEPSNTYPE
380
     0
  9
$PSTYLEMODE
290
     1
  9
$FINGERPRINTGUID
  2
{D6B83587-9F08-CE49-BE99-256851809685}
  9
$VERSIONGUID
  2
{A99B8091-72F6-4B41-A018-A866F5A2F5FE}
  9
$EXTNAMES
290
     1
  9
$PSVPSCALE
 40
0.0
  9
$OLESTARTUP
290
     0
  9
$SORTENTS
280
   127
  9
$INDEXCTL
280
     0
  9
$HIDETEXT
280
     1
  9
$XCLIPFRAME
280
     2
  9
$HALOGAP
280
     0
  9
$OBSCOLOR
 70
   257
  9
$OBSLTYPE
280
     0
  9
$INTERSECTIONDISPLAY
280
     0
  9
$INTERSECTIONCOLOR
 70
   257
  9
$DIMASSOC
280
     2
  9
$PROJECTNAME
  1

  9
$CAMERADISPLAY
290
     0
  9
$LENSLENGTH
 40
50.0
  9
$CAMERAHEIGHT
 40
0.0
  9
$STEPSPERSEC
 40
2.0
  9
$STEPSIZE
 40
6.0
  9
$3DDWFPREC
 40
2.0
  9
$PSOLWIDTH
 40
0.25
  9
$PSOLHEIGHT
 40
4.0
  9
$LOFTANG1
 40
1.570796326794896
  9
$LOFTANG2
 40
1.570796326794896
  9
$LOFTMAG1
 40
0.0
  9
$LOFTMAG2
 40
0.0
  9
$LOFTPARAM
 70
     7
  9
$LOFTNORMALS
280
     1
  9
$LATITUDE
 40
37.795
  9
$LONGITUDE
 40
-122.394
  9
$NORTHDIRECTION
 40
0.0
  9
$TIMEZONE
 70
 -8000
  9
$LIGHTGLYPHDISPLAY
280
     1
  9
$TILEMODELIGHTSYNCH
280
     1
  9
$CMATERIAL
347
11
  9
$SOLIDHIST
280
     0
  9
$SHOWHIST
280
     1
  9
$DWFFRAME
280
     2
  9
$DGNFRAME
280
     0
  9
$REALWORLDSCALE
290
     1
  9
$INTERFERECOLOR
 62
     1
  9
$INTERFEREOBJVS
345
33
  9
$INTERFEREVPVS
346
30
  9
$CSHADOW
280
     0
  9
$SHADOWPLANELOCATION
 40
0.0
  0
ENDSEC
  0
SECTION
  2
CLASSES
  0
CLASS
  1
ACDBDICTIONARYWDFLT
  2
AcDbDictionaryWithDefault
  3
ObjectDBX Classes
 90
        0
 91
        1
280
     0
281
     0
  0
CLASS
  1
MATERIAL
  2
AcDbMaterial
  3
ObjectDBX Classes
 90
     1153
 91
        3
280
     0
281
     0
  0
CLASS
  1
VISUALSTYLE
  2
AcDbVisualStyle
  3
ObjectDBX Classes
 90
     4095
 91
       24
280
     0
281
     0
  0
CLASS
  1
SCALE
  2
AcDbScale
  3
ObjectDBX Classes
 90
     1153
 91
       17
280
     0
281
     0
  0
CLASS
  1
TABLESTYLE
  2
AcDbTableStyle
  3
ObjectDBX Classes
 90
     4095
 91
        1
280
     0
281
     0
  0
CLASS
  1
MLEADERSTYLE
  2
AcDbMLeaderStyle
  3
ACDB_MLEADERSTYLE_CLASS
 90
     4095
 91
        1
280
     0
281
     0
  0
CLASS
  1
ACDBSECTIONVIEWSTYLE
  2
AcDbSectionViewStyle
  3
ObjectDBX Classes
 90
     1025
 91
        1
280
     0
281
     0
  0
CLASS
  1
ACDBDETAILVIEWSTYLE
  2
AcDbDetailViewStyle
  3
ObjectDBX Classes
 90
     1025
 91
        1
280
     0
281
     0
  0
CLASS
  1
DICTIONARYVAR
  2
AcDbDictionaryVar
  3
ObjectDBX Classes
 90
        0
 91
        5
280
     0
281
     0
  0
CLASS
  1
CELLSTYLEMAP
  2
AcDbCellStyleMap
  3
ObjectDBX Classes
 90
     1152
 91
        1
280
     0
281
     0
  0
ENDSEC
  0
SECTION
  2
TABLES
  0
TABLE
  2
VPORT
  5
8
330
0
100
AcDbSymbolTable
 70
     1
1001
ACAD
1000
DbSaveVer
1071
      224
  0
VPORT
  5
57
330
8
100
AcDbSymbolTableRecord
100
AcDbViewportTableRecord
  2
*Active
 70
     0
 10
0.0
 20
0.0
 11
1.0
 21
1.0
 12
500.0
 22
500.0
 13
0.0
 23
0.0
 14
1.0
 24
1.0
 15
0.0
 25
0.0
 16
0.0
 26
0.0
 36
1.0
 17
0.0
 27
0.0
 37
0.0
 40
12.0
 41
1.0
 42
50.0
 43
0.0
 44
0.0
 50
0.0
 51
0.0
 71
     0
 72
   100
 73
     1
 74
     1
 75
     0
 76
     0
 77
     0
 78
     0
281
     0
 65
     1
110
0.0
120
0.0
130
0.0
111
1.0
121
0.0
131
0.0
112
0.0
122
1.0
132
0.0
 79
     0
146
0.0
 60
     3
 61
     5
292
     1
282
     1
141
0.0
142
0.0
 63
   250
421
  3355443
  0
ENDTAB
  0
TABLE
  2
LTYPE
  5
5
330
0
100
AcDbSymbolTable
 70
     1
  0
LTYPE
  5
5B
330
5
100
AcDbSymbolTableRecord
100
AcDbLinetypeTableRecord
  2
ByBlock
 70
     0
  3

 72
    65
 73
     0
 40
0.0
  0
LTYPE
  5
5C
330
5
100
AcDbSymbolTableRecord
100
AcDbLinetypeTableRecord
  2
ByLayer
 70
     0
  3

 72
    65
 73
     0
 40
0.0
  0
LTYPE
  5
5D
330
5
100
AcDbSymbolTableRecord
100
AcDbLinetypeTableRecord
  2
Continuous
 70
     0
  3
Solid line
 72
    65
 73
     0
 40
0.0
  0
ENDTAB
  0
TABLE
  2
LAYER
  5
2
330
0
100
AcDbSymbolTable
 70
     2
  0
LAYER
  5
54
330
2
100
AcDbSymbolTableRecord
100
AcDbLayerTableRecord
  2
0
 70
     0
 62
     7
  6
Continuous
370
    -3
390
F
347
21
348
0
  0
LAYER
  5
7A
330
2
100
AcDbSymbolTableRecord
100
AcDbLayerTableRecord
  2
D-Tower (by TFrames) v11_Sketch1
 70
     0
 62
     7
  6
Continuous
370
    -3
390
F
347
21
348
0
1001
NFusion_SketchTransform
1000
1.000000;0.000000;0.000000;0.000000;0.000000;1.000000;0.000000;0.000000;0.000000;0.000000;1.000000;0.000000;0.000000;0.000000;0.000000;1.000000
  0
ENDTAB
  0
TABLE
  2
STYLE
  5
3
330
0
100
AcDbSymbolTable
 70
     2
  0
STYLE
  5
55
330
3
100
AcDbSymbolTableRecord
100
AcDbTextStyleTableRecord
  2
Standard
 70
     0
 40
0.0
 41
1.0
 50
0.0
 71
     0
 42
0.2
  3
txt
  4

  0
STYLE
  5
5A
330
3
100
AcDbSymbolTableRecord
100
AcDbTextStyleTableRecord
  2
Annotative
 70
     0
 40
0.0
 41
1.0
 50
0.0
 71
     0
 42
0.2
  3
txt
  4

1001
AcadAnnotative
1000
AnnotativeData
1002
{
1070
     1
1070
     1
1002
}
  0
ENDTAB
  0
TABLE
  2
VIEW
  5
6
330
0
100
AcDbSymbolTable
 70
     0
  0
ENDTAB
  0
TABLE
  2
UCS
  5
7
330
0
100
AcDbSymbolTable
 70
     0
  0
ENDTAB
  0
TABLE
  2
APPID
  5
9
330
0
100
AcDbSymbolTable
 70
     4
  0
APPID
  5
56
330
9
100
AcDbSymbolTableRecord
100
AcDbRegAppTableRecord
  2
ACAD
 70
     0
  0
APPID
  5
5E
330
9
100
AcDbSymbolTableRecord
100
AcDbRegAppTableRecord
  2
AcadAnnotative
 70
     0
  0
APPID
  5
78
330
9
100
AcDbSymbolTableRecord
100
AcDbRegAppTableRecord
  2
EDIT_IN_FUSION_ACAD_ADDIN
 70
     0
  0
APPID
  5
79
330
9
100
AcDbSymbolTableRecord
100
AcDbRegAppTableRecord
  2
NFusion_SketchTransform
 70
     0
  0
ENDTAB
  0
TABLE
  2
DIMSTYLE
  5
A
330
0
100
AcDbSymbolTable
 70
     2
100
AcDbDimStyleTable
 71
     0
  0
DIMSTYLE
105
58
330
A
100
AcDbSymbolTableRecord
100
AcDbDimStyleTableRecord
  2
Standard
 70
     0
340
55
  0
DIMSTYLE
105
59
330
A
100
AcDbSymbolTableRecord
100
AcDbDimStyleTableRecord
  2
Annotative
 70
     0
340
55
1001
AcadAnnotative
1000
AnnotativeData
1002
{
1070
     1
1070
     1
1002
}
  0
ENDTAB
  0
TABLE
  2
BLOCK_RECORD
  5
1
330
0
100
AcDbSymbolTable
 70
     1
  0
BLOCK_RECORD
  5
70
330
1
100
AcDbSymbolTableRecord
100
AcDbBlockTableRecord
  2
*Model_Space
340
73
 70
     0
280
     1
281
     0
  0
BLOCK_RECORD
  5
6C
330
1
100
AcDbSymbolTableRecord
100
AcDbBlockTableRecord
  2
*Paper_Space
340
6F
 70
     0
280
     1
281
     0
  0
BLOCK_RECORD
  5
74
330
1
100
AcDbSymbolTableRecord
100
AcDbBlockTableRecord
  2
*Paper_Space0
340
77
 70
     0
280
     1
281
     0
  0
ENDTAB
  0
ENDSEC
  0
SECTION
  2
BLOCKS
  0
BLOCK
  5
71
330
70
100
AcDbEntity
  8
0
100
AcDbBlockBegin
  2
*Model_Space
 70
     0
 10
0.0
 20
0.0
 30
0.0
  3
*Model_Space
  1

  0
ENDBLK
  5
72
330
70
100
AcDbEntity
  8
0
100
AcDbBlockEnd
  0
BLOCK
  5
6D
330
6C
100
AcDbEntity
 67
     1
  8
0
100
AcDbBlockBegin
  2
*Paper_Space
 70
     0
 10
0.0
 20
0.0
 30
0.0
  3
*Paper_Space
  1

  0
ENDBLK
  5
6E
330
6C
100
AcDbEntity
 67
     1
  8
0
100
AcDbBlockEnd
  0
BLOCK
  5
75
330
74
100
AcDbEntity
 67
     1
  8
0
100
AcDbBlockBegin
  2
*Paper_Space0
 70
     0
 10
0.0
 20
0.0
 30
0.0
  3
*Paper_Space0
  1

  0
ENDBLK
  5
76
330
74
100
AcDbEntity
 67
     1
  8
0
100
AcDbBlockEnd
  0
ENDSEC
  0
SECTION
  2
ENTITIES
  0
POINT
  5
7B
330
70
100
AcDbEntity
  8
D-Tower (by TFrames) v11_Sketch1
100
AcDbPoint
 10
10.47199108394319
 20
0.4759358990583725
 30
0.0
  0
POINT
  5
7C
330
70
100
AcDbEntity
  8
D-Tower (by TFrames) v11_Sketch1
100
AcDbPoint
 10
10.47199108395245
 20
10.29657261236623
 30
0.0
  0
POINT
  5
7D
330
70
100
AcDbEntity
  8
D-Tower (by TFrames) v11_Sketch1
100
AcDbPoint
 10
10.47199108395241
 20
9.896572612366231
 30
0.0
  0
POINT
  5
7E
330
70
100
AcDbEntity
  8
D-Tower (by TFrames) v11_Sketch1
100
AcDbPoint
 10
0.6513543706539684
 20
0.8759358990683148
 30
0.0
  0
POINT
  5
7F
330
70
100
AcDbEntity
  8
D-Tower (by TFrames) v11_Sketch1
100
AcDbPoint
 10
0.0
 20
0.0
 30
0.0
  0
CIRCLE
  5
80
330
70
100
AcDbEntity
  8
D-Tower (by TFrames) v11_Sketch1
100
AcDbCircle
 10
5.56167272730291
 20
7.189376547742934
 30
0.0
 40
0.1600000000000007
  0
CIRCLE
  5
81
330
70
100
AcDbEntity
  8
D-Tower (by TFrames) v11_Sketch1
100
AcDbCircle
 10
7.364795019328607
 20
5.386254255717238
 30
0.0
 40
0.1599999999999999
  0
CIRCLE
  5
82
330
70
100
AcDbEntity
  8
D-Tower (by TFrames) v11_Sketch1
100
AcDbCircle
 10
3.758550435277215
 20
5.38625425571724
 30
0.0
 40
0.1599999999999996
  0
LINE
  5
83
330
70
100
AcDbEntity
  8
D-Tower (by TFrames) v11_Sketch1
100
AcDbLine
 10
2.147547363718861
 20
9.400379619310161
 30
0.0
 11
3.970682469630265
 21
7.577244513401042
 31
0.0
  0
LINE
  5
84
330
70
100
AcDbEntity
  8
D-Tower (by TFrames) v11_Sketch1
100
AcDbLine
 10
8.975798090878452
 20
9.400379619320737
 30
0.0
 11
7.152662984961089
 21
7.577244513398516
 31
0.0
  0
CIRCLE
  5
85
330
70
100
AcDbEntity
  8
D-Tower (by TFrames) v11_Sketch1
100
AcDbCircle
 10
5.561672727302909
 20
3.583131963691542
 30
0.0
 40
0.1600000000000001
  0
LINE
  5
86
330
70
100
AcDbEntity
  8
D-Tower (by TFrames) v11_Sketch1
100
AcDbLine
 10
1.54697183784174
 20
8.799914670769787
 30
0.0
 11
3.370078282005004
 21
6.975492738157177
 31
0.0
  0
LINE
  5
87
330
70
100
AcDbEntity
  8
D-Tower (by TFrames) v11_Sketch1
100
AcDbLine
 10
0.8513543706539623
 20
1.235935899068471
 30
0.0
 11
0.7013543706539638
 21
1.235935899068296
 31
0.0
  0
LINE
  5
88
330
70
100
AcDbEntity
  8
D-Tower (by TFrames) v11_Sketch1
100
AcDbLine
 10
9.371991083951836
 20
1.235935899068293
 30
0.0
 11
9.221991083950502
 21
1.235935899068316
 31
0.0
  0
LINE
  5
89
330
70
100
AcDbEntity
  8
D-Tower (by TFrames) v11_Sketch1
100
AcDbLine
 10
9.931991083945359
 20
1.725935899068294
 30
0.0
 11
9.931991083945259
 21
1.57593589905274
 31
0.0
  0
ARC
  5
8A
330
70
100
AcDbEntity
  8
D-Tower (by TFrames) v11_Sketch1
100
AcDbCircle
 10
9.821991083954578
 20
1.125935899053941
 30
0.0
 40
0.7999999999950883
100
AcDbArc
 50
224.9999999991338
 51
269.9999999999903
  0
ARC
  5
8B
330
70
100
AcDbEntity
  8
D-Tower (by TFrames) v11_Sketch1
100
AcDbCircle
 10
1.301354370653965
 20
10.09657261236618
 30
0.0
 40
0.1099999999998982
100
AcDbArc
 50
180.0
 51
0.0
  0
ARC
  5
8C
330
70
100
AcDbEntity
  8
D-Tower (by TFrames) v11_Sketch1
100
AcDbCircle
 10
9.821991083951861
 20
10.09657261236618
 30
0.0
 40
0.1100000000000065
100
AcDbArc
 50
179.9999999999982
 51
359.9999999999982
  0
ARC
  5
8D
330
70
100
AcDbEntity
  8
D-Tower (by TFrames) v11_Sketch1
100
AcDbCircle
 10
1.901354370653961
 20
9.646572612366185
 30
0.0
 40
0.1100000000000523
100
AcDbArc
 50
270.005710999372
 51
89.9999999999793
  0
ARC
  5
8E
330
70
100
AcDbEntity
  8
D-Tower (by TFrames) v11_Sketch1
100
AcDbCircle
 10
0.701354370653962
 20
9.646572612366181
 30
0.0
 40
0.110000000000003
100
AcDbArc
 50
90.0
 51
270.0
  0
LINE
  5
8F
330
70
100
AcDbEntity
  8
D-Tower (by TFrames) v11_Sketch1
100
AcDbLine
 10
10.27199108395185
 20
1.01593589905522
 30
0.0
 11
10.42199108394974
 21
1.015935899055298
 31
0.0
  0
LINE
  5
90
330
70
100
AcDbEntity
  8
D-Tower (by TFrames) v11_Sketch1
100
AcDbLine
 10
1.191354370653884
 20
1.575935899068293
 30
0.0
 11
1.191354370653962
 21
1.725935899068295
 31
0.0
  0
LINE
  5
91
330
70
100
AcDbEntity
  8
D-Tower (by TFrames) v11_Sketch1
100
AcDbLine
 10
9.575748733322345
 20
1.97207000466291
 30
0.0
 11
7.753572514910482
 21
3.794359926776551
 31
0.0
  0
LINE
  5
92
330
70
100
AcDbEntity
  8
D-Tower (by TFrames) v11_Sketch1
100
AcDbLine
 10
2.146860605703907
 20
1.370419793612508
 30
0.0
 11
3.997979923355961
 21
3.192831802969342
 31
0.0
  0
ARC
  5
93
330
70
100
AcDbEntity
  8
D-Tower (by TFrames) v11_Sketch1
100
AcDbCircle
 10
9.821991083950624
 20
1.575935899052817
 30
0.0
 40
0.1099999999955017
100
AcDbArc
 50
179.9999999919401
 51
359.9999999919401
  0
LINE
  5
94
330
70
100
AcDbEntity
  8
D-Tower (by TFrames) v11_Sketch1
100
AcDbLine
 10
0.701354370653962
 20
9.536572612366182
 30
0.0
 11
0.8513543706539641
 21
9.536572612366342
 31
0.0
  0
LINE
  5
95
330
70
100
AcDbEntity
  8
D-Tower (by TFrames) v11_Sketch1
100
AcDbLine
 10
9.711991083955123
 20
1.575935899068291
 30
0.0
 11
9.711991083956075
 21
1.72593589907518
 31
0.0
  0
ARC
  5
96
330
70
100
AcDbEntity
  8
D-Tower (by TFrames) v11_Sketch1
100
AcDbCircle
 10
1.301354370653965
 20
1.575935899068295
 30
0.0
 40
0.1100000000000811
100
AcDbArc
 50
180.0000000000009
 51
0.0000000000009253
  0
LINE
  5
97
330
70
100
AcDbEntity
  8
D-Tower (by TFrames) v11_Sketch1
100
AcDbLine
 10
8.975798090891039
 20
1.372128892129112
 30
0.0
 11
7.167479231881545
 21
3.180447751138605
 31
0.0
  0
ARC
  5
98
330
70
100
AcDbEntity
  8
D-Tower (by TFrames) v11_Sketch1
100
AcDbCircle
 10
9.821991083954575
 20
1.125935899053939
 30
0.0
 40
0.7999999999950846
100
AcDbArc
 50
224.9999999991338
 51
269.9999999999906
  0
LINE
  5
99
330
70
100
AcDbEntity
  8
D-Tower (by TFrames) v11_Sketch1
100
AcDbLine
 10
1.411354370653964
 20
10.24657261236618
 30
0.0
 11
1.411354370653863
 21
10.09657261236618
 31
0.0
  0
LINE
  5
9A
330
70
100
AcDbEntity
  8
D-Tower (by TFrames) v11_Sketch1
100
AcDbLine
 10
9.93199108395186
 20
10.09657261236618
 30
0.0
 11
9.931991083951857
 21
10.24657261236608
 31
0.0
  0
LINE
  5
9B
330
70
100
AcDbEntity
  8
D-Tower (by TFrames) v11_Sketch1
100
AcDbLine
 10
9.931991083951743
 20
0.5259358990682932
 30
0.0
 11
9.931991083951857
 21
0.6759358990680821
 31
0.0
  0
ARC
  5
9C
330
70
100
AcDbEntity
  8
D-Tower (by TFrames) v11_Sketch1
100
AcDbCircle
 10
1.901354370653961
 20
1.125935899068295
 30
0.0
 40
0.1100000000000525
100
AcDbArc
 50
269.9999999999991
 51
89.99999999999909
  0
ARC
  5
9D
330
70
100
AcDbEntity
  8
D-Tower (by TFrames) v11_Sketch1
100
AcDbCircle
 10
9.821991083951861
 20
0.6759358990682935
 30
0.0
 40
0.1099999999999959
100
AcDbArc
 50
359.9999999998899
 51
179.9999999998899
  0
ARC
  5
9E
330
70
100
AcDbEntity
  8
D-Tower (by TFrames) v11_Sketch1
100
AcDbCircle
 10
0.8513543706539623
 20
1.125935899068297
 30
0.0
 40
0.1100000000001742
100
AcDbArc
 50
269.9999999999991
 51
89.99999999999909
  0
ARC
  5
9F
330
70
100
AcDbEntity
  8
D-Tower (by TFrames) v11_Sketch1
100
AcDbCircle
 10
1.301354370653965
 20
10.24657261236618
 30
0.0
 40
0.1099999999999994
100
AcDbArc
 50
0.0
 51
180.0
  0
ARC
  5
A0
330
70
100
AcDbEntity
  8
D-Tower (by TFrames) v11_Sketch1
100
AcDbCircle
 10
1.301354370653965
 20
1.725935899068294
 30
0.0
 40
0.1099999999999994
100
AcDbArc
 50
0.0000000000013879
 51
180.0000000000013
  0
ARC
  5
A1
330
70
100
AcDbEntity
  8
D-Tower (by TFrames) v11_Sketch1
100
AcDbCircle
 10
9.821991083951854
 20
9.196572612366182
 30
0.0
 40
0.110000000000003
100
AcDbArc
 50
0.0000000000166545
 51
180.0000000000166
  0
LINE
  5
A2
330
70
100
AcDbEntity
  8
D-Tower (by TFrames) v11_Sketch1
100
AcDbLine
 10
9.576355264098896
 20
8.79989574681932
 30
0.0
 11
7.753241834893426
 21
6.975910396562468
 31
0.0
  0
ARC
  5
A3
330
70
100
AcDbEntity
  8
D-Tower (by TFrames) v11_Sketch1
100
AcDbCircle
 10
10.42199108395005
 20
9.646572612366043
 30
0.0
 40
0.1099999999832839
100
AcDbArc
 50
269.9999999999389
 51
89.99999999993894
  0
ARC
  5
A4
330
70
100
AcDbEntity
  8
D-Tower (by TFrames) v11_Sketch1
100
AcDbCircle
 10
1.751354370653964
 20
9.646572612366185
 30
0.0
 40
0.110000000000003
100
AcDbArc
 50
89.99999999999909
 51
269.9999999999991
  0
ARC
  5
A5
330
70
100
AcDbEntity
  8
D-Tower (by TFrames) v11_Sketch1
100
AcDbCircle
 10
1.301354370653961
 20
0.6759358990682953
 30
0.0
 40
0.1100000000000456
100
AcDbArc
 50
359.9999999999677
 51
179.9999999999676
  0
ARC
  5
A6
330
70
100
AcDbEntity
  8
D-Tower (by TFrames) v11_Sketch1
100
AcDbCircle
 10
0.7013543706539638
 20
1.125935899068296
 30
0.0
 40
0.1100000000000003
100
AcDbArc
 50
90.0
 51
270.0
  0
ARC
  5
A7
330
70
100
AcDbEntity
  8
D-Tower (by TFrames) v11_Sketch1
100
AcDbCircle
 10
1.301354370653961
 20
0.5259358990682959
 30
0.0
 40
0.1099999999999994
100
AcDbArc
 50
180.0
 51
0.0
  0
ARC
  5
A8
330
70
100
AcDbEntity
  8
D-Tower (by TFrames) v11_Sketch1
100
AcDbCircle
 10
9.371991083951389
 20
1.125935899067054
 30
0.0
 40
0.1100000000012302
100
AcDbArc
 50
270.0000000002443
 51
90.00000000024426
  0
ARC
  5
A9
330
70
100
AcDbEntity
  8
D-Tower (by TFrames) v11_Sketch1
100
AcDbCircle
 10
9.221991083958013
 20
9.64657261236827
 30
0.0
 40
0.1100000000063233
100
AcDbArc
 50
90.0
 51
270.0
  0
ARC
  5
AA
330
70
100
AcDbEntity
  8
D-Tower (by TFrames) v11_Sketch1
100
AcDbCircle
 10
10.2719910839537
 20
9.64657261236605
 30
0.0
 40
0.1099999999848826
100
AcDbArc
 50
90.00000000007032
 51
270.0000000000703
  0
ARC
  5
AB
330
70
100
AcDbEntity
  8
D-Tower (by TFrames) v11_Sketch1
100
AcDbCircle
 10
1.301354370653961
 20
9.046572612366183
 30
0.0
 40
0.1099999999999994
100
AcDbArc
 50
180.0000000000018
 51
0.0000000000018505
  0
ARC
  5
AC
330
70
100
AcDbEntity
  8
D-Tower (by TFrames) v11_Sketch1
100
AcDbCircle
 10
9.821991083951857
 20
10.24657261236618
 30
0.0
 40
0.1099999999999994
100
AcDbArc
 50
359.9999999999482
 51
179.9999999999482
  0
LINE
  5
AD
330
70
100
AcDbEntity
  8
D-Tower (by TFrames) v11_Sketch1
100
AcDbLine
 10
1.191354370653999
 20
9.196572612366178
 30
0.0
 11
1.191354370653962
 21
9.04657261236618
 31
0.0
  0
ARC
  5
AE
330
70
100
AcDbEntity
  8
D-Tower (by TFrames) v11_Sketch1
100
AcDbCircle
 10
1.301354370653963
 20
9.196572612366182
 30
0.0
 40
0.1099999999999639
100
AcDbArc
 50
0.0000000000018505
 51
180.0000000000018
  0
ARC
  5
AF
330
70
100
AcDbEntity
  8
D-Tower (by TFrames) v11_Sketch1
100
AcDbCircle
 10
9.82199108395072
 20
1.725935899075101
 30
0.0
 40
0.1099999999946384
100
AcDbArc
 50
359.9999999964544
 51
179.9999999964544
  0
ARC
  5
B0
330
70
100
AcDbEntity
  8
D-Tower (by TFrames) v11_Sketch1
100
AcDbCircle
 10
9.221991083950481
 20
1.125935899067063
 30
0.0
 40
0.1100000000012535
100
AcDbArc
 50
89.99999999998889
 51
269.9999999999889
  0
ARC
  5
B1
330
70
100
AcDbEntity
  8
D-Tower (by TFrames) v11_Sketch1
100
AcDbCircle
 10
9.82199108395185
 20
0.525935899068295
 30
0.0
 40
0.1099999999998857
100
AcDbArc
 50
179.9999999999593
 51
359.9999999999593
  0
ARC
  5
B2
330
70
100
AcDbEntity
  8
D-Tower (by TFrames) v11_Sketch1
100
AcDbCircle
 10
9.371991083942258
 20
9.646572612368281
 30
0.0
 40
0.1100000000063197
100
AcDbArc
 50
270.0
 51
90.0
  0
LINE
  5
B3
330
70
100
AcDbEntity
  8
D-Tower (by TFrames) v11_Sketch1
100
AcDbLine
 10
1.411354370653927
 20
9.196572612366185
 30
0.0
 11
1.411354370653962
 21
9.046572612366212
 31
0.0
  0
ARC
  5
B4
330
70
100
AcDbEntity
  8
D-Tower (by TFrames) v11_Sketch1
100
AcDbCircle
 10
10.42199108394969
 20
1.125935899073126
 30
0.0
 40
0.1100000000178285
100
AcDbArc
 50
270.0000000000259
 51
90.00000000002591
  0
LINE
  5
B5
330
70
100
AcDbEntity
  8
D-Tower (by TFrames) v11_Sketch1
100
AcDbLine
 10
1.547547363714795
 20
1.972128892129125
 30
0.0
 11
3.369504591674135
 21
3.794086120088464
 31
0.0
  0
LINE
  5
B6
330
70
100
AcDbEntity
  8
D-Tower (by TFrames) v11_Sketch1
100
AcDbLine
 10
0.701354370653962
 20
9.756572612366184
 30
0.0
 11
0.8513543706539676
 21
9.756572612366024
 31
0.0
  0
LINE
  5
B7
330
70
100
AcDbEntity
  8
D-Tower (by TFrames) v11_Sketch1
100
AcDbLine
 10
1.191354370653967
 20
10.24657261236618
 30
0.0
 11
1.191354370654067
 21
10.09657261236618
 31
0.0
  0
ARC
  5
B8
330
70
100
AcDbEntity
  8
D-Tower (by TFrames) v11_Sketch1
100
AcDbCircle
 10
0.8513543706539641
 20
9.646572612366181
 30
0.0
 40
0.1099999999998396
100
AcDbArc
 50
270.0
 51
90.0
  0
ARC
  5
B9
330
70
100
AcDbEntity
  8
D-Tower (by TFrames) v11_Sketch1
100
AcDbCircle
 10
9.821991083951857
 20
9.046572612366183
 30
0.0
 40
0.1100000000000065
100
AcDbArc
 50
180.0000000000018
 51
0.0000000000018505
  0
LINE
  5
BA
330
70
100
AcDbEntity
  8
D-Tower (by TFrames) v11_Sketch1
100
AcDbLine
 10
1.751354370653966
 20
9.756572612366188
 30
0.0
 11
1.901354370653963
 21
9.756572612366237
 31
0.0
  0
LINE
  5
BB
330
70
100
AcDbEntity
  8
D-Tower (by TFrames) v11_Sketch1
100
AcDbLine
 10
1.751354370653962
 20
9.536572612366182
 30
0.0
 11
1.901365334985631
 21
9.536572612912571
 31
0.0
  0
LINE
  5
BC
330
70
100
AcDbEntity
  8
D-Tower (by TFrames) v11_Sketch1
100
AcDbLine
 10
1.411354370654044
 20
1.575935899068297
 30
0.0
 11
1.411354370653964
 21
1.725935899068296
 31
0.0
  0
LINE
  5
BD
330
70
100
AcDbEntity
  8
D-Tower (by TFrames) v11_Sketch1
100
AcDbLine
 10
1.75135437065396
 20
1.015935899068295
 30
0.0
 11
1.901354370653959
 21
1.015935899068242
 31
0.0
  0
LINE
  5
BE
330
70
100
AcDbEntity
  8
D-Tower (by TFrames) v11_Sketch1
100
AcDbLine
 10
1.901354370654
 20
1.235935899068348
 30
0.0
 11
1.751354370653827
 21
1.235935899068295
 31
0.0
  0
ARC
  5
BF
330
70
100
AcDbEntity
  8
D-Tower (by TFrames) v11_Sketch1
100
AcDbCircle
 10
1.751354370653964
 20
1.125935899068296
 30
0.0
 40
0.1099999999999994
100
AcDbArc
 50
90.00000000007124
 51
270.0000000000712
  0
LINE
  5
C0
330
70
100
AcDbEntity
  8
D-Tower (by TFrames) v11_Sketch1
100
AcDbLine
 10
1.191354370653962
 20
0.5259358990682959
 30
0.0
 11
1.191354370653919
 21
0.6759358990682446
 31
0.0
  0
LINE
  5
C1
330
70
100
AcDbEntity
  8
D-Tower (by TFrames) v11_Sketch1
100
AcDbLine
 10
9.711991083951964
 20
0.5259358990683732
 30
0.0
 11
9.711991083951861
 21
0.6759358990681159
 31
0.0
  0
LINE
  5
C2
330
70
100
AcDbEntity
  8
D-Tower (by TFrames) v11_Sketch1
100
AcDbLine
 10
0.701354370653962
 20
1.015935899068296
 30
0.0
 11
0.8513543706539605
 21
1.015935899068122
 31
0.0
  0
LINE
  5
C3
330
70
100
AcDbEntity
  8
D-Tower (by TFrames) v11_Sketch1
100
AcDbLine
 10
10.42199108395185
 20
1.235935899090955
 30
0.0
 11
10.27199108395652
 21
1.235935899090877
 31
0.0
  0
LINE
  5
C4
330
70
100
AcDbEntity
  8
D-Tower (by TFrames) v11_Sketch1
100
AcDbLine
 10
1.411354370653961
 20
0.5259358990683288
 30
0.0
 11
1.411354370654007
 21
0.6759358990682331
 31
0.0
  0
LINE
  5
C5
330
70
100
AcDbEntity
  8
D-Tower (by TFrames) v11_Sketch1
100
AcDbLine
 10
9.371991083951858
 20
1.015935899065824
 30
0.0
 11
9.221991083951667
 21
1.01593589906827
 31
0.0
  0
ARC
  5
C6
330
70
100
AcDbEntity
  8
D-Tower (by TFrames) v11_Sketch1
100
AcDbCircle
 10
10.27199108395658
 20
1.125935899073048
 30
0.0
 40
0.1100000000178287
100
AcDbArc
 50
90.00000000002961
 51
270.0000000000296
  0
LINE
  5
C7
330
70
100
AcDbEntity
  8
D-Tower (by TFrames) v11_Sketch1
100
AcDbLine
 10
4.186116631923969
 20
5.226254255717261
 30
0.0
 11
4.158562421110651
 21
5.226254255717261
 31
0.0
  0
ARC
  5
C8
330
70
100
AcDbEntity
  8
D-Tower (by TFrames) v11_Sketch1
100
AcDbCircle
 10
9.821991083954575
 20
1.125935899053939
 30
0.0
 40
0.7999999999950846
100
AcDbArc
 50
224.9999999991338
 51
269.9999999999906
  0
LINE
  5
C9
330
70
100
AcDbEntity
  8
D-Tower (by TFrames) v11_Sketch1
100
AcDbLine
 10
0.6513543706539613
 20
0.3259358990683143
 30
0.0
 11
1.301354370653963
 21
0.3259358990682983
 31
0.0
  0
CIRCLE
  5
CA
330
70
100
AcDbEntity
  8
D-Tower (by TFrames) v11_Sketch1
100
AcDbCircle
 10
1.301354370653965
 20
9.646572612366185
 30
0.0
 40
0.2599999999999998
  0
ARC
  5
CB
330
70
100
AcDbEntity
  8
D-Tower (by TFrames) v11_Sketch1
100
AcDbCircle
 10
9.344612409125712
 20
5.385300546370007
 30
0.0
 40
2.250000000013706
100
AcDbArc
 50
135.0136978454333
 51
172.5555991700037
  0
LINE
  5
CC
330
70
100
AcDbEntity
  8
D-Tower (by TFrames) v11_Sketch1
100
AcDbLine
 10
10.42199108395185
 20
9.75657261235014
 30
0.0
 11
10.27199108395357
 21
9.756572612350932
 31
0.0
  0
CIRCLE
  5
CD
330
70
100
AcDbEntity
  8
D-Tower (by TFrames) v11_Sketch1
100
AcDbCircle
 10
9.821991083954582
 20
1.125935899053939
 30
0.0
 40
0.2599999999999998
  0
ARC
  5
CE
330
70
100
AcDbEntity
  8
D-Tower (by TFrames) v11_Sketch1
100
AcDbCircle
 10
5.251672730933629
 20
6.761810399587146
 30
0.0
 40
0.1499999999948743
100
AcDbArc
 50
270.0000044737576
 51
0.000000486196382
  0
ARC
  5
CF
330
70
100
AcDbEntity
  8
D-Tower (by TFrames) v11_Sketch1
100
AcDbCircle
 10
5.25167278393779
 20
3.967375583424001
 30
0.0
 40
0.1500000000000016
100
AcDbArc
 50
277.7782854787824
 51
359.9999915549933
  0
ARC
  5
D0
330
70
100
AcDbEntity
  8
D-Tower (by TFrames) v11_Sketch1
100
AcDbCircle
 10
1.778514334004408
 20
5.385076377758197
 30
0.0
 40
2.249999999999997
100
AcDbArc
 50
7.449798068417111
 51
44.97933616271295
  0
ARC
  5
D1
330
70
100
AcDbEntity
  8
D-Tower (by TFrames) v11_Sketch1
100
AcDbCircle
 10
4.186116631923944
 20
5.696254255717255
 30
0.0
 40
0.1500000000000003
100
AcDbArc
 50
270.0000000000027
 51
0.0000000000020356
  0
ARC
  5
D2
330
70
100
AcDbEntity
  8
D-Tower (by TFrames) v11_Sketch1
100
AcDbCircle
 10
5.871672790323239
 20
4.01069809067538
 30
0.0
 40
0.1500000000000011
100
AcDbArc
 50
89.99999155499393
 51
179.9999915549926
  0
LINE
  5
D3
330
70
100
AcDbEntity
  8
D-Tower (by TFrames) v11_Sketch1
100
AcDbLine
 10
9.711991083951854
 20
10.09657261236619
 30
0.0
 11
9.711991083951858
 21
10.2465726123662
 31
0.0
  0
ARC
  5
D4
330
70
100
AcDbEntity
  8
D-Tower (by TFrames) v11_Sketch1
100
AcDbCircle
 10
4.186116631923972
 20
5.076254255717261
 30
0.0
 40
0.1499999999999986
100
AcDbArc
 50
0.0000000000020356
 51
90.00000000000136
  0
ARC
  5
D5
330
70
100
AcDbEntity
  8
D-Tower (by TFrames) v11_Sketch1
100
AcDbCircle
 10
6.964593420092255
 20
5.076254252320129
 30
0.0
 40
0.149999999992744
100
AcDbArc
 50
7.398480040665234
 51
90.00000048619638
  0
ARC
  5
D6
330
70
100
AcDbEntity
  8
D-Tower (by TFrames) v11_Sketch1
100
AcDbCircle
 10
5.871672730932958
 20
6.761810448043879
 30
0.0
 40
0.1500000000058357
100
AcDbArc
 50
180.000000486197
 51
270.0000044731388
  0
ARC
  5
D7
330
70
100
AcDbEntity
  8
D-Tower (by TFrames) v11_Sketch1
100
AcDbCircle
 10
0.6513543706535155
 20
10.29657261236662
 30
0.0
 40
0.1499999999999986
100
AcDbArc
 50
89.99999999996065
 51
180.0000000000407
  0
LINE
  5
D8
330
70
100
AcDbEntity
  8
D-Tower (by TFrames) v11_Sketch1
100
AcDbLine
 10
0.5013543706539645
 20
1.125935899068296
 30
0.0
 11
0.5013543706539645
 21
0.4759358990683138
 31
0.0
  0
ARC
  5
D9
330
70
100
AcDbEntity
  8
D-Tower (by TFrames) v11_Sketch1
100
AcDbCircle
 10
0.6513543706539667
 20
0.4759358990683138
 30
0.0
 40
0.1500000000000021
100
AcDbArc
 50
180.0
 51
269.999999999998
  0
ARC
  5
DA
330
70
100
AcDbEntity
  8
D-Tower (by TFrames) v11_Sketch1
100
AcDbCircle
 10
6.964841875477107
 20
5.696254252323843
 30
0.0
 40
0.1500000000005865
100
AcDbArc
 50
270.0000004861977
 51
352.5555991700024
  0
ARC
  5
DB
330
70
100
AcDbEntity
  8
D-Tower (by TFrames) v11_Sketch1
100
AcDbCircle
 10
5.561672727296167
 20
9.168234771068938
 30
0.0
 40
2.249999999997082
100
AcDbArc
 50
277.4214399180789
 51
314.999999999901
  0
ARC
  5
DC
330
70
100
AcDbEntity
  8
D-Tower (by TFrames) v11_Sketch1
100
AcDbCircle
 10
5.576488974211819
 20
1.589457493468876
 30
0.0
 40
2.249999999999992
100
AcDbArc
 50
45.00000000000006
 51
82.93511652720788
  0
LINE
  5
DD
330
70
100
AcDbEntity
  8
D-Tower (by TFrames) v11_Sketch1
100
AcDbLine
 10
6.937228974635948
 20
5.546254252088941
 30
0.0
 11
6.96484187674997
 21
5.546254252323256
 31
0.0
  0
LINE
  5
DE
330
70
100
AcDbEntity
  8
D-Tower (by TFrames) v11_Sketch1
100
AcDbLine
 10
5.401672790323244
 20
4.010698159950178
 30
0.0
 11
5.401672783937785
 21
3.967375561315025
 31
0.0
  0
LINE
  5
DF
330
70
100
AcDbEntity
  8
D-Tower (by TFrames) v11_Sketch1
100
AcDbLine
 10
1.301354370654505
 20
10.44657261236618
 30
0.0
 11
0.6513543706536185
 21
10.44657261236662
 31
0.0
  0
ARC
  5
E0
330
70
100
AcDbEntity
  8
D-Tower (by TFrames) v11_Sketch1
100
AcDbCircle
 10
1.301354370653963
 20
1.125935899068295
 30
0.0
 40
0.7999999999999979
100
AcDbArc
 50
135.0
 51
179.9999999999999
  0
LINE
  5
E1
330
70
100
AcDbEntity
  8
D-Tower (by TFrames) v11_Sketch1
100
AcDbLine
 10
4.336116631923971
 20
5.076254255717266
 30
0.0
 11
4.336116631923989
 21
4.755674116602609
 31
0.0
  0
CIRCLE
  5
E2
330
70
100
AcDbEntity
  8
D-Tower (by TFrames) v11_Sketch1
100
AcDbCircle
 10
1.301354370653963
 20
1.125935899068295
 30
0.0
 40
0.2599999999999998
  0
LINE
  5
E3
330
70
100
AcDbEntity
  8
D-Tower (by TFrames) v11_Sketch1
100
AcDbLine
 10
6.937228977353013
 20
5.226254252080677
 30
0.0
 11
6.964593418819395
 21
5.226254252312878
 31
0.0
  0
LINE
  5
E4
330
70
100
AcDbEntity
  8
D-Tower (by TFrames) v11_Sketch1
100
AcDbLine
 10
10.27199108395185
 20
9.536572612381956
 30
0.0
 11
10.42199108394993
 21
9.536572612382759
 31
0.0
  0
ARC
  5
E5
330
70
100
AcDbEntity
  8
D-Tower (by TFrames) v11_Sketch1
100
AcDbCircle
 10
6.937228973363081
 20
5.696254252094778
 30
0.0
 40
0.1500000000058392
100
AcDbArc
 50
180.0000004863395
 51
270.0000004861991
  0
ARC
  5
E6
330
70
100
AcDbEntity
  8
D-Tower (by TFrames) v11_Sketch1
100
AcDbCircle
 10
5.576488974211819
 20
1.589457493468876
 30
0.0
 40
2.249999999999991
100
AcDbArc
 50
97.77828547878275
 51
134.5522634818336
  0
ARC
  5
E7
330
70
100
AcDbEntity
  8
D-Tower (by TFrames) v11_Sketch1
100
AcDbCircle
 10
5.871672730702586
 20
6.788339815849946
 30
0.0
 40
0.1500000000005806
100
AcDbArc
 50
97.42143991807788
 51
180.0000004861977
  0
ARC
  5
E8
330
70
100
AcDbEntity
  8
D-Tower (by TFrames) v11_Sketch1
100
AcDbCircle
 10
9.821991083954575
 20
1.125935899053939
 30
0.0
 40
0.7999999999950846
100
AcDbArc
 50
224.9999999991338
 51
269.9999999999906
  0
LINE
  5
E9
330
70
100
AcDbEntity
  8
D-Tower (by TFrames) v11_Sketch1
100
AcDbLine
 10
0.5013543706535169
 20
10.29657261236651
 30
0.0
 11
0.5013543706539663
 21
9.646572612366185
 31
0.0
  0
ARC
  5
EA
330
70
100
AcDbEntity
  8
D-Tower (by TFrames) v11_Sketch1
100
AcDbCircle
 10
1.301354370653965
 20
9.646572612366185
 30
0.0
 40
0.7999999999999998
100
AcDbArc
 50
44.99999999999991
 51
89.99999999996134
  0
ARC
  5
EB
330
70
100
AcDbEntity
  8
D-Tower (by TFrames) v11_Sketch1
100
AcDbCircle
 10
1.301354370653965
 20
9.646572612366185
 30
0.0
 40
0.799999999999999
100
AcDbArc
 50
180.0
 51
225.0
  0
ARC
  5
EC
330
70
100
AcDbEntity
  8
D-Tower (by TFrames) v11_Sketch1
100
AcDbCircle
 10
1.301354370653963
 20
1.125935899068295
 30
0.0
 40
0.799999999999997
100
AcDbArc
 50
270.0
 51
314.9999999999999
  0
LINE
  5
ED
330
70
100
AcDbEntity
  8
D-Tower (by TFrames) v11_Sketch1
100
AcDbLine
 10
5.401672730928501
 20
6.761810400860005
 30
0.0
 11
5.401672730703383
 21
6.788339816236447
 31
0.0
  0
LINE
  5
EE
330
70
100
AcDbEntity
  8
D-Tower (by TFrames) v11_Sketch1
100
AcDbLine
 10
9.711991083951851
 20
9.04657261236618
 30
0.0
 11
9.711991083951854
 21
9.196572612366139
 31
0.0
  0
ARC
  5
EF
330
70
100
AcDbEntity
  8
D-Tower (by TFrames) v11_Sketch1
100
AcDbCircle
 10
5.251672790323246
 20
4.010698182059152
 30
0.0
 40
0.1500000000000002
100
AcDbArc
 50
359.9999915549939
 51
89.99999155499258
  0
ARC
  5
F0
330
70
100
AcDbEntity
  8
D-Tower (by TFrames) v11_Sketch1
100
AcDbCircle
 10
5.251672730702798
 20
6.788339814963586
 30
0.0
 40
0.1500000000005848
100
AcDbArc
 50
0.0000004861970605
 51
82.57856024594124
  0
ARC
  5
F1
330
70
100
AcDbEntity
  8
D-Tower (by TFrames) v11_Sketch1
100
AcDbCircle
 10
4.158255565371568
 20
5.696254255717255
 30
0.0
 40
0.1500000000000006
100
AcDbArc
 50
187.4497980684159
 51
270.0000000000013
  0
LINE
  5
F2
330
70
100
AcDbEntity
  8
D-Tower (by TFrames) v11_Sketch1
100
AcDbLine
 10
9.221991083952055
 20
9.536572612361954
 30
0.0
 11
9.371991083942258
 21
9.536572612361961
 31
0.0
  0
LINE
  5
F3
330
70
100
AcDbEntity
  8
D-Tower (by TFrames) v11_Sketch1
100
AcDbLine
 10
4.931091360436608
 20
6.611810374560697
 30
0.0
 11
5.251672742645899
 21
6.611810399592272
 31
0.0
  0
LINE
  5
F4
330
70
100
AcDbEntity
  8
D-Tower (by TFrames) v11_Sketch1
100
AcDbLine
 10
5.721672730927123
 20
6.761810446771018
 30
0.0
 11
5.721672730702001
 21
6.788339814577083
 31
0.0
  0
ARC
  5
F5
330
70
100
AcDbEntity
  8
D-Tower (by TFrames) v11_Sketch1
100
AcDbCircle
 10
5.871672784506726
 20
3.971235509602989
 30
0.0
 40
0.1500000000000002
100
AcDbArc
 50
179.9999915549939
 51
262.9351165272073
  0
ARC
  5
F6
330
70
100
AcDbEntity
  8
D-Tower (by TFrames) v11_Sketch1
100
AcDbCircle
 10
6.937228978625872
 20
5.076254252074837
 30
0.0
 40
0.1500000000058392
100
AcDbArc
 50
90.00000048619638
 51
180.0000004881668
  0
ARC
  5
F7
330
70
100
AcDbEntity
  8
D-Tower (by TFrames) v11_Sketch1
100
AcDbCircle
 10
1.778514334004408
 20
5.385076377758197
 30
0.0
 40
2.249999999999997
100
AcDbArc
 50
314.9999999999999
 51
352.6069165681432
  0
LINE
  5
F8
330
70
100
AcDbEntity
  8
D-Tower (by TFrames) v11_Sketch1
100
AcDbLine
 10
6.192254206228808
 20
4.160698043423868
 30
0.0
 11
5.871672812432214
 21
4.16069809067538
 31
0.0
  0
LINE
  5
F9
330
70
100
AcDbEntity
  8
D-Tower (by TFrames) v11_Sketch1
100
AcDbLine
 10
6.787228970644912
 20
6.015794733977919
 30
0.0
 11
6.787228973357242
 21
5.696254250821544
 31
0.0
  0
LINE
  5
FA
330
70
100
AcDbEntity
  8
D-Tower (by TFrames) v11_Sketch1
100
AcDbLine
 10
4.336116631923932
 20
6.015795082149853
 30
0.0
 11
4.336116631923946
 21
5.69625425571726
 31
0.0
  0
LINE
  5
FB
330
70
100
AcDbEntity
  8
D-Tower (by TFrames) v11_Sketch1
100
AcDbLine
 10
9.37199108395189
 20
9.756572612374121
 30
0.0
 11
9.221991083958013
 21
9.756572612374593
 31
0.0
  0
LINE
  5
FC
330
70
100
AcDbEntity
  8
D-Tower (by TFrames) v11_Sketch1
100
AcDbLine
 10
5.871672742643609
 20
6.611810448038045
 30
0.0
 11
6.192254199081146
 21
6.611810473066149
 31
0.0
  0
LINE
  5
FD
330
70
100
AcDbEntity
  8
D-Tower (by TFrames) v11_Sketch1
100
AcDbLine
 10
9.93199108395186
 20
9.046572612366183
 30
0.0
 11
9.931991083951857
 21
9.196572612366214
 31
0.0
  0
LINE
  5
FE
330
70
100
AcDbEntity
  8
D-Tower (by TFrames) v11_Sketch1
100
AcDbLine
 10
6.787228978620246
 20
5.07625425079682
 30
0.0
 11
6.787228981341817
 21
4.755564439096795
 31
0.0
  0
LINE
  5
FF
330
70
100
AcDbEntity
  8
D-Tower (by TFrames) v11_Sketch1
100
AcDbLine
 10
5.721672790323237
 20
4.010698112784358
 30
0.0
 11
5.721672784506727
 21
3.971235531711963
 31
0.0
  0
CIRCLE
  5
100
330
70
100
AcDbEntity
  8
D-Tower (by TFrames) v11_Sketch1
100
AcDbCircle
 10
9.821991083951857
 20
9.646572612366181
 30
0.0
 40
0.2600000000000016
  0
LINE
  5
101
330
70
100
AcDbEntity
  8
D-Tower (by TFrames) v11_Sketch1
100
AcDbLine
 10
5.251672812432223
 20
4.160698182059148
 30
0.0
 11
4.93211912892219
 21
4.160698229159176
 31
0.0
  0
LINE
  5
102
330
70
100
AcDbEntity
  8
D-Tower (by TFrames) v11_Sketch1
100
AcDbLine
 10
4.186116631923951
 20
5.546254255717254
 30
0.0
 11
4.158255565371572
 21
5.546254255717256
 31
0.0
  0
ARC
  5
103
330
70
100
AcDbEntity
  8
D-Tower (by TFrames) v11_Sketch1
100
AcDbCircle
 10
5.561672727296167
 20
9.168234771068938
 30
0.0
 40
2.249999999995993
100
AcDbArc
 50
225.0000000000359
 51
262.5785602459414
  0
ARC
  5
104
330
70
100
AcDbEntity
  8
D-Tower (by TFrames) v11_Sketch1
100
AcDbCircle
 10
9.344612409125712
 20
5.385300546370004
 30
0.0
 40
2.250000000012631
100
AcDbArc
 50
187.3984800406616
 51
224.9982124287644
  0
ARC
  5
105
330
70
100
AcDbEntity
  8
D-Tower (by TFrames) v11_Sketch1
100
AcDbCircle
 10
9.821991083957733
 20
1.125935899061547
 30
0.0
 40
0.8000000000026975
100
AcDbArc
 50
224.9999999993592
 51
269.9999999997644
  0
ARC
  5
106
330
70
100
AcDbEntity
  8
D-Tower (by TFrames) v11_Sketch1
100
AcDbCircle
 10
4.158562421110655
 20
5.076254255717259
 30
0.0
 40
0.1500000000000021
100
AcDbArc
 50
90.00000000000136
 51
172.6069165681433
  0
LINE
  5
107
330
70
100
AcDbEntity
  8
D-Tower (by TFrames) v11_Sketch1
100
AcDbLine
 10
10.62199108395245
 20
9.646572612301927
 30
0.0
 11
10.62199108395245
 21
10.29657261236622
 31
0.0
  0
LINE
  5
108
330
70
100
AcDbEntity
  8
D-Tower (by TFrames) v11_Sketch1
100
AcDbLine
 10
1.051354370653968
 20
0.7259358990683129
 30
0.0
 11
1.051354370653966
 21
0.6259358990683168
 31
0.0
  0
LINE
  5
109
330
70
100
AcDbEntity
  8
D-Tower (by TFrames) v11_Sketch1
100
AcDbLine
 10
4.512893458929456
 20
6.140597015951682
 30
0.0
 11
4.512893443124474
 21
4.631911479677647
 31
0.0
  0
ARC
  5
10A
330
70
100
AcDbEntity
  8
D-Tower (by TFrames) v11_Sketch1
100
AcDbCircle
 10
6.463233873313731
 20
4.631911363769798
 30
0.0
 40
0.1472182540674254
100
AcDbArc
 50
179.9999999999945
 51
359.9999999999945
  0
LINE
  5
10B
330
70
100
AcDbEntity
  8
D-Tower (by TFrames) v11_Sketch1
100
AcDbLine
 10
9.081864108069023
 20
1.478194909307094
 30
0.0
 11
6.545807518926897
 21
4.014251438215745
 31
0.0
  0
ARC
  5
10C
330
70
100
AcDbEntity
  8
D-Tower (by TFrames) v11_Sketch1
100
AcDbCircle
 10
0.9013543706539666
 20
0.6259358990683177
 30
0.0
 40
0.1500000000000002
100
AcDbArc
 50
270.0000000000013
 51
359.9999999999996
  0
ARC
  5
10D
330
70
100
AcDbEntity
  8
D-Tower (by TFrames) v11_Sketch1
100
AcDbCircle
 10
0.8013543706535122
 20
10.14657261236662
 30
0.0
 40
0.1499999999999986
100
AcDbArc
 50
89.99999999999934
 51
179.9999999999986
  0
ARC
  5
10E
330
70
100
AcDbEntity
  8
D-Tower (by TFrames) v11_Sketch1
100
AcDbCircle
 10
10.2219910839431
 20
0.6259358990582448
 30
0.0
 40
0.1500000000000057
100
AcDbArc
 50
180.0000000000285
 51
270.0000000000271
  0
ARC
  5
10F
330
70
100
AcDbEntity
  8
D-Tower (by TFrames) v11_Sketch1
100
AcDbCircle
 10
0.9013543706535172
 20
10.04657261236662
 30
0.0
 40
0.1500000000000021
100
AcDbArc
 50
270.0
 51
0.0
  0
ARC
  5
110
330
70
100
AcDbEntity
  8
D-Tower (by TFrames) v11_Sketch1
100
AcDbCircle
 10
10.47199108394319
 20
0.4759358990583725
 30
0.0
 40
0.1499999999999986
100
AcDbArc
 50
269.9999999999919
 51
359.9999999999729
  0
ARC
  5
111
330
70
100
AcDbEntity
  8
D-Tower (by TFrames) v11_Sketch1
100
AcDbCircle
 10
0.9013543706535136
 20
10.14657261236662
 30
0.0
 40
0.1500000000000021
100
AcDbArc
 50
0.0
 51
89.99999999999934
  0
LINE
  5
112
330
70
100
AcDbEntity
  8
D-Tower (by TFrames) v11_Sketch1
100
AcDbLine
 10
0.6513543706539684
 20
0.6259358990683159
 30
0.0
 11
0.6513543706539684
 21
0.7259358990683137
 31
0.0
  0
LINE
  5
113
330
70
100
AcDbEntity
  8
D-Tower (by TFrames) v11_Sketch1
100
AcDbLine
 10
0.9013543706539701
 20
0.4759358990683174
 30
0.0
 11
0.8013543706539687
 21
0.4759358990683156
 31
0.0
  0
LINE
  5
114
330
70
100
AcDbEntity
  8
D-Tower (by TFrames) v11_Sketch1
100
AcDbLine
 10
2.041481346540947
 20
9.294313602132117
 30
0.0
 11
4.577537928439225
 21
6.758256986330648
 31
0.0
  0
ARC
  5
115
330
70
100
AcDbEntity
  8
D-Tower (by TFrames) v11_Sketch1
100
AcDbCircle
 10
0.8013543706535122
 20
10.04657261236662
 30
0.0
 40
0.1500000000000003
100
AcDbArc
 50
180.0
 51
270.0
  0
LINE
  5
116
330
70
100
AcDbEntity
  8
D-Tower (by TFrames) v11_Sketch1
100
AcDbLine
 10
6.610452127384926
 20
6.140597147660919
 30
0.0
 11
6.610452127381149
 21
4.631911363769782
 31
0.0
  0
LINE
  5
117
330
70
100
AcDbEntity
  8
D-Tower (by TFrames) v11_Sketch1
100
AcDbLine
 10
1.653613380892779
 20
1.866062874951143
 30
0.0
 11
4.189670106821221
 21
4.402120810313288
 31
0.0
  0
ARC
  5
118
330
70
100
AcDbEntity
  8
D-Tower (by TFrames) v11_Sketch1
100
AcDbCircle
 10
1.600023969441756
 20
8.852928549449753
 30
0.0
 40
0.0749999999999993
100
AcDbArc
 50
44.97933616270965
 51
224.9793361627097
  0
ARC
  5
119
330
70
100
AcDbEntity
  8
D-Tower (by TFrames) v11_Sketch1
100
AcDbCircle
 10
1.600580372303789
 20
1.919095883540133
 30
0.0
 40
0.0750000000000024
100
AcDbArc
 50
135.0000000000009
 51
315.000000000001
  0
ARC
  5
11A
330
70
100
AcDbEntity
  8
D-Tower (by TFrames) v11_Sketch1
100
AcDbCircle
 10
2.094243637342045
 20
1.423865603929191
 30
0.0
 40
0.074999999999998
100
AcDbArc
 50
134.5522634818333
 51
314.5522634818334
  0
LINE
  5
11B
330
70
100
AcDbEntity
  8
D-Tower (by TFrames) v11_Sketch1
100
AcDbLine
 10
10.47199108395778
 20
0.7259358991061937
 30
0.0
 11
10.47199108395783
 21
0.6259358990583763
 31
0.0
  0
LINE
  5
11C
330
70
100
AcDbEntity
  8
D-Tower (by TFrames) v11_Sketch1
100
AcDbLine
 10
10.62199108394353
 20
1.125935899048913
 30
0.0
 11
10.62199108394318
 21
0.4759358990583014
 31
0.0
  0
ARC
  5
11D
330
70
100
AcDbEntity
  8
D-Tower (by TFrames) v11_Sketch1
100
AcDbCircle
 10
9.821991083885585
 20
9.646572612301927
 30
0.0
 40
0.8000000000668734
100
AcDbArc
 50
89.99999999977481
 51
134.9999999933895
  0
LINE
  5
11E
330
70
100
AcDbEntity
  8
D-Tower (by TFrames) v11_Sketch1
100
AcDbLine
 10
4.807329851627175
 20
6.140597032221528
 30
0.0
 11
4.80732993499352
 21
4.631911495947502
 31
0.0
  0
ARC
  5
11F
330
70
100
AcDbEntity
  8
D-Tower (by TFrames) v11_Sketch1
100
AcDbCircle
 10
6.463233873315692
 20
6.140597147660935
 30
0.0
 40
0.1472182540692337
100
AcDbArc
 50
359.9999999999938
 51
179.9999999999938
  0
ARC
  5
120
330
70
100
AcDbEntity
  8
D-Tower (by TFrames) v11_Sketch1
100
AcDbCircle
 10
4.660111689058995
 20
4.631911487812574
 30
0.0
 40
0.1472182459345215
100
AcDbArc
 50
180.0000031660274
 51
0.0000031660274419
  0
LINE
  5
121
330
70
100
AcDbEntity
  8
D-Tower (by TFrames) v11_Sketch1
100
AcDbLine
 10
2.041626668980184
 20
1.477311414245873
 30
0.0
 11
4.578565580328378
 21
4.01425153544848
 31
0.0
  0
LINE
  5
122
330
70
100
AcDbEntity
  8
D-Tower (by TFrames) v11_Sketch1
100
AcDbLine
 10
0.6513543706535119
 20
10.04657261236662
 30
0.0
 11
0.6513543706535172
 21
10.14657261236662
 31
0.0
  0
ARC
  5
123
330
70
100
AcDbEntity
  8
D-Tower (by TFrames) v11_Sketch1
100
AcDbCircle
 10
2.094514355129637
 20
9.347346610721405
 30
0.0
 40
0.0749999999999986
100
AcDbArc
 50
44.99999999974668
 51
224.9999999997467
  0
ARC
  5
124
330
70
100
AcDbEntity
  8
D-Tower (by TFrames) v11_Sketch1
100
AcDbCircle
 10
0.9013543706539666
 20
0.7259358990683137
 30
0.0
 40
0.1500000000000021
100
AcDbArc
 50
359.9999999999996
 51
90.0
  0
ARC
  5
125
330
70
100
AcDbEntity
  8
D-Tower (by TFrames) v11_Sketch1
100
AcDbCircle
 10
10.47199108395245
 20
10.29657261236623
 30
0.0
 40
0.1500000000000057
100
AcDbArc
 50
359.9999999999959
 51
89.99999999977474
  0
LINE
  5
126
330
70
100
AcDbEntity
  8
D-Tower (by TFrames) v11_Sketch1
100
AcDbLine
 10
9.081864108056524
 20
9.29431360214285
 30
0.0
 11
6.54580754800772
 21
6.758257079841664
 31
0.0
  0
LINE
  5
127
330
70
100
AcDbEntity
  8
D-Tower (by TFrames) v11_Sketch1
100
AcDbLine
 10
6.316015619246305
 20
4.631911363769813
 30
0.0
 11
6.316015619246455
 21
6.140597147660949
 31
0.0
  0
ARC
  5
128
330
70
100
AcDbEntity
  8
D-Tower (by TFrames) v11_Sketch1
100
AcDbCircle
 10
9.522714070182043
 20
1.919038650676847
 30
0.0
 40
0.075
100
AcDbArc
 50
224.9982124292063
 51
44.99821242920627
  0
ARC
  5
129
330
70
100
AcDbEntity
  8
D-Tower (by TFrames) v11_Sketch1
100
AcDbCircle
 10
7.287228981341794
 20
4.755564443340091
 30
0.0
 40
0.4999999999999769
100
AcDbArc
 50
180.0000004862458
 51
225.0000006804125
  0
ARC
  5
12A
330
70
100
AcDbEntity
  8
D-Tower (by TFrames) v11_Sketch1
100
AcDbCircle
 10
3.836116631923922
 20
6.015795082149825
 30
0.0
 40
0.5000000000000098
100
AcDbArc
 50
0.0000000000032569
 51
44.99999961701181
  0
ARC
  5
12B
330
70
100
AcDbEntity
  8
D-Tower (by TFrames) v11_Sketch1
100
AcDbCircle
 10
9.821991083885585
 20
9.646572612301927
 30
0.0
 40
0.8000000000668666
100
AcDbArc
 50
315.0000000066102
 51
0.0
  0
ARC
  5
12C
330
70
100
AcDbEntity
  8
D-Tower (by TFrames) v11_Sketch1
100
AcDbCircle
 10
9.028831099480033
 20
1.425161900718104
 30
0.0
 40
0.0750000000000024
100
AcDbArc
 50
224.999999999999
 51
44.99999999999904
  0
ARC
  5
12D
330
70
100
AcDbEntity
  8
D-Tower (by TFrames) v11_Sketch1
100
AcDbCircle
 10
4.93109132139571
 20
7.111810374560672
 30
0.0
 40
0.4999999999999727
100
AcDbArc
 50
224.9999996170221
 51
270.0000044737574
  0
ARC
  5
12E
330
70
100
AcDbEntity
  8
D-Tower (by TFrames) v11_Sketch1
100
AcDbCircle
 10
9.821991083952674
 20
1.125935899049337
 30
0.0
 40
0.7999999999908561
100
AcDbArc
 50
359.9999999999696
 51
45.00000000099984
  0
LINE
  5
12F
330
70
100
AcDbEntity
  8
D-Tower (by TFrames) v11_Sketch1
100
AcDbLine
 10
0.801354370653514
 20
10.29657261236662
 30
0.0
 11
0.9013543706535154
 21
10.29657261236662
 31
0.0
  0
LINE
  5
130
330
70
100
AcDbEntity
  8
D-Tower (by TFrames) v11_Sketch1
100
AcDbLine
 10
9.470263892484673
 20
8.905936403498785
 30
0.0
 11
6.933675582682431
 21
6.369348131446098
 31
0.0
  0
ARC
  5
131
330
70
100
AcDbEntity
  8
D-Tower (by TFrames) v11_Sketch1
100
AcDbCircle
 10
6.192254132532212
 20
3.66069804342386
 30
0.0
 40
0.5000000000000157
100
AcDbArc
 50
45.00000068041223
 51
89.99999155499223
  0
LINE
  5
132
330
70
100
AcDbEntity
  8
D-Tower (by TFrames) v11_Sketch1
100
AcDbLine
 10
1.051354370653515
 20
10.14657261236662
 30
0.0
 11
1.051354370653517
 21
10.04657261236662
 31
0.0
  0
ARC
  5
133
330
70
100
AcDbEntity
  8
D-Tower (by TFrames) v11_Sketch1
100
AcDbCircle
 10
6.192254160045655
 20
7.111810473066153
 30
0.0
 40
0.500000000000005
100
AcDbArc
 50
270.0000044731378
 51
314.9999995735939
  0
ARC
  5
134
330
70
100
AcDbEntity
  8
D-Tower (by TFrames) v11_Sketch1
100
AcDbCircle
 10
7.287228970644914
 20
6.015794738222032
 30
0.0
 40
0.5000000000000016
100
AcDbArc
 50
134.999999573662
 51
180.0000004863395
  0
ARC
  5
135
330
70
100
AcDbEntity
  8
D-Tower (by TFrames) v11_Sketch1
100
AcDbCircle
 10
3.836116631924011
 20
4.755674116602573
 30
0.0
 40
0.4999999999999775
100
AcDbArc
 50
315.000013662042
 51
0.0000000000040711
  0
ARC
  5
136
330
70
100
AcDbEntity
  8
D-Tower (by TFrames) v11_Sketch1
100
AcDbCircle
 10
4.932119055225602
 20
3.660698229159196
 30
0.0
 40
0.4999999999999855
100
AcDbArc
 50
89.99999155499304
 51
135.0000136620431
  0
ARC
  5
137
330
70
100
AcDbEntity
  8
D-Tower (by TFrames) v11_Sketch1
100
AcDbCircle
 10
9.523309578294284
 20
8.852916075161552
 30
0.0
 40
0.074999999999998
100
AcDbArc
 50
315.013697842401
 51
135.013697842401
  0
ARC
  5
138
330
70
100
AcDbEntity
  8
D-Tower (by TFrames) v11_Sketch1
100
AcDbCircle
 10
9.028831099468355
 20
9.34734661073266
 30
0.0
 40
0.0749999999999986
100
AcDbArc
 50
314.9999999991134
 51
134.9999999991133
  0
LINE
  5
139
330
70
100
AcDbEntity
  8
D-Tower (by TFrames) v11_Sketch1
100
AcDbLine
 10
10.47199108394316
 20
0.3259358990583738
 30
0.0
 11
9.821991083954443
 21
0.3259358990584902
 31
0.0
  0
ARC
  5
13A
330
70
100
AcDbEntity
  8
D-Tower (by TFrames) v11_Sketch1
100
AcDbCircle
 10
10.32199108395778
 20
0.7259358991061155
 30
0.0
 40
0.1500000000000057
100
AcDbArc
 50
0.0000000000298548
 51
90.00000000002986
  0
ARC
  5
13B
330
70
100
AcDbEntity
  8
D-Tower (by TFrames) v11_Sketch1
100
AcDbCircle
 10
9.821991083952671
 20
1.12593589904934
 30
0.0
 40
0.7999999999904861
100
AcDbArc
 50
224.9999999989974
 51
270.000000000127
  0
ARC
  5
13C
330
70
100
AcDbEntity
  8
D-Tower (by TFrames) v11_Sketch1
100
AcDbCircle
 10
10.22199108394305
 20
0.7259358991060675
 30
0.0
 40
0.1500000000000057
100
AcDbArc
 50
90.00000000002849
 51
180.0000000000292
  0
LINE
  5
13D
330
70
100
AcDbEntity
  8
D-Tower (by TFrames) v11_Sketch1
100
AcDbLine
 10
0.8013543706539687
 20
0.8759358990683139
 30
0.0
 11
0.9013543706539666
 21
0.875935899068313
 31
0.0
  0
ARC
  5
13E
330
70
100
AcDbEntity
  8
D-Tower (by TFrames) v11_Sketch1
100
AcDbCircle
 10
0.8013543706539687
 20
0.6259358990683159
 30
0.0
 40
0.1500000000000003
100
AcDbArc
 50
180.0
 51
270.0
  0
LINE
  5
13F
330
70
100
AcDbEntity
  8
D-Tower (by TFrames) v11_Sketch1
100
AcDbLine
 10
0.9013543706535172
 20
9.896572612366618
 30
0.0
 11
0.8013543706535122
 21
9.896572612366618
 31
0.0
  0
ARC
  5
140
330
70
100
AcDbEntity
  8
D-Tower (by TFrames) v11_Sketch1
100
AcDbCircle
 10
4.660111655278319
 20
6.140597024086606
 30
0.0
 40
0.1472181963488561
100
AcDbArc
 50
0.0000031660264342
 51
180.0000031660264
  0
LINE
  5
141
330
70
100
AcDbEntity
  8
D-Tower (by TFrames) v11_Sketch1
100
AcDbLine
 10
1.653076101041778
 20
8.905942428129716
 30
0.0
 11
4.189670024880498
 21
6.369348470379813
 31
0.0
  0
LINE
  5
142
330
70
100
AcDbEntity
  8
D-Tower (by TFrames) v11_Sketch1
100
AcDbLine
 10
10.47199108395304
 20
10.44657261236624
 30
0.0
 11
9.821991083888729
 21
10.4465726123688
 31
0.0
  0
LINE
  5
143
330
70
100
AcDbEntity
  8
D-Tower (by TFrames) v11_Sketch1
100
AcDbLine
 10
9.469679407042242
 20
1.866007296690287
 30
0.0
 11
6.933675594947137
 21
4.402011048548231
 31
0.0
  0
LINE
  5
144
330
70
100
AcDbEntity
  8
D-Tower (by TFrames) v11_Sketch1
100
AcDbLine
 10
10.32199108395791
 20
0.4759358990582943
 30
0.0
 11
10.22199108394318
 21
0.4759358990582446
 31
0.0
  0
LINE
  5
145
330
70
100
AcDbEntity
  8
D-Tower (by TFrames) v11_Sketch1
100
AcDbLine
 10
10.0719910839431
 20
0.6259358990581702
 30
0.0
 11
10.07199108394305
 21
0.7259358991059912
 31
0.0
  0
LINE
  5
146
330
70
100
AcDbEntity
  8
D-Tower (by TFrames) v11_Sketch1
100
AcDbLine
 10
10.22199108394297
 20
0.8759358991060731
 30
0.0
 11
10.3219910839577
 21
0.8759358991061192
 31
0.0
  0
ARC
  5
147
330
70
100
AcDbEntity
  8
D-Tower (by TFrames) v11_Sketch1
100
AcDbCircle
 10
10.2219910839525
 20
10.04657261236626
 30
0.0
 40
0.1499999999999986
100
AcDbArc
 50
179.9999999999945
 51
269.9999999999945
  0
LINE
  5
148
330
70
100
AcDbEntity
  8
D-Tower (by TFrames) v11_Sketch1
100
AcDbLine
 10
3.298931027500619
 20
8.461127989886961
 30
0.0
 11
2.736037962457928
 21
9.024021054928944
 31
0.0
  0
ARC
  5
149
330
70
100
AcDbEntity
  8
D-Tower (by TFrames) v11_Sketch1
100
AcDbCircle
 10
12.03014895047872
 20
5.384643608101578
 30
0.0
 40
3.999999999999934
100
AcDbArc
 50
117.3892297813105
 51
135.0136978454336
  0
ARC
  5
14A
330
70
100
AcDbEntity
  8
D-Tower (by TFrames) v11_Sketch1
100
AcDbCircle
 10
9.821991083954582
 20
1.125935899053934
 30
0.0
 40
0.7999999999889483
100
AcDbArc
 50
359.9999999996404
 51
62.64332481688558
  0
LINE
  5
14B
330
70
100
AcDbEntity
  8
D-Tower (by TFrames) v11_Sketch1
100
AcDbLine
 10
7.824414427095163
 20
8.461127989890442
 30
0.0
 11
8.38730749194611
 21
9.024021054742416
 31
0.0
  0
ARC
  5
14C
330
70
100
AcDbEntity
  8
D-Tower (by TFrames) v11_Sketch1
100
AcDbCircle
 10
5.558880367197346
 20
11.85244817948602
 30
0.0
 40
3.999999999999994
100
AcDbArc
 50
315.0000000000522
 51
332.6414483445122
  0
ARC
  5
14D
330
70
100
AcDbEntity
  8
D-Tower (by TFrames) v11_Sketch1
100
AcDbCircle
 10
9.821991083885585
 20
9.646572612301927
 30
0.0
 40
0.800000000066872
100
AcDbArc
 50
297.3892297813106
 51
0.0
  0
ARC
  5
14E
330
70
100
AcDbEntity
  8
D-Tower (by TFrames) v11_Sketch1
100
AcDbCircle
 10
10.2219910839525
 20
10.14657261236616
 30
0.0
 40
0.1499999999999986
100
AcDbArc
 50
90.00000000001628
 51
179.9999999999959
  0
ARC
  5
14F
330
70
100
AcDbEntity
  8
D-Tower (by TFrames) v11_Sketch1
100
AcDbCircle
 10
10.32199108395242
 20
10.04657261236625
 30
0.0
 40
0.1500000000000021
100
AcDbArc
 50
269.9999999999932
 51
359.9999999999905
  0
LINE
  5
150
330
70
100
AcDbEntity
  8
D-Tower (by TFrames) v11_Sketch1
100
AcDbLine
 10
10.0719910839525
 20
10.04657261236627
 30
0.0
 11
10.0719910839525
 21
10.14657261236618
 31
0.0
  0
ARC
  5
151
330
70
100
AcDbEntity
  8
D-Tower (by TFrames) v11_Sketch1
100
AcDbCircle
 10
9.821991083885585
 20
9.646572612301927
 30
0.0
 40
0.8000000000668734
100
AcDbArc
 50
89.99999999977481
 51
152.6414483445122
  0
LINE
  5
152
330
70
100
AcDbEntity
  8
D-Tower (by TFrames) v11_Sketch1
100
AcDbLine
 10
10.22199108395246
 20
10.29657261236616
 30
0.0
 11
10.32199108395239
 21
10.29657261236619
 31
0.0
  0
ARC
  5
153
330
70
100
AcDbEntity
  8
D-Tower (by TFrames) v11_Sketch1
100
AcDbCircle
 10
1.301354370653965
 20
9.646572612366185
 30
0.0
 40
0.799999999999999
100
AcDbArc
 50
180.0
 51
242.6027702878224
  0
ARC
  5
154
330
70
100
AcDbEntity
  8
D-Tower (by TFrames) v11_Sketch1
100
AcDbCircle
 10
5.541509712494427
 20
-1.123749118230935
 30
0.0
 40
3.999999999999884
100
AcDbArc
 50
135.0000000000038
 51
152.0510694547946
  0
ARC
  5
155
330
70
100
AcDbEntity
  8
D-Tower (by TFrames) v11_Sketch1
100
AcDbCircle
 10
9.821991083954578
 20
1.125935899053943
 30
0.0
 40
0.7999999999954419
100
AcDbArc
 50
207.358551656934
 51
269.9999999999903
  0
LINE
  5
156
330
70
100
AcDbEntity
  8
D-Tower (by TFrames) v11_Sketch1
100
AcDbLine
 10
2.486717508072836
 20
7.647282345848084
 30
0.0
 11
1.922048471878983
 21
8.212358827036272
 31
0.0
  0
ARC
  5
157
330
70
100
AcDbEntity
  8
D-Tower (by TFrames) v11_Sketch1
100
AcDbCircle
 10
5.564465087202158
 20
11.85244817967676
 30
0.0
 40
3.999999999999764
100
AcDbArc
 50
207.3585516575969
 51
225.0000000000363
  0
LINE
  5
158
330
70
100
AcDbEntity
  8
D-Tower (by TFrames) v11_Sketch1
100
AcDbLine
 10
10.47199108395244
 20
10.14657261236617
 30
0.0
 11
10.47199108395242
 21
10.04657261236622
 31
0.0
  0
ARC
  5
159
330
70
100
AcDbEntity
  8
D-Tower (by TFrames) v11_Sketch1
100
AcDbCircle
 10
10.32199108395243
 20
10.14657261236618
 30
0.0
 40
0.1500000000000092
100
AcDbArc
 50
359.9999999999959
 51
90.00000000001492
  0
LINE
  5
15A
330
70
100
AcDbEntity
  8
D-Tower (by TFrames) v11_Sketch1
100
AcDbLine
 10
7.834841464749123
 20
2.300953483923445
 30
0.0
 11
8.387307492130839
 21
1.74848745654204
 31
0.0
  0
ARC
  5
15B
330
70
100
AcDbEntity
  8
D-Tower (by TFrames) v11_Sketch1
100
AcDbCircle
 10
-0.9045211966363906
 20
5.389046615626218
 30
0.0
 40
3.999999999999954
100
AcDbArc
 50
297.3585516573292
 51
315.0000000000001
  0
ARC
  5
15C
330
70
100
AcDbEntity
  8
D-Tower (by TFrames) v11_Sketch1
100
AcDbCircle
 10
12.02772703039571
 20
5.389118857182079
 30
0.0
 40
4.000000000000301
100
AcDbArc
 50
224.9982124271833
 51
242.6433248168845
  0
ARC
  5
15D
330
70
100
AcDbEntity
  8
D-Tower (by TFrames) v11_Sketch1
100
AcDbCircle
 10
10.32199108395783
 20
0.6259358990583017
 30
0.0
 40
0.1500000000000073
100
AcDbArc
 50
270.0000000000312
 51
0.0000000000284978
  0
ARC
  5
15E
330
70
100
AcDbEntity
  8
D-Tower (by TFrames) v11_Sketch1
100
AcDbCircle
 10
10.89995727586449
 20
5.385552835331177
 30
0.0
 40
3.199999999999982
100
AcDbArc
 50
135.0136978454334
 51
224.9982124271826
  0
LINE
  5
15F
330
70
100
AcDbEntity
  8
D-Tower (by TFrames) v11_Sketch1
100
AcDbLine
 10
2.48590159293561
 20
3.122615155705906
 30
0.0
 11
1.923905928109767
 21
2.560619490880065
 31
0.0
  0
ARC
  5
160
330
70
100
AcDbEntity
  8
D-Tower (by TFrames) v11_Sketch1
100
AcDbCircle
 10
1.301354370653963
 20
1.125935899068295
 30
0.0
 40
0.7999999999999984
100
AcDbArc
 50
117.3585516573293
 51
179.9999999999999
  0
LINE
  5
161
330
70
100
AcDbEntity
  8
D-Tower (by TFrames) v11_Sketch1
100
AcDbLine
 10
8.636674681414596
 20
7.64775351114666
 30
0.0
 11
9.201045707416373
 21
8.212394452870896
 31
0.0
  0
ARC
  5
162
330
70
100
AcDbEntity
  8
D-Tower (by TFrames) v11_Sketch1
100
AcDbCircle
 10
1.301354370653965
 20
9.646572612366185
 30
0.0
 40
0.8000000000008416
100
AcDbArc
 50
27.35855165759727
 51
89.99999999996132
  0
ARC
  5
163
330
70
100
AcDbEntity
  8
D-Tower (by TFrames) v11_Sketch1
100
AcDbCircle
 10
-0.9073985467887473
 20
5.384951964104716
 30
0.0
 40
4.00000000000002
100
AcDbArc
 50
44.97933616271327
 51
62.60277028782215
  0
LINE
  5
164
330
70
100
AcDbEntity
  8
D-Tower (by TFrames) v11_Sketch1
100
AcDbLine
 10
10.3219910839524
 20
9.896572612366245
 30
0.0
 11
10.22199108395248
 21
9.896572612366259
 31
0.0
  0
ARC
  5
165
330
70
100
AcDbEntity
  8
D-Tower (by TFrames) v11_Sketch1
100
AcDbCircle
 10
0.8013543706539705
 20
0.7259358990683129
 30
0.0
 40
0.1500000000000012
100
AcDbArc
 50
90.00000000000067
 51
179.9999999999996
  0
ARC
  5
166
330
70
100
AcDbEntity
  8
D-Tower (by TFrames) v11_Sketch1
100
AcDbCircle
 10
0.2231598931386607
 20
5.385356855502857
 30
0.0
 40
3.199999999999997
100
AcDbArc
 50
315.0
 51
44.97933616271317
  0
LINE
  5
167
330
70
100
AcDbEntity
  8
D-Tower (by TFrames) v11_Sketch1
100
AcDbLine
 10
3.309358065155257
 20
2.300953483922195
 30
0.0
 11
2.713082587748131
 21
1.704678006514986
 31
0.0
  0
ARC
  5
168
330
70
100
AcDbEntity
  8
D-Tower (by TFrames) v11_Sketch1
100
AcDbCircle
 10
5.558880367385444
 20
-1.079939668204957
 30
0.0
 40
4.000000000000013
100
AcDbArc
 50
27.35855165693423
 51
45.00000000001624
  0
ARC
  5
169
330
70
100
AcDbEntity
  8
D-Tower (by TFrames) v11_Sketch1
100
AcDbCircle
 10
1.301354370653963
 20
1.125935899068295
 30
0.0
 40
0.799999999999997
100
AcDbArc
 50
270.0
 51
332.0510694547944
  0
ARC
  5
16A
330
70
100
AcDbEntity
  8
D-Tower (by TFrames) v11_Sketch1
100
AcDbCircle
 10
5.561672727296148
 20
10.72386968968532
 30
0.0
 40
3.199999999999993
100
AcDbArc
 50
225.0000000000359
 51
315.0000000000523
  0
ARC
  5
16B
330
70
100
AcDbEntity
  8
D-Tower (by TFrames) v11_Sketch1
100
AcDbCircle
 10
5.572099764952813
 20
0.0382117841258518
 30
0.0
 40
3.199999999999999
100
AcDbArc
 50
45.00000000001626
 51
135.0000000000153
  0
LINE
  5
16C
330
70
100
AcDbEntity
  8
D-Tower (by TFrames) v11_Sketch1
100
AcDbLine
 10
8.637144981819741
 20
3.122881731984551
 30
0.0
 11
9.199211662839577
 21
2.560779977998539
 31
0.0
  0
ENDSEC
  0
SECTION
  2
OBJECTS
  0
DICTIONARY
  5
C
330
0
100
AcDbDictionary
281
     1
  3
ACAD_COLOR
350
63
  3
ACAD_DETAILVIEWSTYLE
350
6A
  3
ACAD_GROUP
350
D
  3
ACAD_LAYOUT
350
62
  3
ACAD_MATERIAL
350
10
  3
ACAD_MLEADERSTYLE
350
66
  3
ACAD_MLINESTYLE
350
5F
  3
ACAD_PLOTSETTINGS
350
61
  3
ACAD_PLOTSTYLENAME
350
E
  3
ACAD_SCALELIST
350
42
  3
ACAD_SECTIONVIEWSTYLE
350
68
  3
ACAD_TABLESTYLE
350
64
  3
ACAD_VISUALSTYLE
350
29
  3
ACDB_RECOMPOSE_DATA
350
175
  3
AcDbVariableDictionary
350
16D
  0
DICTIONARY
  5
63
102
{ACAD_REACTORS
330
C
102
}
330
C
100
AcDbDictionary
281
     1
  0
DICTIONARY
  5
6A
102
{ACAD_REACTORS
330
C
102
}
330
C
100
AcDbDictionary
281
     1
  3
Imperial24
350
6B
  0
DICTIONARY
  5
D
102
{ACAD_REACTORS
330
C
102
}
330
C
100
AcDbDictionary
281
     1
  0
DICTIONARY
  5
62
102
{ACAD_REACTORS
330
C
102
}
330
C
100
AcDbDictionary
281
     1
  3
Layout1
350
6F
  3
Layout2
350
77
  3
Model
350
73
  0
DICTIONARY
  5
10
102
{ACAD_REACTORS
330
C
102
}
330
C
100
AcDbDictionary
281
     1
  3
ByBlock
350
19
  3
ByLayer
350
11
  3
Global
350
21
  0
DICTIONARY
  5
66
102
{ACAD_REACTORS
330
C
102
}
330
C
100
AcDbDictionary
281
     1
  3
Standard
350
67
  0
DICTIONARY
  5
5F
102
{ACAD_REACTORS
330
C
102
}
330
C
100
AcDbDictionary
281
     1
  3
Standard
350
60
  0
DICTIONARY
  5
61
102
{ACAD_REACTORS
330
C
102
}
330
C
100
AcDbDictionary
281
     1
  0
ACDBDICTIONARYWDFLT
  5
E
102
{ACAD_REACTORS
330
C
102
}
330
C
100
AcDbDictionary
281
     1
  3
Normal
350
F
100
AcDbDictionaryWithDefault
340
F
  0
DICTIONARY
  5
42
102
{ACAD_REACTORS
330
C
102
}
330
C
100
AcDbDictionary
281
     1
  3
A0
350
43
  3
A1
350
44
  3
A2
350
45
  3
A3
350
46
  3
A4
350
47
  3
A5
350
48
  3
A6
350
49
  3
A7
350
4A
  3
A8
350
4B
  3
A9
350
4C
  3
B0
350
4D
  3
B1
350
4E
  3
B2
350
4F
  3
B3
350
50
  3
B4
350
51
  3
B5
350
52
  3
B6
350
53
  0
DICTIONARY
  5
68
102
{ACAD_REACTORS
330
C
102
}
330
C
100
AcDbDictionary
281
     1
  3
Imperial24
350
69
  0
DICTIONARY
  5
64
102
{ACAD_REACTORS
330
C
102
}
330
C
100
AcDbDictionary
281
     1
  3
Standard
350
65
  0
DICTIONARY
  5
29
102
{ACAD_REACTORS
330
C
102
}
330
C
100
AcDbDictionary
281
     1
  3
2dWireframe
350
2F
  3
Basic
350
2E
  3
Brighten
350
35
  3
ColorChange
350
39
  3
Conceptual
350
32
  3
Dim
350
34
  3
EdgeColorOff
350
41
  3
Facepattern
350
38
  3
Flat
350
2A
  3
FlatWithEdges
350
2B
  3
Gouraud
350
2C
  3
GouraudWithEdges
350
2D
  3
Hidden
350
31
  3
JitterOff
350
3F
  3
Linepattern
350
37
  3
OverhangOff
350
40
  3
Realistic
350
33
  3
Shaded
350
3E
  3
Shaded with edges
350
3D
  3
Shades of Gray
350
3A
  3
Sketchy
350
3B
  3
Thicken
350
36
  3
Wireframe
350
30
  3
X-Ray
350
3C
  0
XRECORD
  5
175
102
{ACAD_REACTORS
330
C
102
}
330
C
100
AcDbXrecord
280
     1
 90
        1
330
65
  0
DICTIONARY
  5
16D
102
{ACAD_REACTORS
330
C
102
}
330
C
100
AcDbDictionary
281
     1
  3
CANNOSCALE
350
172
  3
CMLEADERSTYLE
350
16F
  3
CTABLESTYLE
350
16E
  3
CVIEWDETAILSTYLE
350
170
  3
CVIEWSECTIONSTYLE
350
171
  0
ACDBDETAILVIEWSTYLE
  5
6B
102
{ACAD_XDICTIONARY
360
178
102
}
102
{ACAD_REACTORS
330
6A
102
}
330
6A
100
AcDbModelDocViewStyle
 70
     0
  3
Imperial24
290
     0
100
AcDbDetailViewStyle
 70
     0
 71
     0
 90
        3
 71
     1
340
55
 62
   256
 40
0.24
340
0
 62
   256
 40
0.24
300

 40
0.36
280
     3
 71
     2
340
5D
 90
       25
 62
   256
 71
     3
340
55
 62
   256
 40
0.24
 90
        1
 40
0.75
 90
        1
300
%<\AcVar ViewType \f "%tc1">% %<\AcVar ViewDetailId>%\PSCALE %<\AcVar ViewScale \f "%sn">%
 71
     4
340
5D
 90
       25
 62
   256
340
5D
 90
       25
 62
   256
280
     0
  0
LAYOUT
  5
6F
102
{ACAD_REACTORS
330
62
102
}
330
62
100
AcDbPlotSettings
  1

  2

  4

  6

 40
0.0
 41
0.0
 42
0.0
 43
0.0
 44
0.0
 45
0.0
 46
0.0
 47
0.0
 48
0.0
 49
0.0
140
0.0
141
0.0
142
1.0
143
1.0
 70
   688
 72
     0
 73
     0
 74
     5
  7

 75
    16
147
1.0
 76
     0
 77
     2
 78
   300
148
0.0
149
0.0
100
AcDbLayout
  1
Layout1
 70
     1
 71
     1
 10
0.0
 20
0.0
 11
12.0
 21
9.0
 12
0.0
 22
0.0
 32
0.0
 14
0.0
 24
0.0
 34
0.0
 15
0.0
 25
0.0
 35
0.0
146
0.0
 13
0.0
 23
0.0
 33
0.0
 16
1.0
 26
0.0
 36
0.0
 17
0.0
 27
1.0
 37
0.0
 76
     0
330
6C
  0
LAYOUT
  5
77
102
{ACAD_REACTORS
330
62
102
}
330
62
100
AcDbPlotSettings
  1

  2

  4

  6

 40
0.0
 41
0.0
 42
0.0
 43
0.0
 44
0.0
 45
0.0
 46
0.0
 47
0.0
 48
0.0
 49
0.0
140
0.0
141
0.0
142
1.0
143
1.0
 70
   688
 72
     0
 73
     0
 74
     5
  7

 75
    16
147
1.0
 76
     0
 77
     2
 78
   300
148
0.0
149
0.0
100
AcDbLayout
  1
Layout2
 70
     1
 71
     2
 10
0.0
 20
0.0
 11
12.0
 21
9.0
 12
0.0
 22
0.0
 32
0.0
 14
0.0
 24
0.0
 34
0.0
 15
0.0
 25
0.0
 35
0.0
146
0.0
 13
0.0
 23
0.0
 33
0.0
 16
1.0
 26
0.0
 36
0.0
 17
0.0
 27
1.0
 37
0.0
 76
     0
330
74
  0
LAYOUT
  5
73
102
{ACAD_REACTORS
330
62
102
}
330
62
100
AcDbPlotSettings
  1

  2

  4

  6

 40
0.0
 41
0.0
 42
0.0
 43
0.0
 44
0.0
 45
0.0
 46
0.0
 47
0.0
 48
0.0
 49
0.0
140
0.0
141
0.0
142
1.0
143
1.0
 70
  1712
 72
     0
 73
     0
 74
     0
  7

 75
     0
147
1.0
 76
     0
 77
     2
 78
   300
148
0.0
149
0.0
100
AcDbLayout
  1
Model
 70
     1
 71
     0
 10
0.0
 20
0.0
 11
12.0
 21
9.0
 12
0.0
 22
0.0
 32
0.0
 14
0.0
 24
0.0
 34
0.0
 15
0.0
 25
0.0
 35
0.0
146
0.0
 13
0.0
 23
0.0
 33
0.0
 16
1.0
 26
0.0
 36
0.0
 17
0.0
 27
1.0
 37
0.0
 76
     0
330
70
  0
MATERIAL
  5
19
102
{ACAD_XDICTIONARY
360
1A
102
}
102
{ACAD_REACTORS
330
10
102
}
330
10
100
AcDbMaterial
  1
ByBlock
 72
     0
 43
0.0208333333333333
 43
0.0
 43
0.0
 43
0.0
 43
0.0
 43
0.0208333333333333
 43
0.0
 43
0.0
 43
0.0
 43
0.0
 43
1.0
 43
0.0
 43
0.0
 43
0.0
 43
0.0
 43
1.0
 77
     0
 47
0.0208333333333333
 47
0.0
 47
0.0
 47
0.0
 47
0.0
 47
0.0208333333333333
 47
0.0
 47
0.0
 47
0.0
 47
0.0
 47
1.0
 47
0.0
 47
0.0
 47
0.0
 47
0.0
 47
1.0
171
     0
 49
0.0208333333333333
 49
0.0
 49
0.0
 49
0.0
 49
0.0
 49
0.0208333333333333
 49
0.0
 49
0.0
 49
0.0
 49
0.0
 49
1.0
 49
0.0
 49
0.0
 49
0.0
 49
0.0
 49
1.0
175
     0
142
0.0208333333333333
142
0.0
142
0.0
142
0.0
142
0.0
142
0.0208333333333333
142
0.0
142
0.0
142
0.0
142
0.0
142
1.0
142
0.0
142
0.0
142
0.0
142
0.0
142
1.0
179
     0
144
0.0208333333333333
144
0.0
144
0.0
144
0.0
144
0.0
144
0.0208333333333333
144
0.0
144
0.0
144
0.0
144
0.0
144
1.0
144
0.0
144
0.0
144
0.0
144
0.0
144
1.0
147
0.0208333333333333
147
0.0
147
0.0
147
0.0
147
0.0
147
0.0208333333333333
147
0.0
147
0.0
147
0.0
147
0.0
147
1.0
147
0.0
147
0.0
147
0.0
147
0.0
147
1.0
  0
MATERIAL
  5
11
102
{ACAD_XDICTIONARY
360
12
102
}
102
{ACAD_REACTORS
330
10
102
}
330
10
100
AcDbMaterial
  1
ByLayer
 72
     0
 43
0.0208333333333333
 43
0.0
 43
0.0
 43
0.0
 43
0.0
 43
0.0208333333333333
 43
0.0
 43
0.0
 43
0.0
 43
0.0
 43
1.0
 43
0.0
 43
0.0
 43
0.0
 43
0.0
 43
1.0
 77
     0
 47
0.0208333333333333
 47
0.0
 47
0.0
 47
0.0
 47
0.0
 47
0.0208333333333333
 47
0.0
 47
0.0
 47
0.0
 47
0.0
 47
1.0
 47
0.0
 47
0.0
 47
0.0
 47
0.0
 47
1.0
171
     0
 49
0.0208333333333333
 49
0.0
 49
0.0
 49
0.0
 49
0.0
 49
0.0208333333333333
 49
0.0
 49
0.0
 49
0.0
 49
0.0
 49
1.0
 49
0.0
 49
0.0
 49
0.0
 49
0.0
 49
1.0
175
     0
142
0.0208333333333333
142
0.0
142
0.0
142
0.0
142
0.0
142
0.0208333333333333
142
0.0
142
0.0
142
0.0
142
0.0
142
1.0
142
0.0
142
0.0
142
0.0
142
0.0
142
1.0
179
     0
144
0.0208333333333333
144
0.0
144
0.0
144
0.0
144
0.0
144
0.0208333333333333
144
0.0
144
0.0
144
0.0
144
0.0
144
1.0
144
0.0
144
0.0
144
0.0
144
0.0
144
1.0
147
0.0208333333333333
147
0.0
147
0.0
147
0.0
147
0.0
147
0.0208333333333333
147
0.0
147
0.0
147
0.0
147
0.0
147
1.0
147
0.0
147
0.0
147
0.0
147
0.0
147
1.0
  0
MATERIAL
  5
21
102
{ACAD_XDICTIONARY
360
22
102
}
102
{ACAD_REACTORS
330
10
102
}
330
10
100
AcDbMaterial
  1
Global
 72
     0
 43
0.0208333333333333
 43
0.0
 43
0.0
 43
0.0
 43
0.0
 43
0.0208333333333333
 43
0.0
 43
0.0
 43
0.0
 43
0.0
 43
1.0
 43
0.0
 43
0.0
 43
0.0
 43
0.0
 43
1.0
 77
     0
 47
0.0208333333333333
 47
0.0
 47
0.0
 47
0.0
 47
0.0
 47
0.0208333333333333
 47
0.0
 47
0.0
 47
0.0
 47
0.0
 47
1.0
 47
0.0
 47
0.0
 47
0.0
 47
0.0
 47
1.0
171
     0
 49
0.0208333333333333
 49
0.0
 49
0.0
 49
0.0
 49
0.0
 49
0.0208333333333333
 49
0.0
 49
0.0
 49
0.0
 49
0.0
 49
1.0
 49
0.0
 49
0.0
 49
0.0
 49
0.0
 49
1.0
175
     0
142
0.0208333333333333
142
0.0
142
0.0
142
0.0
142
0.0
142
0.0208333333333333
142
0.0
142
0.0
142
0.0
142
0.0
142
1.0
142
0.0
142
0.0
142
0.0
142
0.0
142
1.0
179
     0
144
0.0208333333333333
144
0.0
144
0.0
144
0.0
144
0.0
144
0.0208333333333333
144
0.0
144
0.0
144
0.0
144
0.0
144
1.0
144
0.0
144
0.0
144
0.0
144
0.0
144
1.0
147
0.0208333333333333
147
0.0
147
0.0
147
0.0
147
0.0
147
0.0208333333333333
147
0.0
147
0.0
147
0.0
147
0.0
147
1.0
147
0.0
147
0.0
147
0.0
147
0.0
147
1.0
  0
MLEADERSTYLE
  5
67
102
{ACAD_REACTORS
330
66
102
}
330
66
100
AcDbMLeaderStyle
179
     2
170
     2
171
     1
172
     0
 90
        2
 40
0.0
 41
0.0
173
     1
 91
-1056964608
340
5B
 92
       -2
290
     1
 42
0.09
291
     1
 43
0.36
  3
Standard
 44
0.18
300

342
55
174
     1
178
     6
175
     1
176
     0
 93
-1056964608
 45
0.18
292
     0
297
     0
 46
0.18
 94
-1056964608
 47
1.0
 49
1.0
140
1.0
293
     1
141
0.0
294
     1
177
     0
142
1.0
295
     0
296
     0
143
0.125
271
     0
272
     9
273
     9
298
     1
  0
MLINESTYLE
  5
60
102
{ACAD_REACTORS
330
5F
102
}
330
5F
100
AcDbMlineStyle
  2
STANDARD
 70
     0
  3

 62
   256
 51
90.0
 52
90.0
 71
     2
 49
0.5
 62
   256
  6
BYLAYER
 49
-0.5
 62
   256
  6
BYLAYER
  0
ACDBPLACEHOLDER
  5
F
102
{ACAD_REACTORS
330
E
102
}
330
E
  0
SCALE
  5
43
102
{ACAD_REACTORS
330
42
102
}
330
42
100
AcDbScale
 70
     0
300
1:1
140
1.0
141
1.0
290
     1
  0
SCALE
  5
44
102
{ACAD_REACTORS
330
42
102
}
330
42
100
AcDbScale
 70
     0
300
1/128" = 1'-0"
140
0.0078125
141
12.0
290
     0
  0
SCALE
  5
45
102
{ACAD_REACTORS
330
42
102
}
330
42
100
AcDbScale
 70
     0
300
1/64" = 1'-0"
140
0.015625
141
12.0
290
     0
  0
SCALE
  5
46
102
{ACAD_REACTORS
330
42
102
}
330
42
100
AcDbScale
 70
     0
300
1/32" = 1'-0"
140
0.03125
141
12.0
290
     0
  0
SCALE
  5
47
102
{ACAD_REACTORS
330
42
102
}
330
42
100
AcDbScale
 70
     0
300
1/16" = 1'-0"
140
0.0625
141
12.0
290
     0
  0
SCALE
  5
48
102
{ACAD_REACTORS
330
42
102
}
330
42
100
AcDbScale
 70
     0
300
3/32" = 1'-0"
140
0.09375
141
12.0
290
     0
  0
SCALE
  5
49
102
{ACAD_REACTORS
330
42
102
}
330
42
100
AcDbScale
 70
     0
300
1/8" = 1'-0"
140
0.125
141
12.0
290
     0
  0
SCALE
  5
4A
102
{ACAD_REACTORS
330
42
102
}
330
42
100
AcDbScale
 70
     0
300
3/16" = 1'-0"
140
0.1875
141
12.0
290
     0
  0
SCALE
  5
4B
102
{ACAD_REACTORS
330
42
102
}
330
42
100
AcDbScale
 70
     0
300
1/4" = 1'-0"
140
0.25
141
12.0
290
     0
  0
SCALE
  5
4C
102
{ACAD_REACTORS
330
42
102
}
330
42
100
AcDbScale
 70
     0
300
3/8" = 1'-0"
140
0.375
141
12.0
290
     0
  0
SCALE
  5
4D
102
{ACAD_REACTORS
330
42
102
}
330
42
100
AcDbScale
 70
     0
300
1/2" = 1'-0"
140
0.5
141
12.0
290
     0
  0
SCALE
  5
4E
102
{ACAD_REACTORS
330
42
102
}
330
42
100
AcDbScale
 70
     0
300
3/4" = 1'-0"
140
0.75
141
12.0
290
     0
  0
SCALE
  5
4F
102
{ACAD_REACTORS
330
42
102
}
330
42
100
AcDbScale
 70
     0
300
1" = 1'-0"
140
1.0
141
12.0
290
     0
  0
SCALE
  5
50
102
{ACAD_REACTORS
330
42
102
}
330
42
100
AcDbScale
 70
     0
300
1-1/2" = 1'-0"
140
1.5
141
12.0
290
     0
  0
SCALE
  5
51
102
{ACAD_REACTORS
330
42
102
}
330
42
100
AcDbScale
 70
     0
300
3" = 1'-0"
140
3.0
141
12.0
290
     0
  0
SCALE
  5
52
102
{ACAD_REACTORS
330
42
102
}
330
42
100
AcDbScale
 70
     0
300
6" = 1'-0"
140
6.0
141
12.0
290
     0
  0
SCALE
  5
53
102
{ACAD_REACTORS
330
42
102
}
330
42
100
AcDbScale
 70
     0
300
1'-0" = 1'-0"
140
12.0
141
12.0
290
     0
  0
ACDBSECTIONVIEWSTYLE
  5
69
102
{ACAD_XDICTIONARY
360
176
102
}
102
{ACAD_REACTORS
330
68
102
}
330
68
100
AcDbModelDocViewStyle
 70
     0
  3
Imperial24
290
     0
100
AcDbSectionViewStyle
 70
     0
 71
     0
 90
       78
 71
     1
340
55
 62
   256
 40
0.24
340
0
340
0
 62
   256
 40
0.24
300
I, O, Q, S, X, Z
 40
0.48
 90
        3
 40
0.18
 90
        1
 71
     2
340
5D
 90
       25
 62
   256
340
5D
 90
       50
 62
   256
 40
0.24
 40
0.0
 40
0.24
 71
     3
340
55
 62
   256
 40
0.24
 90
        1
 40
0.75
 90
        1
300
%<\AcVar ViewType \f "%tc1">% %<\AcVar ViewSectionStartId>%-%<\AcVar ViewSectionEndId>%\PSCALE %<\AcVar ViewScale \f "%sn">%
 71
     4
 62
   256
 62
   257
300
ANSI31
 40
1.0
 90
        0
290
     0
290
     0
 90
        6
 40
0.0
 40
1.570796326794896
 40
0.2617993877991494
 40
1.308996938995747
 40
-0.2617993877991494
 40
1.832595714594046
  0
TABLESTYLE
  5
65
102
{ACAD_XDICTIONARY
360
173
102
}
102
{ACAD_REACTORS
330
64
102
}
330
64
100
AcDbTableStyle
280
     0
  3
Standard
 70
     0
 71
     0
 40
0.06
 41
0.06
280
     0
281
     0
  7
Standard
140
0.18
170
     2
 62
     0
 63
     7
283
     0
 90
      512
 91
        0
  1

274
    -2
284
     1
 64
     0
275
    -2
285
     1
 65
     0
276
    -2
286
     1
 66
     0
277
    -2
287
     1
 67
     0
278
    -2
288
     1
 68
     0
279
    -2
289
     1
 69
     0
  7
Standard
140
0.25
170
     5
 62
     0
 63
     7
283
     0
 90
      512
 91
        0
  1

274
    -2
284
     1
 64
     0
275
    -2
285
     1
 65
     0
276
    -2
286
     1
 66
     0
277
    -2
287
     1
 67
     0
278
    -2
288
     1
 68
     0
279
    -2
289
     1
 69
     0
  7
Standard
140
0.18
170
     5
 62
     0
 63
     7
283
     0
 90
      512
 91
        0
  1

274
    -2
284
     1
 64
     0
275
    -2
285
     1
 65
     0
276
    -2
286
     1
 66
     0
277
    -2
287
     1
 67
     0
278
    -2
288
     1
 68
     0
279
    -2
289
     1
 69
     0
  0
VISUALSTYLE
  5
2F
102
{ACAD_REACTORS
330
29
102
}
330
29
100
AcDbVisualStyle
  2
2dWireframe
 70
     4
177
     3
291
     0
 70
    58
 90
        0
176
     1
 90
        2
176
     1
 90
        0
176
     1
 90
        0
176
     1
 40
0.6
176
     1
 40
30.0
176
     1
 62
     7
420
 16777215
176
     1
 90
        1
176
     1
 90
        4
176
     1
 62
     7
176
     1
 62
   257
176
     1
 90
        1
176
     1
 90
        1
176
     1
 40
1.0
176
     1
 90
        0
176
     1
 62
   257
176
     1
 40
1.0
176
     1
 90
        1
176
     1
 90
        6
176
     1
 90
        2
176
     1
 62
     7
176
     1
 90
        5
176
     1
 90
        0
176
     1
 90
        0
176
     1
290
     0
176
     1
 90
        1
176
     1
 40
0.0
176
     1
 90
        0
176
     1
290
     1
176
     1
290
     1
176
     1
290
     0
176
     1
290
     0
176
     1
290
     0
176
     1
290
     0
176
     1
290
     0
176
     1
290
     0
176
     1
290
     0
176
     1
 90
       50
176
     1
 40
0.0
176
     1
 40
1.0
176
     1
 90
        0
176
     1
 62
    18
420
        0
176
     1
 90
       50
176
     1
 90
        3
176
     1
 62
     5
420
      255
176
     1
290
     0
176
     1
 90
       50
176
     1
 90
       50
176
     1
 90
       50
176
     1
290
     0
176
     1
 90
       50
176
     1
 62
   256
176
     0
 40
1.0
176
     0
 90
        2
176
     1
  1
strokes_ogs.tif
176
     1
290
     0
176
     1
 40
1.0
176
     1
 40
1.0
176
     1
1001
ACAD
1000
AcDbSavedByObjectVersion
1070
     0
  0
VISUALSTYLE
  5
2E
102
{ACAD_REACTORS
330
29
102
}
330
29
100
AcDbVisualStyle
  2
Basic
 70
     7
177
     3
291
     1
 70
    58
 90
        1
176
     1
 90
        0
176
     1
 90
        1
176
     1
 90
        0
176
     1
 40
0.6
176
     1
 40
30.0
176
     1
 62
     7
420
 16777215
176
     1
 90
        0
176
     1
 90
        4
176
     1
 62
     7
176
     1
 62
   257
176
     1
 90
        1
176
     1
 90
        1
176
     1
 40
1.0
176
     1
 90
        8
176
     1
 62
     7
176
     1
 40
1.0
176
     1
 90
        1
176
     1
 90
        6
176
     1
 90
        2
176
     1
 62
     7
176
     1
 90
        5
176
     1
 90
        0
176
     1
 90
        0
176
     1
290
     0
176
     1
 90
        1
176
     1
 40
0.0
176
     1
 90
        0
176
     1
290
     0
176
     1
290
     1
176
     1
290
     1
176
     1
290
     0
176
     1
290
     0
176
     1
290
     0
176
     1
290
     0
176
     1
290
     0
176
     1
290
     0
176
     1
 90
       50
176
     1
 40
0.0
176
     1
 40
1.0
176
     1
 90
        0
176
     1
 62
    18
420
        0
176
     1
 90
       50
176
     1
 90
        3
176
     1
 62
     5
420
      255
176
     1
290
     0
176
     1
 90
       50
176
     1
 90
       50
176
     1
 90
       50
176
     1
290
     0
176
     1
 90
       50
176
     1
 62
   256
176
     0
 40
1.0
176
     0
 90
        2
176
     1
  1
strokes_ogs.tif
176
     1
290
     0
176
     1
 40
1.0
176
     1
 40
1.0
176
     1
1001
ACAD
1000
AcDbSavedByObjectVersion
1070
     0
  0
VISUALSTYLE
  5
35
102
{ACAD_REACTORS
330
29
102
}
330
29
100
AcDbVisualStyle
  2
Brighten
 70
    12
177
     3
291
     1
 70
    58
 90
        2
176
     1
 90
        2
176
     1
 90
        0
176
     1
 90
        0
176
     1
 40
0.6
176
     1
 40
30.0
176
     1
 62
     7
420
 16777215
176
     1
 90
        1
176
     1
 90
        4
176
     1
 62
     7
176
     1
 62
   257
176
     1
 90
        1
176
     1
 90
        1
176
     1
 40
1.0
176
     1
 90
        8
176
     1
 62
     7
176
     1
 40
1.0
176
     1
 90
        1
176
     1
 90
        6
176
     1
 90
        2
176
     1
 62
     7
176
     1
 90
        5
176
     1
 90
        0
176
     1
 90
        0
176
     1
290
     0
176
     1
 90
        1
176
     1
 40
50.0
176
     1
 90
        0
176
     1
290
     0
176
     1
290
     1
176
     1
290
     1
176
     1
290
     0
176
     1
290
     0
176
     1
290
     0
176
     1
290
     0
176
     1
290
     0
176
     1
290
     0
176
     1
 90
       50
176
     1
 40
0.0
176
     1
 40
1.0
176
     1
 90
        0
176
     1
 62
    18
420
        0
176
     1
 90
       50
176
     1
 90
        3
176
     1
 62
     5
420
      255
176
     1
290
     0
176
     1
 90
       50
176
     1
 90
       50
176
     1
 90
       50
176
     1
290
     0
176
     1
 90
       50
176
     1
 62
   256
176
     0
 40
1.0
176
     0
 90
        2
176
     1
  1
strokes_ogs.tif
176
     1
290
     0
176
     1
 40
1.0
176
     1
 40
1.0
176
     1
1001
ACAD
1000
AcDbSavedByObjectVersion
1070
     0
  0
VISUALSTYLE
  5
39
102
{ACAD_REACTORS
330
29
102
}
330
29
100
AcDbVisualStyle
  2
ColorChange
 70
    16
177
     3
291
     1
 70
    58
 90
        2
176
     1
 90
        2
176
     1
 90
        3
176
     1
 90
        0
176
     1
 40
0.6
176
     1
 40
30.0
176
     1
 62
     8
420
  8421504
176
     1
 90
        1
176
     1
 90
        4
176
     1
 62
     7
176
     1
 62
   257
176
     1
 90
        1
176
     1
 90
        1
176
     1
 40
1.0
176
     1
 90
        8
176
     1
 62
     8
420
  8421504
176
     1
 40
1.0
176
     1
 90
        1
176
     1
 90
        6
176
     1
 90
        2
176
     1
 62
     7
176
     1
 90
        5
176
     1
 90
        0
176
     1
 90
        0
176
     1
290
     0
176
     1
 90
        1
176
     1
 40
0.0
176
     1
 90
        0
176
     1
290
     0
176
     1
290
     1
176
     1
290
     1
176
     1
290
     0
176
     1
290
     0
176
     1
290
     0
176
     1
290
     0
176
     1
290
     0
176
     1
290
     0
176
     1
 90
       50
176
     1
 40
0.0
176
     1
 40
1.0
176
     1
 90
        0
176
     1
 62
    18
420
        0
176
     1
 90
       50
176
     1
 90
        3
176
     1
 62
     5
420
      255
176
     1
290
     0
176
     1
 90
       50
176
     1
 90
       50
176
     1
 90
       50
176
     1
290
     0
176
     1
 90
       50
176
     1
 62
   256
176
     0
 40
1.0
176
     0
 90
        2
176
     1
  1
strokes_ogs.tif
176
     1
290
     0
176
     1
 40
1.0
176
     1
 40
1.0
176
     1
1001
ACAD
1000
AcDbSavedByObjectVersion
1070
     0
  0
VISUALSTYLE
  5
32
102
{ACAD_REACTORS
330
29
102
}
330
29
100
AcDbVisualStyle
  2
Conceptual
 70
     9
177
     3
291
     0
 70
    58
 90
        3
176
     1
 90
        2
176
     1
 90
        0
176
     1
 90
        0
176
     1
 40
0.6
176
     1
 40
30.0
176
     1
 62
     7
420
 16777215
176
     1
 90
        2
176
     1
 90
        2
176
     1
 62
     7
176
     1
 62
   257
176
     1
 90
        1
176
     1
 90
        1
176
     1
 40
179.0
176
     1
 90
        8
176
     1
 62
     7
176
     1
 40
1.0
176
     1
 90
        1
176
     1
 90
        6
176
     1
 90
        2
176
     1
 62
     7
176
     1
 90
        3
176
     1
 90
        0
176
     1
 90
        0
176
     1
290
     0
176
     1
 90
        1
176
     1
 40
0.0
176
     1
 90
        0
176
     1
290
     0
176
     1
290
     1
176
     1
290
     1
176
     1
290
     0
176
     1
290
     0
176
     1
290
     0
176
     1
290
     0
176
     1
290
     0
176
     1
290
     0
176
     1
 90
       50
176
     1
 40
0.0
176
     1
 40
1.0
176
     1
 90
        0
176
     1
 62
    18
420
        0
176
     1
 90
       50
176
     1
 90
        3
176
     1
 62
     5
420
      255
176
     1
290
     0
176
     1
 90
       50
176
     1
 90
       50
176
     1
 90
       50
176
     1
290
     0
176
     1
 90
       50
176
     1
 62
   256
176
     0
 40
1.0
176
     0
 90
        2
176
     1
  1
strokes_ogs.tif
176
     1
290
     0
176
     1
 40
1.0
176
     1
 40
1.0
176
     1
1001
ACAD
1000
AcDbSavedByObjectVersion
1070
     0
  0
VISUALSTYLE
  5
34
102
{ACAD_REACTORS
330
29
102
}
330
29
100
AcDbVisualStyle
  2
Dim
 70
    11
177
     3
291
     1
 70
    58
 90
        2
176
     1
 90
        2
176
     1
 90
        0
176
     1
 90
        0
176
     1
 40
0.6
176
     1
 40
30.0
176
     1
 62
     7
420
 16777215
176
     1
 90
        1
176
     1
 90
        4
176
     1
 62
     7
176
     1
 62
   257
176
     1
 90
        1
176
     1
 90
        1
176
     1
 40
1.0
176
     1
 90
        8
176
     1
 62
     7
176
     1
 40
1.0
176
     1
 90
        1
176
     1
 90
        6
176
     1
 90
        2
176
     1
 62
     7
176
     1
 90
        5
176
     1
 90
        0
176
     1
 90
        0
176
     1
290
     0
176
     1
 90
        1
176
     1
 40
-50.0
176
     1
 90
        0
176
     1
290
     0
176
     1
290
     1
176
     1
290
     1
176
     1
290
     0
176
     1
290
     0
176
     1
290
     0
176
     1
290
     0
176
     1
290
     0
176
     1
290
     0
176
     1
 90
       50
176
     1
 40
0.0
176
     1
 40
1.0
176
     1
 90
        0
176
     1
 62
    18
420
        0
176
     1
 90
       50
176
     1
 90
        3
176
     1
 62
     5
420
      255
176
     1
290
     0
176
     1
 90
       50
176
     1
 90
       50
176
     1
 90
       50
176
     1
290
     0
176
     1
 90
       50
176
     1
 62
   256
176
     0
 40
1.0
176
     0
 90
        2
176
     1
  1
strokes_ogs.tif
176
     1
290
     0
176
     1
 40
1.0
176
     1
 40
1.0
176
     1
1001
ACAD
1000
AcDbSavedByObjectVersion
1070
     0
  0
VISUALSTYLE
  5
41
102
{ACAD_REACTORS
330
29
102
}
330
29
100
AcDbVisualStyle
  2
EdgeColorOff
 70
    22
177
     3
291
     1
 70
    58
 90
        2
176
     0
 90
        2
176
     0
 90
        0
176
     0
 90
        0
176
     0
 40
0.6
176
     0
 40
30.0
176
     0
 62
     7
420
 16777215
176
     0
 90
        1
176
     0
 90
        4
176
     0
 62
     7
176
     0
 62
   257
176
     0
 90
        1
176
     0
 90
        1
176
     0
 40
1.0
176
     0
 90
        8
176
     2
 62
     7
176
     0
 40
1.0
176
     0
 90
        1
176
     0
 90
        6
176
     0
 90
        2
176
     0
 62
     7
176
     0
 90
        5
176
     0
 90
        0
176
     0
 90
        0
176
     0
290
     0
176
     0
 90
        1
176
     0
 40
0.0
176
     0
 90
        0
176
     0
290
     0
176
     0
290
     1
176
     0
290
     1
176
     0
290
     0
176
     0
290
     0
176
     0
290
     0
176
     0
290
     0
176
     0
290
     0
176
     0
290
     0
176
     0
 90
       50
176
     0
 40
0.0
176
     0
 40
1.0
176
     0
 90
        0
176
     0
 62
    18
420
        0
176
     0
 90
       50
176
     0
 90
        3
176
     0
 62
     5
420
      255
176
     0
290
     0
176
     0
 90
       50
176
     0
 90
       50
176
     0
 90
       50
176
     0
290
     0
176
     0
 90
       50
176
     0
 62
   256
176
     0
 40
1.0
176
     0
 90
        2
176
     0
  1
strokes_ogs.tif
176
     0
290
     0
176
     0
 40
1.0
176
     0
 40
1.0
176
     0
1001
ACAD
1000
AcDbSavedByObjectVersion
1070
     0
  0
VISUALSTYLE
  5
38
102
{ACAD_REACTORS
330
29
102
}
330
29
100
AcDbVisualStyle
  2
Facepattern
 70
    15
177
     3
291
     1
 70
    58
 90
        2
176
     1
 90
        2
176
     1
 90
        0
176
     1
 90
        0
176
     1
 40
0.6
176
     1
 40
30.0
176
     1
 62
     7
420
 16777215
176
     1
 90
        1
176
     1
 90
        4
176
     1
 62
     7
176
     1
 62
   257
176
     1
 90
        1
176
     1
 90
        1
176
     1
 40
1.0
176
     1
 90
        8
176
     1
 62
     7
176
     1
 40
1.0
176
     1
 90
        1
176
     1
 90
        6
176
     1
 90
        2
176
     1
 62
     7
176
     1
 90
        5
176
     1
 90
        0
176
     1
 90
        0
176
     1
290
     0
176
     1
 90
        1
176
     1
 40
0.0
176
     1
 90
        0
176
     1
290
     0
176
     1
290
     1
176
     1
290
     1
176
     1
290
     0
176
     1
290
     0
176
     1
290
     0
176
     1
290
     0
176
     1
290
     0
176
     1
290
     0
176
     1
 90
       50
176
     1
 40
0.0
176
     1
 40
1.0
176
     1
 90
        0
176
     1
 62
    18
420
        0
176
     1
 90
       50
176
     1
 90
        3
176
     1
 62
     5
420
      255
176
     1
290
     0
176
     1
 90
       50
176
     1
 90
       50
176
     1
 90
       50
176
     1
290
     0
176
     1
 90
       50
176
     1
 62
   256
176
     0
 40
1.0
176
     0
 90
        2
176
     1
  1
strokes_ogs.tif
176
     1
290
     0
176
     1
 40
1.0
176
     1
 40
1.0
176
     1
1001
ACAD
1000
AcDbSavedByObjectVersion
1070
     0
  0
VISUALSTYLE
  5
2A
102
{ACAD_REACTORS
330
29
102
}
330
29
100
AcDbVisualStyle
  2
Flat
 70
     0
177
     3
291
     1
 70
    58
 90
        2
176
     1
 90
        1
176
     1
 90
        1
176
     1
 90
        2
176
     1
 40
0.6
176
     1
 40
30.0
176
     1
 62
     7
420
 16777215
176
     1
 90
        0
176
     1
 90
        0
176
     1
 62
     7
176
     1
 62
   257
176
     1
 90
        1
176
     1
 90
        1
176
     1
 40
1.0
176
     1
 90
        8
176
     1
 62
     7
176
     1
 40
1.0
176
     1
 90
        1
176
     1
 90
        6
176
     1
 90
        2
176
     1
 62
     7
176
     1
 90
        5
176
     1
 90
        0
176
     1
 90
        0
176
     1
290
     0
176
     1
 90
       13
176
     1
 40
0.0
176
     1
 90
        0
176
     1
290
     0
176
     1
290
     1
176
     1
290
     1
176
     1
290
     0
176
     1
290
     0
176
     1
290
     0
176
     1
290
     0
176
     1
290
     0
176
     1
290
     0
176
     1
 90
       50
176
     1
 40
0.0
176
     1
 40
1.0
176
     1
 90
        0
176
     1
 62
    18
420
        0
176
     1
 90
       50
176
     1
 90
        3
176
     1
 62
     5
420
      255
176
     1
290
     0
176
     1
 90
       50
176
     1
 90
       50
176
     1
 90
       50
176
     1
290
     0
176
     1
 90
       50
176
     1
 62
   256
176
     0
 40
1.0
176
     0
 90
        2
176
     1
  1
strokes_ogs.tif
176
     1
290
     0
176
     1
 40
1.0
176
     1
 40
1.0
176
     1
1001
ACAD
1000
AcDbSavedByObjectVersion
1070
     0
  0
VISUALSTYLE
  5
2B
102
{ACAD_REACTORS
330
29
102
}
330
29
100
AcDbVisualStyle
  2
FlatWithEdges
 70
     1
177
     3
291
     1
 70
    58
 90
        2
176
     1
 90
        1
176
     1
 90
        1
176
     1
 90
        2
176
     1
 40
0.6
176
     1
 40
30.0
176
     1
 62
     7
420
 16777215
176
     1
 90
        1
176
     1
 90
        0
176
     1
 62
     7
176
     1
 62
   257
176
     1
 90
        1
176
     1
 90
        1
176
     1
 40
1.0
176
     1
 90
        0
176
     1
 62
   257
176
     1
 40
1.0
176
     1
 90
        1
176
     1
 90
        6
176
     1
 90
        2
176
     1
 62
     7
176
     1
 90
        5
176
     1
 90
        0
176
     1
 90
        0
176
     1
290
     0
176
     1
 90
       13
176
     1
 40
0.0
176
     1
 90
        0
176
     1
290
     0
176
     1
290
     1
176
     1
290
     1
176
     1
290
     0
176
     1
290
     0
176
     1
290
     0
176
     1
290
     0
176
     1
290
     0
176
     1
290
     0
176
     1
 90
       50
176
     1
 40
0.0
176
     1
 40
1.0
176
     1
 90
        0
176
     1
 62
    18
420
        0
176
     1
 90
       50
176
     1
 90
        3
176
     1
 62
     5
420
      255
176
     1
290
     0
176
     1
 90
       50
176
     1
 90
       50
176
     1
 90
       50
176
     1
290
     0
176
     1
 90
       50
176
     1
 62
   256
176
     0
 40
1.0
176
     0
 90
        2
176
     1
  1
strokes_ogs.tif
176
     1
290
     0
176
     1
 40
1.0
176
     1
 40
1.0
176
     1
1001
ACAD
1000
AcDbSavedByObjectVersion
1070
     0
  0
VISUALSTYLE
  5
2C
102
{ACAD_REACTORS
330
29
102
}
330
29
100
AcDbVisualStyle
  2
Gouraud
 70
     2
177
     3
291
     1
 70
    58
 90
        2
176
     1
 90
        2
176
     1
 90
        1
176
     1
 90
        2
176
     1
 40
0.6
176
     1
 40
30.0
176
     1
 62
     7
420
 16777215
176
     1
 90
        0
176
     1
 90
        0
176
     1
 62
     7
176
     1
 62
   257
176
     1
 90
        1
176
     1
 90
        1
176
     1
 40
1.0
176
     1
 90
        0
176
     1
 62
     7
176
     1
 40
1.0
176
     1
 90
        1
176
     1
 90
        6
176
     1
 90
        2
176
     1
 62
     7
176
     1
 90
        5
176
     1
 90
        0
176
     1
 90
        0
176
     1
290
     0
176
     1
 90
       13
176
     1
 40
0.0
176
     1
 90
        0
176
     1
290
     0
176
     1
290
     1
176
     1
290
     1
176
     1
290
     0
176
     1
290
     0
176
     1
290
     0
176
     1
290
     0
176
     1
290
     0
176
     1
290
     0
176
     1
 90
       50
176
     1
 40
0.0
176
     1
 40
1.0
176
     1
 90
        0
176
     1
 62
    18
420
        0
176
     1
 90
       50
176
     1
 90
        3
176
     1
 62
     5
420
      255
176
     1
290
     0
176
     1
 90
       50
176
     1
 90
       50
176
     1
 90
       50
176
     1
290
     0
176
     1
 90
       50
176
     1
 62
   256
176
     0
 40
1.0
176
     0
 90
        2
176
     1
  1
strokes_ogs.tif
176
     1
290
     0
176
     1
 40
1.0
176
     1
 40
1.0
176
     1
1001
ACAD
1000
AcDbSavedByObjectVersion
1070
     0
  0
VISUALSTYLE
  5
2D
102
{ACAD_REACTORS
330
29
102
}
330
29
100
AcDbVisualStyle
  2
GouraudWithEdges
 70
     3
177
     3
291
     1
 70
    58
 90
        2
176
     1
 90
        2
176
     1
 90
        1
176
     1
 90
        2
176
     1
 40
0.6
176
     1
 40
30.0
176
     1
 62
     7
420
 16777215
176
     1
 90
        1
176
     1
 90
        0
176
     1
 62
     7
176
     1
 62
   257
176
     1
 90
        1
176
     1
 90
        1
176
     1
 40
1.0
176
     1
 90
        0
176
     1
 62
   257
176
     1
 40
1.0
176
     1
 90
        1
176
     1
 90
        6
176
     1
 90
        2
176
     1
 62
     7
176
     1
 90
        5
176
     1
 90
        0
176
     1
 90
        0
176
     1
290
     0
176
     1
 90
       13
176
     1
 40
0.0
176
     1
 90
        0
176
     1
290
     0
176
     1
290
     1
176
     1
290
     1
176
     1
290
     0
176
     1
290
     0
176
     1
290
     0
176
     1
290
     0
176
     1
290
     0
176
     1
290
     0
176
     1
 90
       50
176
     1
 40
0.0
176
     1
 40
1.0
176
     1
 90
        0
176
     1
 62
    18
420
        0
176
     1
 90
       50
176
     1
 90
        3
176
     1
 62
     5
420
      255
176
     1
290
     0
176
     1
 90
       50
176
     1
 90
       50
176
     1
 90
       50
176
     1
290
     0
176
     1
 90
       50
176
     1
 62
   256
176
     0
 40
1.0
176
     0
 90
        2
176
     1
  1
strokes_ogs.tif
176
     1
290
     0
176
     1
 40
1.0
176
     1
 40
1.0
176
     1
1001
ACAD
1000
AcDbSavedByObjectVersion
1070
     0
  0
VISUALSTYLE
  5
31
102
{ACAD_REACTORS
330
29
102
}
330
29
100
AcDbVisualStyle
  2
Hidden
 70
     6
177
     3
291
     0
 70
    58
 90
        1
176
     1
 90
        2
176
     1
 90
        2
176
     1
 90
        0
176
     1
 40
0.6
176
     1
 40
30.0
176
     1
 62
     7
420
 16777215
176
     1
 90
        2
176
     1
 90
        2
176
     1
 62
     7
176
     1
 62
   257
176
     1
 90
        2
176
     1
 90
        1
176
     1
 40
40.0
176
     1
 90
        0
176
     1
 62
   257
176
     1
 40
1.0
176
     1
 90
        1
176
     1
 90
        6
176
     1
 90
        2
176
     1
 62
     7
176
     1
 90
        3
176
     1
 90
        0
176
     1
 90
        0
176
     1
290
     0
176
     1
 90
        1
176
     1
 40
0.0
176
     1
 90
        0
176
     1
290
     0
176
     1
290
     1
176
     1
290
     1
176
     1
290
     0
176
     1
290
     0
176
     1
290
     0
176
     1
290
     0
176
     1
290
     0
176
     1
290
     0
176
     1
 90
       50
176
     1
 40
0.0
176
     1
 40
1.0
176
     1
 90
        0
176
     1
 62
    18
420
        0
176
     1
 90
       50
176
     1
 90
        3
176
     1
 62
     5
420
      255
176
     1
290
     0
176
     1
 90
       50
176
     1
 90
       50
176
     1
 90
       50
176
     1
290
     0
176
     1
 90
       50
176
     1
 62
   256
176
     0
 40
1.0
176
     0
 90
        2
176
     1
  1
strokes_ogs.tif
176
     1
290
     0
176
     1
 40
1.0
176
     1
 40
1.0
176
     1
1001
ACAD
1000
AcDbSavedByObjectVersion
1070
     0
  0
VISUALSTYLE
  5
3F
102
{ACAD_REACTORS
330
29
102
}
330
29
100
AcDbVisualStyle
  2
JitterOff
 70
    20
177
     3
291
     1
 70
    58
 90
        2
176
     0
 90
        2
176
     0
 90
        0
176
     0
 90
        0
176
     0
 40
0.6
176
     0
 40
30.0
176
     0
 62
     7
420
 16777215
176
     0
 90
        1
176
     0
 90
        4
176
     0
 62
     7
176
     0
 62
   257
176
     0
 90
        1
176
     0
 90
        1
176
     0
 40
1.0
176
     0
 90
       10
176
     2
 62
     7
176
     0
 40
1.0
176
     0
 90
        1
176
     0
 90
        6
176
     0
 90
        2
176
     0
 62
     7
176
     0
 90
        5
176
     0
 90
        0
176
     0
 90
        0
176
     0
290
     0
176
     0
 90
        1
176
     0
 40
0.0
176
     0
 90
        0
176
     0
290
     0
176
     0
290
     1
176
     0
290
     1
176
     0
290
     0
176
     0
290
     0
176
     0
290
     0
176
     0
290
     0
176
     0
290
     0
176
     0
290
     0
176
     0
 90
       50
176
     0
 40
0.0
176
     0
 40
1.0
176
     0
 90
        0
176
     0
 62
    18
420
        0
176
     0
 90
       50
176
     0
 90
        3
176
     0
 62
     5
420
      255
176
     0
290
     0
176
     0
 90
       50
176
     0
 90
       50
176
     0
 90
       50
176
     0
290
     0
176
     0
 90
       50
176
     0
 62
   256
176
     0
 40
1.0
176
     0
 90
        2
176
     0
  1
strokes_ogs.tif
176
     0
290
     0
176
     0
 40
1.0
176
     0
 40
1.0
176
     0
1001
ACAD
1000
AcDbSavedByObjectVersion
1070
     0
  0
VISUALSTYLE
  5
37
102
{ACAD_REACTORS
330
29
102
}
330
29
100
AcDbVisualStyle
  2
Linepattern
 70
    14
177
     3
291
     1
 70
    58
 90
        2
176
     1
 90
        2
176
     1
 90
        0
176
     1
 90
        0
176
     1
 40
0.6
176
     1
 40
30.0
176
     1
 62
     7
420
 16777215
176
     1
 90
        1
176
     1
 90
        4
176
     1
 62
     7
176
     1
 62
   257
176
     1
 90
        7
176
     1
 90
        7
176
     1
 40
1.0
176
     1
 90
        8
176
     1
 62
     7
176
     1
 40
1.0
176
     1
 90
        1
176
     1
 90
        6
176
     1
 90
        2
176
     1
 62
     7
176
     1
 90
        5
176
     1
 90
        0
176
     1
 90
        0
176
     1
290
     0
176
     1
 90
        1
176
     1
 40
0.0
176
     1
 90
        0
176
     1
290
     0
176
     1
290
     1
176
     1
290
     1
176
     1
290
     0
176
     1
290
     0
176
     1
290
     0
176
     1
290
     0
176
     1
290
     0
176
     1
290
     0
176
     1
 90
       50
176
     1
 40
0.0
176
     1
 40
1.0
176
     1
 90
        0
176
     1
 62
    18
420
        0
176
     1
 90
       50
176
     1
 90
        3
176
     1
 62
     5
420
      255
176
     1
290
     0
176
     1
 90
       50
176
     1
 90
       50
176
     1
 90
       50
176
     1
290
     0
176
     1
 90
       50
176
     1
 62
   256
176
     0
 40
1.0
176
     0
 90
        2
176
     1
  1
strokes_ogs.tif
176
     1
290
     0
176
     1
 40
1.0
176
     1
 40
1.0
176
     1
1001
ACAD
1000
AcDbSavedByObjectVersion
1070
     0
  0
VISUALSTYLE
  5
40
102
{ACAD_REACTORS
330
29
102
}
330
29
100
AcDbVisualStyle
  2
OverhangOff
 70
    21
177
     3
291
     1
 70
    58
 90
        2
176
     0
 90
        2
176
     0
 90
        0
176
     0
 90
        0
176
     0
 40
0.6
176
     0
 40
30.0
176
     0
 62
     7
420
 16777215
176
     0
 90
        1
176
     0
 90
        4
176
     0
 62
     7
176
     0
 62
   257
176
     0
 90
        1
176
     0
 90
        1
176
     0
 40
1.0
176
     0
 90
        9
176
     2
 62
     7
176
     0
 40
1.0
176
     0
 90
        1
176
     0
 90
        6
176
     0
 90
        2
176
     0
 62
     7
176
     0
 90
        5
176
     0
 90
        0
176
     0
 90
        0
176
     0
290
     0
176
     0
 90
        1
176
     0
 40
0.0
176
     0
 90
        0
176
     0
290
     0
176
     0
290
     1
176
     0
290
     1
176
     0
290
     0
176
     0
290
     0
176
     0
290
     0
176
     0
290
     0
176
     0
290
     0
176
     0
290
     0
176
     0
 90
       50
176
     0
 40
0.0
176
     0
 40
1.0
176
     0
 90
        0
176
     0
 62
    18
420
        0
176
     0
 90
       50
176
     0
 90
        3
176
     0
 62
     5
420
      255
176
     0
290
     0
176
     0
 90
       50
176
     0
 90
       50
176
     0
 90
       50
176
     0
290
     0
176
     0
 90
       50
176
     0
 62
   256
176
     0
 40
1.0
176
     0
 90
        2
176
     0
  1
strokes_ogs.tif
176
     0
290
     0
176
     0
 40
1.0
176
     0
 40
1.0
176
     0
1001
ACAD
1000
AcDbSavedByObjectVersion
1070
     0
  0
VISUALSTYLE
  5
33
102
{ACAD_REACTORS
330
29
102
}
330
29
100
AcDbVisualStyle
  2
Realistic
 70
     8
177
     3
291
     0
 70
    58
 90
        2
176
     1
 90
        3
176
     1
 90
        0
176
     1
 90
        2
176
     1
 40
0.6
176
     1
 40
30.0
176
     1
 62
     7
420
 16777215
176
     1
 90
        0
176
     1
 90
        0
176
     1
 62
     7
176
     1
 62
   257
176
     1
 90
        1
176
     1
 90
        1
176
     1
 40
1.0
176
     1
 90
        8
176
     1
 62
   257
176
     1
 40
1.0
176
     1
 90
        1
176
     1
 90
        6
176
     1
 90
        2
176
     1
 62
     7
176
     1
 90
        3
176
     1
 90
        0
176
     1
 90
        0
176
     1
290
     0
176
     1
 90
       13
176
     1
 40
0.0
176
     1
 90
        0
176
     1
290
     0
176
     1
290
     1
176
     1
290
     1
176
     1
290
     0
176
     1
290
     0
176
     1
290
     0
176
     1
290
     0
176
     1
290
     0
176
     1
290
     0
176
     1
 90
       50
176
     1
 40
0.0
176
     1
 40
1.0
176
     1
 90
        0
176
     1
 62
    18
420
        0
176
     1
 90
       50
176
     1
 90
        3
176
     1
 62
     5
420
      255
176
     1
290
     0
176
     1
 90
       50
176
     1
 90
       50
176
     1
 90
       50
176
     1
290
     0
176
     1
 90
       50
176
     1
 62
   256
176
     0
 40
1.0
176
     0
 90
        2
176
     1
  1
strokes_ogs.tif
176
     1
290
     0
176
     1
 40
1.0
176
     1
 40
1.0
176
     1
1001
ACAD
1000
AcDbSavedByObjectVersion
1070
     0
  0
VISUALSTYLE
  5
3E
102
{ACAD_REACTORS
330
29
102
}
330
29
100
AcDbVisualStyle
  2
Shaded
 70
    27
177
     3
291
     0
 70
    58
 90
        2
176
     1
 90
        2
176
     1
 90
        1
176
     1
 90
        2
176
     1
 40
0.6
176
     1
 40
30.0
176
     1
 62
     7
420
 16777215
176
     1
 90
        0
176
     1
 90
        4
176
     1
 62
     7
176
     1
 62
   257
176
     1
 90
        1
176
     1
 90
        1
176
     1
 40
1.0
176
     1
 90
        8
176
     1
 62
   257
176
     1
 40
1.0
176
     1
 90
        1
176
     1
 90
        6
176
     1
 90
        2
176
     1
 62
     8
420
  7895160
176
     1
 90
        3
176
     1
 90
        0
176
     1
 90
        0
176
     1
290
     0
176
     1
 90
        5
176
     1
 40
0.0
176
     1
 90
        0
176
     1
290
     0
176
     1
290
     1
176
     1
290
     1
176
     1
290
     0
176
     1
290
     0
176
     1
290
     0
176
     1
290
     0
176
     1
290
     0
176
     1
290
     0
176
     1
 90
       50
176
     1
 40
0.0
176
     1
 40
1.0
176
     1
 90
        0
176
     1
 62
    18
420
        0
176
     1
 90
       50
176
     1
 90
        3
176
     1
 62
     5
420
      255
176
     1
290
     0
176
     1
 90
       50
176
     1
 90
       50
176
     1
 90
       50
176
     1
290
     0
176
     1
 90
       50
176
     1
 62
   256
176
     0
 40
1.0
176
     0
 90
        2
176
     1
  1
strokes_ogs.tif
176
     1
290
     0
176
     1
 40
1.0
176
     1
 40
1.0
176
     1
1001
ACAD
1000
AcDbSavedByObjectVersion
1070
     0
  0
VISUALSTYLE
  5
3D
102
{ACAD_REACTORS
330
29
102
}
330
29
100
AcDbVisualStyle
  2
Shaded with edges
 70
    26
177
     3
291
     0
 70
    58
 90
        2
176
     1
 90
        2
176
     1
 90
        1
176
     1
 90
        2
176
     1
 40
0.6
176
     1
 40
30.0
176
     1
 62
     7
420
 16777215
176
     1
 90
        1
176
     1
 90
        2
176
     1
 62
     7
176
     1
 62
   257
176
     1
 90
        2
176
     1
 90
        1
176
     1
 40
1.0
176
     1
 90
        8
176
     1
 62
   257
176
     1
 40
1.0
176
     1
 90
        1
176
     1
 90
        6
176
     1
 90
        2
176
     1
 62
     7
176
     1
 90
        3
176
     1
 90
        0
176
     1
 90
        0
176
     1
290
     0
176
     1
 90
        5
176
     1
 40
0.0
176
     1
 90
        0
176
     1
290
     0
176
     1
290
     1
176
     1
290
     1
176
     1
290
     0
176
     1
290
     0
176
     1
290
     0
176
     1
290
     0
176
     1
290
     0
176
     1
290
     0
176
     1
 90
       50
176
     1
 40
0.0
176
     1
 40
1.0
176
     1
 90
        0
176
     1
 62
    18
420
        0
176
     1
 90
       50
176
     1
 90
        3
176
     1
 62
     5
420
      255
176
     1
290
     0
176
     1
 90
       50
176
     1
 90
       50
176
     1
 90
       50
176
     1
290
     0
176
     1
 90
       50
176
     1
 62
   256
176
     0
 40
1.0
176
     0
 90
        2
176
     1
  1
strokes_ogs.tif
176
     1
290
     0
176
     1
 40
1.0
176
     1
 40
1.0
176
     1
1001
ACAD
1000
AcDbSavedByObjectVersion
1070
     0
  0
VISUALSTYLE
  5
3A
102
{ACAD_REACTORS
330
29
102
}
330
29
100
AcDbVisualStyle
  2
Shades of Gray
 70
    23
177
     3
291
     0
 70
    58
 90
        2
176
     1
 90
        2
176
     1
 90
        3
176
     1
 90
        0
176
     1
 40
0.6
176
     1
 40
30.0
176
     1
 62
     7
420
 16777215
176
     1
 90
        2
176
     1
 90
        2
176
     1
 62
     7
176
     1
 62
     7
176
     1
 90
        1
176
     1
 90
        1
176
     1
 40
40.0
176
     1
 90
        8
176
     1
 62
     7
176
     1
 40
1.0
176
     1
 90
        1
176
     1
 90
        6
176
     1
 90
        2
176
     1
 62
     7
176
     1
 90
        3
176
     1
 90
        0
176
     1
 90
        0
176
     1
290
     0
176
     1
 90
        1
176
     1
 40
0.0
176
     1
 90
        0
176
     1
290
     0
176
     1
290
     1
176
     1
290
     1
176
     1
290
     0
176
     1
290
     0
176
     1
290
     0
176
     1
290
     0
176
     1
290
     0
176
     1
290
     0
176
     1
 90
       50
176
     1
 40
0.0
176
     1
 40
1.0
176
     1
 90
        0
176
     1
 62
    18
420
        0
176
     1
 90
       50
176
     1
 90
        3
176
     1
 62
     5
420
      255
176
     1
290
     0
176
     1
 90
       50
176
     1
 90
       50
176
     1
 90
       50
176
     1
290
     0
176
     1
 90
       50
176
     1
 62
   256
176
     0
 40
1.0
176
     0
 90
        2
176
     1
  1
strokes_ogs.tif
176
     1
290
     0
176
     1
 40
1.0
176
     1
 40
1.0
176
     1
1001
ACAD
1000
AcDbSavedByObjectVersion
1070
     0
  0
VISUALSTYLE
  5
3B
102
{ACAD_REACTORS
330
29
102
}
330
29
100
AcDbVisualStyle
  2
Sketchy
 70
    24
177
     3
291
     0
 70
    58
 90
        1
176
     1
 90
        2
176
     1
 90
        2
176
     1
 90
        0
176
     1
 40
0.6
176
     1
 40
30.0
176
     1
 62
     7
420
 16777215
176
     1
 90
        2
176
     1
 90
        2
176
     1
 62
     7
176
     1
 62
     7
176
     1
 90
        1
176
     1
 90
        1
176
     1
 40
40.0
176
     1
 90
       11
176
     1
 62
     7
176
     1
 40
1.0
176
     1
 90
        1
176
     1
 90
        6
176
     1
 90
        2
176
     1
 62
     7
176
     1
 90
        6
176
     1
 90
        0
176
     1
 90
        0
176
     1
290
     0
176
     1
 90
        1
176
     1
 40
0.0
176
     1
 90
        0
176
     1
290
     0
176
     1
290
     1
176
     1
290
     1
176
     1
290
     0
176
     1
290
     0
176
     1
290
     0
176
     1
290
     0
176
     1
290
     0
176
     1
290
     0
176
     1
 90
       50
176
     1
 40
0.0
176
     1
 40
1.0
176
     1
 90
        0
176
     1
 62
    18
420
        0
176
     1
 90
       50
176
     1
 90
        3
176
     1
 62
     5
420
      255
176
     1
290
     0
176
     1
 90
       50
176
     1
 90
       50
176
     1
 90
       50
176
     1
290
     0
176
     1
 90
       50
176
     1
 62
   256
176
     0
 40
1.0
176
     0
 90
        2
176
     1
  1
strokes_ogs.tif
176
     1
290
     0
176
     1
 40
1.0
176
     1
 40
1.0
176
     1
1001
ACAD
1000
AcDbSavedByObjectVersion
1070
     0
  0
VISUALSTYLE
  5
36
102
{ACAD_REACTORS
330
29
102
}
330
29
100
AcDbVisualStyle
  2
Thicken
 70
    13
177
     3
291
     1
 70
    58
 90
        2
176
     1
 90
        2
176
     1
 90
        0
176
     1
 90
        0
176
     1
 40
0.6
176
     1
 40
30.0
176
     1
 62
     7
420
 16777215
176
     1
 90
        1
176
     1
 90
        4
176
     1
 62
     7
176
     1
 62
   257
176
     1
 90
        1
176
     1
 90
        1
176
     1
 40
1.0
176
     1
 90
       12
176
     1
 62
     7
176
     1
 40
1.0
176
     1
 90
        1
176
     1
 90
        6
176
     1
 90
        2
176
     1
 62
     7
176
     1
 90
        5
176
     1
 90
        0
176
     1
 90
        0
176
     1
290
     0
176
     1
 90
        1
176
     1
 40
0.0
176
     1
 90
        0
176
     1
290
     0
176
     1
290
     1
176
     1
290
     1
176
     1
290
     0
176
     1
290
     0
176
     1
290
     0
176
     1
290
     0
176
     1
290
     0
176
     1
290
     0
176
     1
 90
       50
176
     1
 40
0.0
176
     1
 40
1.0
176
     1
 90
        0
176
     1
 62
    18
420
        0
176
     1
 90
       50
176
     1
 90
        3
176
     1
 62
     5
420
      255
176
     1
290
     0
176
     1
 90
       50
176
     1
 90
       50
176
     1
 90
       50
176
     1
290
     0
176
     1
 90
       50
176
     1
 62
   256
176
     0
 40
1.0
176
     0
 90
        2
176
     1
  1
strokes_ogs.tif
176
     1
290
     0
176
     1
 40
1.0
176
     1
 40
1.0
176
     1
1001
ACAD
1000
AcDbSavedByObjectVersion
1070
     0
  0
VISUALSTYLE
  5
30
102
{ACAD_REACTORS
330
29
102
}
330
29
100
AcDbVisualStyle
  2
Wireframe
 70
     5
177
     3
291
     0
 70
    58
 90
        0
176
     1
 90
        2
176
     1
 90
        0
176
     1
 90
        0
176
     1
 40
0.6
176
     1
 40
30.0
176
     1
 62
     7
420
 16777215
176
     1
 90
        1
176
     1
 90
        4
176
     1
 62
     7
176
     1
 62
   257
176
     1
 90
        1
176
     1
 90
        1
176
     1
 40
1.0
176
     1
 90
        0
176
     1
 62
   257
176
     1
 40
1.0
176
     1
 90
        1
176
     1
 90
        6
176
     1
 90
        2
176
     1
 62
     7
176
     1
 90
        3
176
     1
 90
        0
176
     1
 90
        0
176
     1
290
     0
176
     1
 90
        1
176
     1
 40
0.0
176
     1
 90
        0
176
     1
290
     0
176
     1
290
     1
176
     1
290
     1
176
     1
290
     0
176
     1
290
     0
176
     1
290
     0
176
     1
290
     0
176
     1
290
     0
176
     1
290
     0
176
     1
 90
       50
176
     1
 40
0.0
176
     1
 40
1.0
176
     1
 90
        0
176
     1
 62
    18
420
        0
176
     1
 90
       50
176
     1
 90
        3
176
     1
 62
     5
420
      255
176
     1
290
     0
176
     1
 90
       50
176
     1
 90
       50
176
     1
 90
       50
176
     1
290
     0
176
     1
 90
       50
176
     1
 62
   256
176
     0
 40
1.0
176
     0
 90
        2
176
     1
  1
strokes_ogs.tif
176
     1
290
     0
176
     1
 40
1.0
176
     1
 40
1.0
176
     1
1001
ACAD
1000
AcDbSavedByObjectVersion
1070
     0
  0
VISUALSTYLE
  5
3C
102
{ACAD_REACTORS
330
29
102
}
330
29
100
AcDbVisualStyle
  2
X-Ray
 70
    25
177
     3
291
     0
 70
    58
 90
        2
176
     1
 90
        2
176
     1
 90
        1
176
     1
 90
        1
176
     1
 40
0.5
176
     1
 40
30.0
176
     1
 62
     7
420
 16777215
176
     1
 90
        1
176
     1
 90
        0
176
     1
 62
     7
176
     1
 62
   257
176
     1
 90
        1
176
     1
 90
        1
176
     1
 40
1.0
176
     1
 90
        8
176
     1
 62
     7
176
     1
 40
1.0
176
     1
 90
        1
176
     1
 90
        6
176
     1
 90
        2
176
     1
 62
     7
176
     1
 90
        3
176
     1
 90
        0
176
     1
 90
        0
176
     1
290
     0
176
     1
 90
       13
176
     1
 40
0.0
176
     1
 90
        0
176
     1
290
     0
176
     1
290
     1
176
     1
290
     1
176
     1
290
     0
176
     1
290
     0
176
     1
290
     0
176
     1
290
     0
176
     1
290
     0
176
     1
290
     0
176
     1
 90
       50
176
     1
 40
0.0
176
     1
 40
1.0
176
     1
 90
        0
176
     1
 62
    18
420
        0
176
     1
 90
       50
176
     1
 90
        3
176
     1
 62
     5
420
      255
176
     1
290
     0
176
     1
 90
       50
176
     1
 90
       50
176
     1
 90
       50
176
     1
290
     0
176
     1
 90
       50
176
     1
 62
   256
176
     0
 40
1.0
176
     0
 90
        2
176
     1
  1
strokes_ogs.tif
176
     1
290
     0
176
     1
 40
1.0
176
     1
 40
1.0
176
     1
1001
ACAD
1000
AcDbSavedByObjectVersion
1070
     0
  0
DICTIONARYVAR
  5
172
102
{ACAD_REACTORS
330
16D
102
}
330
16D
100
DictionaryVariables
280
     0
  1
1:1
  0
DICTIONARYVAR
  5
16F
102
{ACAD_REACTORS
330
16D
102
}
330
16D
100
DictionaryVariables
280
     0
  1
STANDARD
  0
DICTIONARYVAR
  5
16E
102
{ACAD_REACTORS
330
16D
102
}
330
16D
100
DictionaryVariables
280
     0
  1
STANDARD
  0
DICTIONARYVAR
  5
170
102
{ACAD_REACTORS
330
16D
102
}
330
16D
100
DictionaryVariables
280
     0
  1
Imperial24
  0
DICTIONARYVAR
  5
171
102
{ACAD_REACTORS
330
16D
102
}
330
16D
100
DictionaryVariables
280
     0
  1
Imperial24
  0
DICTIONARY
  5
178
330
6B
100
AcDbDictionary
280
     1
281
     1
  3
ACAD_XREC_ROUNDTRIP
360
179
  0
DICTIONARY
  5
1A
330
19
100
AcDbDictionary
280
     1
281
     1
  3
BUMPTILE
360
1C
  3
DIFFUSETILE
360
1B
  3
OPACITYTILE
360
1F
  3
REFLECTIONTILE
360
1E
  3
REFRACTIONTILE
360
20
  3
SPECULARTILE
360
1D
  0
DICTIONARY
  5
12
330
11
100
AcDbDictionary
280
     1
281
     1
  3
BUMPTILE
360
14
  3
DIFFUSETILE
360
13
  3
OPACITYTILE
360
17
  3
REFLECTIONTILE
360
16
  3
REFRACTIONTILE
360
18
  3
SPECULARTILE
360
15
  0
DICTIONARY
  5
22
330
21
100
AcDbDictionary
280
     1
281
     1
  3
BUMPTILE
360
24
  3
DIFFUSETILE
360
23
  3
OPACITYTILE
360
27
  3
REFLECTIONTILE
360
26
  3
REFRACTIONTILE
360
28
  3
SPECULARTILE
360
25
  0
DICTIONARY
  5
176
330
69
100
AcDbDictionary
280
     1
281
     1
  3
ACAD_XREC_ROUNDTRIP
360
177
  0
DICTIONARY
  5
173
330
65
100
AcDbDictionary
280
     1
281
     1
  3
ACAD_ROUNDTRIP_2008_TABLESTYLE_CELLSTYLEMAP
360
174
  0
XRECORD
  5
179
102
{ACAD_REACTORS
330
178
102
}
330
178
100
AcDbXrecord
280
     1
102
DISPLAYNAME
  1
Imperial24
102
FLAGS
 90
        0
  0
XRECORD
  5
1C
102
{ACAD_REACTORS
330
1A
102
}
330
1A
100
AcDbXrecord
280
     1
270
     1
271
     1
  0
XRECORD
  5
1B
102
{ACAD_REACTORS
330
1A
102
}
330
1A
100
AcDbXrecord
280
     1
270
     1
271
     1
  0
XRECORD
  5
1F
102
{ACAD_REACTORS
330
1A
102
}
330
1A
100
AcDbXrecord
280
     1
270
     1
271
     1
  0
XRECORD
  5
1E
102
{ACAD_REACTORS
330
1A
102
}
330
1A
100
AcDbXrecord
280
     1
270
     1
271
     1
  0
XRECORD
  5
20
102
{ACAD_REACTORS
330
1A
102
}
330
1A
100
AcDbXrecord
280
     1
270
     1
271
     1
  0
XRECORD
  5
1D
102
{ACAD_REACTORS
330
1A
102
}
330
1A
100
AcDbXrecord
280
     1
270
     1
271
     1
  0
XRECORD
  5
14
102
{ACAD_REACTORS
330
12
102
}
330
12
100
AcDbXrecord
280
     1
270
     1
271
     1
  0
XRECORD
  5
13
102
{ACAD_REACTORS
330
12
102
}
330
12
100
AcDbXrecord
280
     1
270
     1
271
     1
  0
XRECORD
  5
17
102
{ACAD_REACTORS
330
12
102
}
330
12
100
AcDbXrecord
280
     1
270
     1
271
     1
  0
XRECORD
  5
16
102
{ACAD_REACTORS
330
12
102
}
330
12
100
AcDbXrecord
280
     1
270
     1
271
     1
  0
XRECORD
  5
18
102
{ACAD_REACTORS
330
12
102
}
330
12
100
AcDbXrecord
280
     1
270
     1
271
     1
  0
XRECORD
  5
15
102
{ACAD_REACTORS
330
12
102
}
330
12
100
AcDbXrecord
280
     1
270
     1
271
     1
  0
XRECORD
  5
24
102
{ACAD_REACTORS
330
22
102
}
330
22
100
AcDbXrecord
280
     1
270
     1
271
     1
  0
XRECORD
  5
23
102
{ACAD_REACTORS
330
22
102
}
330
22
100
AcDbXrecord
280
     1
270
     1
271
     1
  0
XRECORD
  5
27
102
{ACAD_REACTORS
330
22
102
}
330
22
100
AcDbXrecord
280
     1
270
     1
271
     1
  0
XRECORD
  5
26
102
{ACAD_REACTORS
330
22
102
}
330
22
100
AcDbXrecord
280
     1
270
     1
271
     1
  0
XRECORD
  5
28
102
{ACAD_REACTORS
330
22
102
}
330
22
100
AcDbXrecord
280
     1
270
     1
271
     1
  0
XRECORD
  5
25
102
{ACAD_REACTORS
330
22
102
}
330
22
100
AcDbXrecord
280
     1
270
     1
271
     1
  0
XRECORD
  5
177
102
{ACAD_REACTORS
330
176
102
}
330
176
100
AcDbXrecord
280
     1
102
DISPLAYNAME
  1
Imperial24
102
FLAGS
 90
        0
  0
CELLSTYLEMAP
  5
174
102
{ACAD_REACTORS
330
173
102
}
330
173
100
AcDbCellStyleMap
 90
        3
300
CELLSTYLE
  1
TABLEFORMAT_BEGIN
 90
        5
170
     1
 91
        0
 92
    32768
 62
   257
 93
        1
300
CONTENTFORMAT
  1
CONTENTFORMAT_BEGIN
 90
        0
 91
        0
 92
      512
 93
        0
300

 40
0.0
140
1.0
 94
        5
 62
     0
340
55
144
0.25
309
CONTENTFORMAT_END
171
     0
 94
        0
309
TABLEFORMAT_END
  1
CELLSTYLE_BEGIN
 90
        1
 91
        1
300
_TITLE
309
CELLSTYLE_END
300
CELLSTYLE
  1
TABLEFORMAT_BEGIN
 90
        5
170
     1
 91
        0
 92
        0
 62
   257
 93
        1
300
CONTENTFORMAT
  1
CONTENTFORMAT_BEGIN
 90
        0
 91
        0
 92
      512
 93
        0
300

 40
0.0
140
1.0
 94
        5
 62
     0
340
55
144
0.18
309
CONTENTFORMAT_END
171
     0
 94
        0
309
TABLEFORMAT_END
  1
CELLSTYLE_BEGIN
 90
        2
 91
        1
300
_HEADER
309
CELLSTYLE_END
300
CELLSTYLE
  1
TABLEFORMAT_BEGIN
 90
        5
170
     1
 91
        0
 92
        0
 62
   257
 93
        1
300
CONTENTFORMAT
  1
CONTENTFORMAT_BEGIN
 90
        0
 91
        0
 92
      512
 93
        0
300

 40
0.0
140
1.0
 94
        2
 62
     0
340
55
144
0.18
309
CONTENTFORMAT_END
171
     0
 94
        0
309
TABLEFORMAT_END
  1
CELLSTYLE_BEGIN
 90
        3
 91
        2
300
_DATA
309
CELLSTYLE_END
  0
ENDSEC
  0
EOF
