0
SECTION
2
HEADER
9
$INSUNITS
70
4
9
$ACADVER
1
AC1014
9
$HANDSEED
5
FFFF
0
ENDSEC
0
SECTION
2
TABLES
0
TABLE
2
VPORT
5
8
100
AcDbSymbolTable
0
ENDTAB
0
TABLE
2
LTYPE
5
5
100
AcDbSymbolTable
0
LTYPE
5
14
100
AcDbSymbolTableRecord
100
AcDbLinetypeTableRecord
2
BYBLOCK
70
0
0
LTYPE
5
15
100
AcDbSymbolTableRecord
100
AcDbLinetypeTableRecord
2
BYLAYER
70
0
0
ENDTAB
0
TABLE
2
LAYER
5
2
100
AcDbSymbolTable
70
2
0
LAYER
5
50
100
AcDbSymbolTableRecord
100
AcDbLayerTableRecord
2
0
70
0
6
CONTINUOUS
0
ENDTAB
0
TABLE
2
STYLE
5
3
100
AcDbSymbolTable
70
1
0
STYLE
5
11
100
AcDbSymbolTableRecord
100
AcDbTextStyleTableRecord
2
STANDARD
70
0
0
ENDTAB
0
TABLE
2
VIEW
5
6
100
AcDbSymbolTable
70
0
0
ENDTAB
0
TABLE
2
UCS
5
7
100
AcDbSymbolTable
70
0
0
ENDTAB
0
TABLE
2
APPID
5
9
100
AcDbSymbolTable
70
2
0
APPID
5
12
100
AcDbSymbolTableRecord
100
AcDbRegAppTableRecord
2
ACAD
70
0
0
ENDTAB
0
TABLE
2
DIMSTYLE
5
A
100
AcDbSymbolTable
70
1
0
ENDTAB
0
TABLE
2
BLOCK_RECORD
5
1
100
AcDbSymbolTable
70
1
0
BLOCK_RECORD
5
1F
100
AcDbSymbolTableRecord
100
AcDbBlockTableRecord
2
*MODEL_SPACE
0
BLOCK_RECORD
5
1B
100
AcDbSymbolTableRecord
100
AcDbBlockTableRecord
2
*PAPER_SPACE
0
ENDTAB
0
ENDSEC
0
SECTION
2
BLOCKS
0
BLOCK
5
20
100
AcDbEntity
100
AcDbBlockBegin
2
*MODEL_SPACE
0
ENDBLK
5
21
100
AcDbEntity
100
AcDbBlockEnd
0
BLOCK
5
1C
100
AcDbEntity
100
AcDbBlockBegin
2
*PAPER_SPACE
0
ENDBLK
5
1D
100
AcDbEntity
100
AcDbBlockEnd
0
ENDSEC
0
SECTION
2
ENTITIES
0
CIRCLE
5
100
100
AcDbEntity
8
0
100
AcDbCircle
10
-21.5
20
0
30
0
40
1.0000000000000011
210
0
220
0
230
1
0
LINE
5
101
100
AcDbEntity
8
0
100
AcDbLine
10
-5.6334368540005038
20
19.68328157299975
30
0
11
-8.3482455718613409
21
18.325877214066722
31
0
0
LINE
5
102
100
AcDbEntity
8
0
100
AcDbLine
10
-12.096737918284877
20
19.218330607566948
30
0
11
-35.000270331242511
21
50.000403029159685
31
0
0
ARC
5
103
100
AcDbEntity
8
0
100
AcDbCircle
10
-43.955523069424622
20
43.337208993811743
30
0
40
11.162199888794973
210
0
220
-0
230
1
100
AcDbArc
50
36.651248927064096
51
210.2598838492606
0
ARC
5
104
100
AcDbEntity
8
0
100
AcDbCircle
10
-9.6898863583622514
20
21.009158787068518
30
0
40
2.9999999999998153
210
0
220
0
230
1
100
AcDbArc
50
216.65124892715102
51
296.5650511770782
0
CIRCLE
5
105
100
AcDbEntity
8
0
100
AcDbCircle
10
46.999999999999993
20
8.0000000000000036
30
0
40
1.0499999999999985
210
0
220
0
230
1
0
CIRCLE
5
106
100
AcDbEntity
8
0
100
AcDbCircle
10
-30.000000000000021
20
9.9999999254941976
30
0
40
1.0500000000000007
210
0
220
0
230
1
0
CIRCLE
5
107
100
AcDbEntity
8
0
100
AcDbCircle
10
10
20
10
30
0
40
1.0499999999999998
210
0
220
0
230
1
0
CIRCLE
5
108
100
AcDbEntity
8
0
100
AcDbCircle
10
-10
20
10
30
0
40
1.0499999999999998
210
0
220
0
230
1
0
ARC
5
109
100
AcDbEntity
8
0
100
AcDbCircle
10
37.002233332184026
20
17.000000000000011
30
0
40
6.0000000000000062
210
0
220
0
230
1
100
AcDbArc
50
148.6153239569407
51
269.99999999999989
0
LINE
5
110
100
AcDbEntity
8
0
100
AcDbLine
10
37.002233332184019
20
11.000000000000005
30
0
11
47
21
11.000000000000005
31
0
0
CIRCLE
5
111
100
AcDbEntity
8
0
100
AcDbCircle
10
21.5
20
0
30
0
40
0.99999999999999978
210
0
220
0
230
1
0
CIRCLE
5
112
100
AcDbEntity
8
0
100
AcDbCircle
10
0
20
15
30
0
40
1
210
0
220
0
230
1
0
LINE
5
113
100
AcDbEntity
8
0
100
AcDbLine
10
-38.9355935861131
20
31.690408662292263
30
0
11
-32.611642093617107
21
21.323879428581396
31
0
0
ARC
5
114
100
AcDbEntity
8
0
100
AcDbCircle
10
-36.880092656602017
20
18.719972788290061
30
0
40
4.9999999999999512
210
-0
220
0
230
1
100
AcDbArc
50
0
51
31.384676043059557
0
CIRCLE
5
115
100
AcDbEntity
8
0
100
AcDbCircle
10
31.499999999999993
20
8.0000000000000053
30
0
40
1.0499999999999998
210
0
220
0
230
1
0
LINE
5
116
100
AcDbEntity
8
0
100
AcDbLine
10
-33.000000491738312
20
3.9387815433924689
30
0
11
-33.000000491738319
21
0
31
0
0
ARC
5
117
100
AcDbEntity
8
0
100
AcDbCircle
10
-3.3306690738754696e-15
20
8.4164078649987584
30
0
40
12.596747752497672
210
0
220
-0
230
1
100
AcDbArc
50
63.43494882292196
51
116.56505117707802
0
ARC
5
118
100
AcDbEntity
8
0
100
AcDbCircle
10
-50.470065831375052
20
24.466472124341728
30
0
40
13.609897467690747
210
0
220
-0
230
1
100
AcDbArc
50
32.058544791401381
51
103.28199762930259
0
ARC
5
119
100
AcDbEntity
8
0
100
AcDbCircle
10
47
20
-2.2204460492503131e-15
30
0
40
11.000000000000007
210
0
220
-0
230
1
100
AcDbArc
50
36.316837290158269
51
90
0
LINE
5
120
100
AcDbEntity
8
0
100
AcDbLine
10
55.711571724736039
20
-3.9631241288597119
30
0
11
54.560699915996231
21
-2.7342515312352633
31
0
0
LINE
5
121
100
AcDbEntity
8
0
100
AcDbLine
10
55.711571724736032
20
3.9631241288597079
30
0
11
54.560699915996231
21
2.7342515312352633
31
0
0
ARC
5
122
100
AcDbEntity
8
0
100
AcDbCircle
10
57.480266418738964
20
0
30
0
40
3.9999999999999774
210
0
220
0
230
1
100
AcDbArc
50
136.87730942314991
51
223.12269057685009
0
ARC
5
123
100
AcDbEntity
8
0
100
AcDbCircle
10
54.251788473364641
20
5.3302498944773458
30
0
40
2.0000000000000093
210
0
220
0
230
1
100
AcDbArc
50
-43.122690576849791
51
36.316837290158063
0
CIRCLE
5
124
100
AcDbEntity
8
0
100
AcDbCircle
10
-42.385552991140408
20
44.948945310116102
30
0
40
2.2500000000000031
210
0
220
-0
230
1
0
ARC
5
125
100
AcDbEntity
8
0
100
AcDbCircle
10
-42.386463794370414
20
18.719972788290075
30
0
40
10.506371137768342
210
0
220
0
230
1
100
AcDbArc
50
333.30451454349736
51
360
0
ARC
5
126
100
AcDbEntity
8
0
100
AcDbCircle
10
-24.050989527704864
20
9.5000000484287774
30
0
40
10.016725945940536
210
0
220
0
230
1
100
AcDbArc
50
153.30451454349733
51
201.73627621202394
0
ARC
5
127
100
AcDbEntity
8
0
100
AcDbCircle
10
-38.00000049173827
20
3.93878154339248
30
0
40
4.9999999999999556
210
0
220
0
230
1
100
AcDbArc
50
0
51
21.736276212024102
0
CIRCLE
5
128
100
AcDbEntity
8
0
100
AcDbCircle
10
8
20
8
30
0
40
1.0500000000000005
210
0
220
0
230
1
0
CIRCLE
5
129
100
AcDbEntity
8
0
100
AcDbCircle
10
-8
20
8
30
0
40
1.0499999999999998
210
0
220
0
230
1
0
CIRCLE
5
130
100
AcDbEntity
8
0
100
AcDbCircle
10
-18.738960589550903
20
-9.4386588431943675e-05
30
0
40
1.0500000000000012
210
0
220
0
230
1
0
CIRCLE
5
131
100
AcDbEntity
8
0
100
AcDbCircle
10
-0.00063088810738953088
20
18.738235314855075
30
0
40
1.05
210
0
220
0
230
1
0
CIRCLE
5
132
100
AcDbEntity
8
0
100
AcDbCircle
10
18.73769881333612
20
-9.4386588436384567e-05
30
0
40
1.0499999999999996
210
0
220
0
230
1
0
CIRCLE
5
133
100
AcDbEntity
8
0
100
AcDbCircle
10
-42.385552991140408
20
40.448945310116102
30
0
40
1.0499999999999974
210
0
220
0
230
1
0
CIRCLE
5
134
100
AcDbEntity
8
0
100
AcDbCircle
10
-37.885552991140408
20
44.948945310116102
30
0
40
1.0500000000000012
210
0
220
0
230
1
0
CIRCLE
5
135
100
AcDbEntity
8
0
100
AcDbCircle
10
-42.385552991140408
20
49.448945310116102
30
0
40
1.0500000000000043
210
0
220
0
230
1
0
CIRCLE
5
136
100
AcDbEntity
8
0
100
AcDbCircle
10
-46.885552991140415
20
44.948945310116102
30
0
40
1.0500000000000012
210
0
220
0
230
1
0
LINE
5
137
100
AcDbEntity
8
0
100
AcDbLine
10
20
20
0
30
0
11
2.5
21
0
31
0
0
LINE
5
138
100
AcDbEntity
8
0
100
AcDbLine
10
0
20
2.5
30
0
11
0
21
20
31
0
0
CIRCLE
5
139
100
AcDbEntity
8
0
100
AcDbCircle
10
0
20
-15
30
0
40
1
210
0
220
0
230
1
0
CIRCLE
5
140
100
AcDbEntity
8
0
100
AcDbCircle
10
-30.000000000000018
20
-9.9999999254941976
30
0
40
1.0500000000000007
210
0
220
0
230
1
0
ARC
5
141
100
AcDbEntity
8
0
100
AcDbCircle
10
-24.050989527704864
20
-9.5000000484287774
30
0
40
10.016725945940534
210
0
220
0
230
1
100
AcDbArc
50
158.26372378797606
51
206.69548545650269
0
ARC
5
142
100
AcDbEntity
8
0
100
AcDbCircle
10
-36.880092656602024
20
-18.719972788290061
30
0
40
4.9999999999999538
210
-0
220
0
230
1
100
AcDbArc
50
-31.384676043059518
51
0
0
CIRCLE
5
143
100
AcDbEntity
8
0
100
AcDbCircle
10
10
20
-10
30
0
40
1.0499999999999998
210
0
220
0
230
1
0
CIRCLE
5
144
100
AcDbEntity
8
0
100
AcDbCircle
10
46.999999999999993
20
-8.0000000000000036
30
0
40
1.0499999999999985
210
0
220
0
230
1
0
CIRCLE
5
145
100
AcDbEntity
8
0
100
AcDbCircle
10
-0.00063088810739131418
20
-18.738235314855075
30
0
40
1.05
210
0
220
0
230
1
0
CIRCLE
5
146
100
AcDbEntity
8
0
100
AcDbCircle
10
-7.9999999999999982
20
-8
30
0
40
1.0499999999999998
210
0
220
0
230
1
0
CIRCLE
5
147
100
AcDbEntity
8
0
100
AcDbCircle
10
-42.385552991140408
20
-49.448945310116102
30
0
40
1.0500000000000043
210
0
220
0
230
1
0
LINE
5
148
100
AcDbEntity
8
0
100
AcDbLine
10
-38.9355935861131
20
-31.690408662292263
30
0
11
-32.611642093617107
21
-21.323879428581396
31
0
0
CIRCLE
5
149
100
AcDbEntity
8
0
100
AcDbCircle
10
-42.385552991140408
20
-44.948945310116102
30
0
40
2.2500000000000031
210
0
220
-0
230
1
0
ARC
5
150
100
AcDbEntity
8
0
100
AcDbCircle
10
-42.386463794370414
20
-18.719972788290075
30
0
40
10.506371137768342
210
0
220
-0
230
1
100
AcDbArc
50
0
51
26.695485456502645
0
CIRCLE
5
151
100
AcDbEntity
8
0
100
AcDbCircle
10
-46.885552991140415
20
-44.948945310116102
30
0
40
1.0500000000000012
210
0
220
0
230
1
0
CIRCLE
5
152
100
AcDbEntity
8
0
100
AcDbCircle
10
-37.885552991140408
20
-44.948945310116102
30
0
40
1.0500000000000012
210
0
220
0
230
1
0
CIRCLE
5
153
100
AcDbEntity
8
0
100
AcDbCircle
10
-42.385552991140408
20
-40.448945310116102
30
0
40
1.0499999999999974
210
0
220
0
230
1
0
ARC
5
154
100
AcDbEntity
8
0
100
AcDbCircle
10
-38.000000491738263
20
-3.93878154339248
30
0
40
4.9999999999999547
210
0
220
0
230
1
100
AcDbArc
50
-21.736276212024126
51
0
0
ARC
5
155
100
AcDbEntity
8
0
100
AcDbCircle
10
-9.6898863583622497
20
-21.009158787068518
30
0
40
3.0000000000022942
210
0
220
-0
230
1
100
AcDbArc
50
63.434948822921804
51
143.34875107284901
0
LINE
5
156
100
AcDbEntity
8
0
100
AcDbLine
10
37.002233332184019
20
-11.000000000000005
30
0
11
47
21
-11.000000000000005
31
0
0
LINE
5
157
100
AcDbEntity
8
0
100
AcDbLine
10
-5.633436854000502
20
-19.68328157299975
30
0
11
-8.3482455718613391
21
-18.325877214066722
31
0
0
ARC
5
158
100
AcDbEntity
8
0
100
AcDbCircle
10
-50.470065831375052
20
-24.466472124341728
30
0
40
13.609897467690761
210
0
220
0
230
1
100
AcDbArc
50
256.71800237069743
51
327.9414552085986
0
CIRCLE
5
159
100
AcDbEntity
8
0
100
AcDbCircle
10
8
20
-8
30
0
40
1.0500000000000005
210
0
220
0
230
1
0
CIRCLE
5
160
100
AcDbEntity
8
0
100
AcDbCircle
10
31.499999999999993
20
-8.0000000000000053
30
0
40
1.0499999999999998
210
0
220
0
230
1
0
ARC
5
161
100
AcDbEntity
8
0
100
AcDbCircle
10
-4.4408920985006262e-15
20
-8.4164078649987584
30
0
40
12.596747752497668
210
0
220
0
230
1
100
AcDbArc
50
243.43494882292202
51
296.56505117707803
0
ARC
5
162
100
AcDbEntity
8
0
100
AcDbCircle
10
-43.955523069424622
20
-43.337208993811743
30
0
40
11.162199888796181
210
0
220
0
230
1
100
AcDbArc
50
149.7401161507394
51
323.3487510729359
0
ARC
5
163
100
AcDbEntity
8
0
100
AcDbCircle
10
37.002233332184026
20
-17.000000000000011
30
0
40
6.0000000000000053
210
0
220
0
230
1
100
AcDbArc
50
90.000000000000071
51
211.3846760430593
0
ARC
5
164
100
AcDbEntity
8
0
100
AcDbCircle
10
47
20
2.2204460492503131e-15
30
0
40
11.000000000000007
210
-0
220
0
230
1
100
AcDbArc
50
270
51
323.68316270984172
0
LINE
5
165
100
AcDbEntity
8
0
100
AcDbLine
10
-12.096737918284877
20
-19.218330607566948
30
0
11
-35.000270331242511
21
-50.000403029159685
31
0
0
CIRCLE
5
166
100
AcDbEntity
8
0
100
AcDbCircle
10
-10
20
-10
30
0
40
1.0499999999999998
210
0
220
0
230
1
0
ARC
5
167
100
AcDbEntity
8
0
100
AcDbCircle
10
54.251788473364641
20
-5.3302498944773458
30
0
40
2.0000000000000084
210
0
220
0
230
1
100
AcDbArc
50
-36.316837290158055
51
43.122690576849763
0
LINE
5
168
100
AcDbEntity
8
0
100
AcDbLine
10
0
20
-2.5
30
0
11
0
21
-20
31
0
0
LINE
5
169
100
AcDbEntity
8
0
100
AcDbLine
10
-33.000000491738319
20
-3.9387815433924689
30
0
11
-33.000000491738319
21
0
31
0
0
LINE
5
170
100
AcDbEntity
8
0
100
AcDbLine
10
38.9355935861131
20
-31.690408662292263
30
0
11
32.611642093617107
21
-21.323879428581396
31
0
0
CIRCLE
5
171
100
AcDbEntity
8
0
100
AcDbCircle
10
18.738960589550903
20
-9.438658843174963e-05
30
0
40
1.0500000000000012
210
0
220
0
230
1
0
LINE
5
172
100
AcDbEntity
8
0
100
AcDbLine
10
38.9355935861131
20
31.690408662292263
30
0
11
32.611642093617107
21
21.323879428581396
31
0
0
CIRCLE
5
173
100
AcDbEntity
8
0
100
AcDbCircle
10
30.000000000000018
20
-9.9999999254941976
30
0
40
1.0500000000000007
210
0
220
0
230
1
0
CIRCLE
5
174
100
AcDbEntity
8
0
100
AcDbCircle
10
37.885552991140408
20
44.948945310116102
30
0
40
1.0500000000000012
210
0
220
0
230
1
0
ARC
5
175
100
AcDbEntity
8
0
100
AcDbCircle
10
43.955523069424622
20
43.337208993811743
30
0
40
11.162199888796181
210
-0
220
0
230
1
100
AcDbArc
50
-30.259883849260635
51
143.3487510729359
0
ARC
5
176
100
AcDbEntity
8
0
100
AcDbCircle
10
9.6898863583622514
20
21.009158787068518
30
0
40
3.0000000000022942
210
0
220
0
230
1
100
AcDbArc
50
243.4349488229218
51
323.34875107284898
0
LINE
5
177
100
AcDbEntity
8
0
100
AcDbLine
10
12.096737918284877
20
-19.218330607566948
30
0
11
35.000270331242511
21
-50.000403029159685
31
0
0
CIRCLE
5
178
100
AcDbEntity
8
0
100
AcDbCircle
10
30.000000000000021
20
9.9999999254941976
30
0
40
1.0500000000000007
210
0
220
0
230
1
0
CIRCLE
5
179
100
AcDbEntity
8
0
100
AcDbCircle
10
42.385552991140408
20
49.448945310116102
30
0
40
1.0500000000000043
210
0
220
0
230
1
0
ARC
5
180
100
AcDbEntity
8
0
100
AcDbCircle
10
50.470065831375052
20
-24.466472124341728
30
0
40
13.609897467690747
210
0
220
0
230
1
100
AcDbArc
50
212.05854479140137
51
283.28199762930262
0
CIRCLE
5
181
100
AcDbEntity
8
0
100
AcDbCircle
10
42.385552991140408
20
40.448945310116102
30
0
40
1.0499999999999974
210
0
220
0
230
1
0
LINE
5
182
100
AcDbEntity
8
0
100
AcDbLine
10
12.096737918284877
20
19.218330607566948
30
0
11
35.000270331242511
21
50.000403029159685
31
0
0
CIRCLE
5
183
100
AcDbEntity
8
0
100
AcDbCircle
10
10
20
-10
30
0
40
1.0499999999999998
210
0
220
0
230
1
0
CIRCLE
5
184
100
AcDbEntity
8
0
100
AcDbCircle
10
42.385552991140408
20
-49.448945310116102
30
0
40
1.0500000000000043
210
0
220
0
230
1
0
CIRCLE
5
185
100
AcDbEntity
8
0
100
AcDbCircle
10
10
20
10
30
0
40
1.0499999999999998
210
0
220
0
230
1
0
CIRCLE
5
186
100
AcDbEntity
8
0
100
AcDbCircle
10
46.885552991140415
20
44.948945310116102
30
0
40
1.0500000000000012
210
0
220
0
230
1
0
CIRCLE
5
187
100
AcDbEntity
8
0
100
AcDbCircle
10
21.5
20
0
30
0
40
1.0000000000000011
210
0
220
0
230
1
0
CIRCLE
5
188
100
AcDbEntity
8
0
100
AcDbCircle
10
46.885552991140415
20
-44.948945310116102
30
0
40
1.0500000000000012
210
0
220
0
230
1
0
CIRCLE
5
189
100
AcDbEntity
8
0
100
AcDbCircle
10
37.885552991140408
20
-44.948945310116102
30
0
40
1.0500000000000012
210
0
220
0
230
1
0
ARC
5
190
100
AcDbEntity
8
0
100
AcDbCircle
10
50.470065831375052
20
24.466472124341728
30
0
40
13.609897467690761
210
0
220
-0
230
1
100
AcDbArc
50
76.71800237069742
51
147.94145520859863
0
ARC
5
191
100
AcDbEntity
8
0
100
AcDbCircle
10
43.955523069424622
20
-43.337208993811743
30
0
40
11.162199888794973
210
0
220
0
230
1
100
AcDbArc
50
-143.3487510729359
51
30.259883849260618
0
CIRCLE
5
192
100
AcDbEntity
8
0
100
AcDbCircle
10
42.385552991140408
20
-44.948945310116102
30
0
40
2.2500000000000031
210
0
220
-0
230
1
0
CIRCLE
5
193
100
AcDbEntity
8
0
100
AcDbCircle
10
42.385552991140408
20
44.948945310116102
30
0
40
2.2500000000000031
210
0
220
-0
230
1
0
CIRCLE
5
194
100
AcDbEntity
8
0
100
AcDbCircle
10
42.385552991140408
20
-40.448945310116102
30
0
40
1.0499999999999974
210
0
220
0
230
1
0
ARC
5
195
100
AcDbEntity
8
0
100
AcDbCircle
10
9.6898863583622497
20
-21.009158787068518
30
0
40
2.9999999999998157
210
0
220
-0
230
1
100
AcDbArc
50
36.651248927150988
51
116.56505117707819
0
LINE
5
196
100
AcDbEntity
8
0
100
AcDbLine
10
5.6334368540005038
20
19.68328157299975
30
0
11
8.3482455718613409
21
18.325877214066722
31
0
0
LINE
5
197
100
AcDbEntity
8
0
100
AcDbLine
10
5.633436854000502
20
-19.683281572999753
30
0
11
8.3482455718613391
21
-18.325877214066722
31
0
0
LINE
5
198
100
AcDbEntity
8
0
100
AcDbLine
10
32.611642093617107
20
21.323879428581396
30
0
11
31.880092656602066
21
20.124687968349626
31
0
0
LINE
5
199
100
AcDbEntity
8
0
100
AcDbLine
10
31.880092656602066
20
-20.124687968349626
30
0
11
32.611642093617107
21
-21.323879428581396
31
0
0
ENDSEC
0
SECTION
2
OBJECTS
0
DICTIONARY
5
C
100
AcDbDictionary
3
ACAD_GROUP
350
D
3
ACAD_MLINESTYLE
350
17
0
DICTIONARY
5
D
100
AcDbDictionary
0
DICTIONARY
5
1A
330
C
100
AcDbDictionary
0
DICTIONARY
5
17
100
AcDbDictionary
0
ENDSEC
0
EOF
