999
dxflib 3.17.0.0
  0
SECTION
  2
HEADER
  9
$ACADVER
  1
AC1015
  9
$HANDSEED
  5
FFFF
  9
$DIMADEC
 70
0
  9
$DIMASZ
 40
2.5
  9
$DIMAUNIT
 70
0
  9
$DIMAZIN
 70
2
  9
$DIMDEC
 70
4
  9
$DIMDLI
 40
5.0
  9
$DIMDSEP
 70
46
  9
$DIMEXE
 40
1.25
  9
$DIMEXO
 40
0.625
  9
$DIMGAP
 40
0.625
  9
$DIMLUNIT
 70
2
  9
$DIMSCALE
 40
1.0
  9
$DIMTSZ
 40
0.0
  9
$DIMTXT
 40
2.5
  9
$DIMZIN
 70
8
  9
$DWGCODEPAGE
  3
ANSI_1252
  9
$INSUNITS
 70
4
  9
$LTSCALE
 40
1.0
  9
$MAXACTVP
 70
64
  9
$MEASUREMENT
 70
1
  9
$PDMODE
 70
0
  9
$PDSIZE
 40
0.0
  0
ENDSEC
  0
SECTION
  2
TABLES
  0
TABLE
  2
VPORT
  5
8
100
AcDbSymbolTable
 70
1
  0
VPORT
  5
30
100
AcDbSymbolTableRecord
100
AcDbViewportTableRecord
  2
*Active
 70
0
 10
0.0
 20
0.0
 11
1.0
 21
1.0
 12
286.30555555555549
 22
148.5
 13
0.0
 23
0.0
 14
10.0
 24
10.0
 15
10.0
 25
10.0
 16
0.0
 26
0.0
 36
1.0
 17
0.0
 27
0.0
 37
0.0
 40
297.0
 41
1.92798353909465
 42
50.0
 43
0.0
 44
0.0
 50
0.0
 51
0.0
 71
0
 72
100
 73
1
 74
3
 75
1
 76
1
 77
0
 78
0
281
0
 65
1
110
0.0
120
0.0
130
0.0
111
1.0
121
0.0
131
0.0
112
0.0
122
1.0
132
0.0
 79
0
146
0.0
  0
ENDTAB
  0
TABLE
  2
LTYPE
  5
5
100
AcDbSymbolTable
 70
41
  0
LTYPE
  5
16
100
AcDbSymbolTableRecord
100
AcDbLinetypeTableRecord
  2
Continuous
 70
0
  3
Solid line
 72
65
 73
0
 40
0.0
  0
LTYPE
  5
31
100
AcDbSymbolTableRecord
100
AcDbLinetypeTableRecord
  2
DOT2
 70
0
  3
Dot (.5x) ........................................
 72
65
 73
2
 40
3.1749999999999998
 49
0.1
 74
0
 49
-3.0749999999999997
 74
0
  0
LTYPE
  5
32
100
AcDbSymbolTableRecord
100
AcDbLinetypeTableRecord
  2
DOT
 70
0
  3
Dot . . . . . . . . . . . . . . . . . . . . . . . .
 72
65
 73
2
 40
6.3499999999999996
 49
0.1
 74
0
 49
-6.25
 74
0
  0
LTYPE
  5
33
100
AcDbSymbolTableRecord
100
AcDbLinetypeTableRecord
  2
DASHED2
 70
0
  3
Dashed (.5x) _ _ _ _ _ _ _ _ _ _ _ _ _ _ _ _ _ 
 72
65
 73
2
 40
9.5249999999999986
 49
6.3499999999999996
 74
0
 49
-3.1749999999999998
 74
0
  0
LTYPE
  5
34
100
AcDbSymbolTableRecord
100
AcDbLinetypeTableRecord
  2
DIVIDE
 70
0
  3
Divide ____ . . ____ . . ____ . . ____ . . ____
 72
65
 73
6
 40
31.750000000000004
 49
12.699999999999999
 74
0
 49
-6.2999999999999998
 74
0
 49
0.1
 74
0
 49
-6.25
 74
0
 49
0.1
 74
0
 49
-6.2999999999999998
 74
0
  0
LTYPE
  5
35
100
AcDbSymbolTableRecord
100
AcDbLinetypeTableRecord
  2
DIVIDEX2
 70
0
  3
Divide (2x) ________  .  .  ________  .  .  _
 72
65
 73
6
 40
63.5
 49
25.399999999999999
 74
0
 49
-12.649999999999999
 74
0
 49
0.1
 74
0
 49
-12.599999999999998
 74
0
 49
0.1
 74
0
 49
-12.649999999999999
 74
0
  0
LTYPE
  5
36
100
AcDbSymbolTableRecord
100
AcDbLinetypeTableRecord
  2
ACAD_ISO02W100
 70
0
  3
ISO dash __ __ __ __ __ __ __ __ __ __ __ __ __
 72
65
 73
2
 40
15.0
 49
12.0
 74
0
 49
-3.0
 74
0
  0
LTYPE
  5
37
100
AcDbSymbolTableRecord
100
AcDbLinetypeTableRecord
  2
BORDERX2
 70
0
  3
Border (2x) ____  ____  .  ____  ____  .  ___
 72
65
 73
6
 40
88.899999999999977
 49
25.399999999999999
 74
0
 49
-12.699999999999999
 74
0
 49
25.399999999999999
 74
0
 49
-12.649999999999999
 74
0
 49
0.1
 74
0
 49
-12.649999999999999
 74
0
  0
LTYPE
  5
38
100
AcDbSymbolTableRecord
100
AcDbLinetypeTableRecord
  2
ACAD_ISO03W100
 70
0
  3
ISO dash space __    __    __    __    __    __
 72
65
 73
2
 40
30.0
 49
12.0
 74
0
 49
-18.0
 74
0
  0
LTYPE
  5
39
100
AcDbSymbolTableRecord
100
AcDbLinetypeTableRecord
  2
ACAD_ISO09W100
 70
0
  3
ISO long-dash double-short-dash ____ __ __ ____
 72
65
 73
6
 40
45.0
 49
24.0
 74
0
 49
-3.0
 74
0
 49
6.0
 74
0
 49
-3.0
 74
0
 49
6.0
 74
0
 49
-3.0
 74
0
  0
LTYPE
  5
3A
100
AcDbSymbolTableRecord
100
AcDbLinetypeTableRecord
  2
ACAD_ISO08W100
 70
0
  3
ISO long-dash short-dash ____ __ ____ __ ____ _
 72
65
 73
4
 40
36.0
 49
24.0
 74
0
 49
-3.0
 74
0
 49
6.0
 74
0
 49
-3.0
 74
0
  0
LTYPE
  5
3B
100
AcDbSymbolTableRecord
100
AcDbLinetypeTableRecord
  2
HIDDEN
 70
0
  3
Hidden __ __ __ __ __ __ __ __ __ __ __ __ __ __
 72
65
 73
2
 40
9.5249999999999986
 49
6.3499999999999996
 74
0
 49
-3.1749999999999998
 74
0
  0
LTYPE
  5
3C
100
AcDbSymbolTableRecord
100
AcDbLinetypeTableRecord
  2
DOTX2
 70
0
  3
Dot (2x) .  .  .  .  .  .  .  .  .  .  .  .  .  .
 72
65
 73
2
 40
12.699999999999999
 49
0.1
 74
0
 49
-12.6
 74
0
  0
LTYPE
  5
3D
100
AcDbSymbolTableRecord
100
AcDbLinetypeTableRecord
  2
BORDER2
 70
0
  3
Border (.5x) __.__.__.__.__.__.__.__.__.__.__.
 72
65
 73
6
 40
22.225000000000001
 49
6.3499999999999996
 74
0
 49
-3.1749999999999998
 74
0
 49
6.3499999999999996
 74
0
 49
-3.125
 74
0
 49
0.1
 74
0
 49
-3.125
 74
0
  0
LTYPE
  5
3E
100
AcDbSymbolTableRecord
100
AcDbLinetypeTableRecord
  2
ACAD_ISO10W100
 70
0
  3
ISO dash dot __ . __ . __ . __ . __ . __ . __ . 
 72
65
 73
4
 40
18.0
 49
12.0
 74
0
 49
-2.9500000000000002
 74
0
 49
0.1
 74
0
 49
-2.9500000000000002
 74
0
  0
LTYPE
  5
3F
100
AcDbSymbolTableRecord
100
AcDbLinetypeTableRecord
  2
DASHEDX2
 70
0
  3
Dashed (2x) ____  ____  ____  ____  ____  ___
 72
65
 73
2
 40
38.099999999999994
 49
25.399999999999999
 74
0
 49
-12.699999999999999
 74
0
  0
LTYPE
  5
40
100
AcDbSymbolTableRecord
100
AcDbLinetypeTableRecord
  2
CENTER2
 70
0
  3
Center (.5x) ___ _ ___ _ ___ _ ___ _ ___ _ ___
 72
65
 73
4
 40
28.575000000000003
 49
19.050000000000001
 74
0
 49
-3.1749999999999998
 74
0
 49
3.1749999999999998
 74
0
 49
-3.1749999999999998
 74
0
  0
LTYPE
  5
41
100
AcDbSymbolTableRecord
100
AcDbLinetypeTableRecord
  2
DASHED
 70
0
  3
Dashed __ __ __ __ __ __ __ __ __ __ __ __ __ _
 72
65
 73
2
 40
19.049999999999997
 49
12.699999999999999
 74
0
 49
-6.3499999999999996
 74
0
  0
LTYPE
  5
42
100
AcDbSymbolTableRecord
100
AcDbLinetypeTableRecord
  2
PHANTOM
 70
0
  3
Phantom ______  __  __  ______  __  __  ______ 
 72
65
 73
6
 40
63.500000000000007
 49
31.75
 74
0
 49
-6.3499999999999996
 74
0
 49
6.3499999999999996
 74
0
 49
-6.3499999999999996
 74
0
 49
6.3499999999999996
 74
0
 49
-6.3499999999999996
 74
0
  0
LTYPE
  5
43
100
AcDbSymbolTableRecord
100
AcDbLinetypeTableRecord
  2
BORDER
 70
0
  3
Border __ __ . __ __ . __ __ . __ __ . __ __ .
 72
65
 73
6
 40
44.449999999999996
 49
12.699999999999999
 74
0
 49
-6.3499999999999996
 74
0
 49
12.699999999999999
 74
0
 49
-6.2999999999999998
 74
0
 49
0.1
 74
0
 49
-6.2999999999999998
 74
0
  0
LTYPE
  5
44
100
AcDbSymbolTableRecord
100
AcDbLinetypeTableRecord
  2
HIDDEN2
 70
0
  3
Hidden (.5x) _ _ _ _ _ _ _ _ _ _ _ _ _ _ _ _ _ 
 72
65
 73
2
 40
4.7624999999999993
 49
3.1749999999999998
 74
0
 49
-1.5874999999999999
 74
0
  0
LTYPE
  5
45
100
AcDbSymbolTableRecord
100
AcDbLinetypeTableRecord
  2
DASHDOT2
 70
0
  3
Dash dot (.5x) _._._._._._._._._._._._._._._.
 72
65
 73
4
 40
12.699999999999999
 49
6.3499999999999996
 74
0
 49
-3.125
 74
0
 49
0.1
 74
0
 49
-3.125
 74
0
  0
LTYPE
  5
46
100
AcDbSymbolTableRecord
100
AcDbLinetypeTableRecord
  2
PHANTOMX2
 70
0
  3
Phantom (2x) ____________    ____    ____   _
 72
65
 73
6
 40
127.00000000000001
 49
63.5
 74
0
 49
-12.699999999999999
 74
0
 49
12.699999999999999
 74
0
 49
-12.699999999999999
 74
0
 49
12.699999999999999
 74
0
 49
-12.699999999999999
 74
0
  0
LTYPE
  5
47
100
AcDbSymbolTableRecord
100
AcDbLinetypeTableRecord
  2
ACAD_ISO14W100
 70
0
  3
ISO dash triple-dot __ . . . __ . . . __ . . . _
 72
65
 73
8
 40
24.000000000000004
 49
12.0
 74
0
 49
-2.9500000000000002
 74
0
 49
0.1
 74
0
 49
-2.9000000000000004
 74
0
 49
0.1
 74
0
 49
-2.9000000000000004
 74
0
 49
0.1
 74
0
 49
-2.9500000000000002
 74
0
  0
LTYPE
  5
48
100
AcDbSymbolTableRecord
100
AcDbLinetypeTableRecord
  2
PHANTOM2
 70
0
  3
Phantom (.5x) ___ _ _ ___ _ _ ___ _ _ ___ _ _
 72
65
 73
6
 40
31.750000000000004
 49
15.875
 74
0
 49
-3.1749999999999998
 74
0
 49
3.1749999999999998
 74
0
 49
-3.1749999999999998
 74
0
 49
3.1749999999999998
 74
0
 49
-3.1749999999999998
 74
0
  0
LTYPE
  5
49
100
AcDbSymbolTableRecord
100
AcDbLinetypeTableRecord
  2
ACAD_ISO11W100
 70
0
  3
ISO double-dash dot __ __ . __ __ . __ __ . __ _
 72
65
 73
6
 40
33.0
 49
12.0
 74
0
 49
-3.0
 74
0
 49
12.0
 74
0
 49
-2.9500000000000002
 74
0
 49
0.1
 74
0
 49
-2.9500000000000002
 74
0
  0
LTYPE
  5
4A
100
AcDbSymbolTableRecord
100
AcDbLinetypeTableRecord
  2
ACAD_ISO12W100
 70
0
  3
ISO dash double-dot __ . . __ . . __ . . __ . . 
 72
65
 73
6
 40
21.0
 49
12.0
 74
0
 49
-2.9500000000000002
 74
0
 49
0.1
 74
0
 49
-2.9000000000000004
 74
0
 49
0.1
 74
0
 49
-2.9500000000000002
 74
0
  0
LTYPE
  5
4B
100
AcDbSymbolTableRecord
100
AcDbLinetypeTableRecord
  2
ACAD_ISO13W100
 70
0
  3
ISO double-dash double-dot __ __ . . __ __ . . _
 72
65
 73
8
 40
36.000000000000007
 49
12.0
 74
0
 49
-3.0
 74
0
 49
12.0
 74
0
 49
-2.9500000000000002
 74
0
 49
0.1
 74
0
 49
-2.9000000000000004
 74
0
 49
0.1
 74
0
 49
-2.9500000000000002
 74
0
  0
LTYPE
  5
4C
100
AcDbSymbolTableRecord
100
AcDbLinetypeTableRecord
  2
ACAD_ISO06W100
 70
0
  3
ISO long-dash triple-dot ____ ... ____ ... ____
 72
65
 73
8
 40
36.000000000000007
 49
24.0
 74
0
 49
-2.9500000000000002
 74
0
 49
0.1
 74
0
 49
-2.9000000000000004
 74
0
 49
0.1
 74
0
 49
-2.9000000000000004
 74
0
 49
0.1
 74
0
 49
-2.9500000000000002
 74
0
  0
LTYPE
  5
4D
100
AcDbSymbolTableRecord
100
AcDbLinetypeTableRecord
  2
ACAD_ISO05W100
 70
0
  3
ISO long-dash double-dot ____ .. ____ .. ____ . 
 72
65
 73
6
 40
33.000000000000007
 49
24.0
 74
0
 49
-2.9500000000000002
 74
0
 49
0.1
 74
0
 49
-2.9000000000000004
 74
0
 49
0.1
 74
0
 49
-2.9500000000000002
 74
0
  0
LTYPE
  5
4E
100
AcDbSymbolTableRecord
100
AcDbLinetypeTableRecord
  2
ACAD_ISO04W100
 70
0
  3
ISO long-dash dot ____ . ____ . ____ . ____ . _
 72
65
 73
4
 40
30.0
 49
24.0
 74
0
 49
-2.9500000000000002
 74
0
 49
0.1
 74
0
 49
-2.9500000000000002
 74
0
  0
LTYPE
  5
4F
100
AcDbSymbolTableRecord
100
AcDbLinetypeTableRecord
  2
HIDDENX2
 70
0
  3
Hidden (2x) ____ ____ ____ ____ ____ ____ ____ 
 72
65
 73
2
 40
19.049999999999997
 49
12.699999999999999
 74
0
 49
-6.3499999999999996
 74
0
  0
LTYPE
  5
50
100
AcDbSymbolTableRecord
100
AcDbLinetypeTableRecord
  2
DASHDOTX2
 70
0
  3
Dash dot (2x) ____  .  ____  .  ____  .  ___
 72
65
 73
4
 40
50.799999999999997
 49
25.399999999999999
 74
0
 49
-12.649999999999999
 74
0
 49
0.1
 74
0
 49
-12.649999999999999
 74
0
  0
LTYPE
  5
51
100
AcDbSymbolTableRecord
100
AcDbLinetypeTableRecord
  2
DIVIDE2
 70
0
  3
Divide (.5x) __..__..__..__..__..__..__..__.._
 72
65
 73
6
 40
15.874999999999998
 49
6.3499999999999996
 74
0
 49
-3.125
 74
0
 49
0.1
 74
0
 49
-3.0750000000000002
 74
0
 49
0.1
 74
0
 49
-3.125
 74
0
  0
LTYPE
  5
15
100
AcDbSymbolTableRecord
100
AcDbLinetypeTableRecord
  2
BYLAYER
 70
0
  3

 72
65
 73
0
 40
0.0
  0
LTYPE
  5
52
100
AcDbSymbolTableRecord
100
AcDbLinetypeTableRecord
  2
CENTERX2
 70
0
  3
Center (2x) ________  __  ________  __  _____
 72
65
 73
4
 40
101.60000000000001
 49
63.5
 74
0
 49
-12.699999999999999
 74
0
 49
12.699999999999999
 74
0
 49
-12.699999999999999
 74
0
  0
LTYPE
  5
53
100
AcDbSymbolTableRecord
100
AcDbLinetypeTableRecord
  2
ACAD_ISO07W100
 70
0
  3
ISO dot . . . . . . . . . . . . . . . . . . . . 
 72
65
 73
2
 40
3.0
 49
0.1
 74
0
 49
-2.8999999999999999
 74
0
  0
LTYPE
  5
54
100
AcDbSymbolTableRecord
100
AcDbLinetypeTableRecord
  2
CENTER
 70
0
  3
Center ____ _ ____ _ ____ _ ____ _ ____ _ ____
 72
65
 73
4
 40
50.800000000000004
 49
31.75
 74
0
 49
-6.3499999999999996
 74
0
 49
6.3499999999999996
 74
0
 49
-6.3499999999999996
 74
0
  0
LTYPE
  5
55
100
AcDbSymbolTableRecord
100
AcDbLinetypeTableRecord
  2
ACAD_ISO15W100
 70
0
  3
ISO double-dash triple-dot __ __ . . . __ __ . .
 72
65
 73
10
 40
39.000000000000007
 49
12.0
 74
0
 49
-3.0
 74
0
 49
12.0
 74
0
 49
-2.9500000000000002
 74
0
 49
0.1
 74
0
 49
-2.9000000000000004
 74
0
 49
0.1
 74
0
 49
-2.9000000000000004
 74
0
 49
0.1
 74
0
 49
-2.9500000000000002
 74
0
  0
LTYPE
  5
56
100
AcDbSymbolTableRecord
100
AcDbLinetypeTableRecord
  2
DASHDOT
 70
0
  3
Dash dot __ . __ . __ . __ . __ . __ . __ . __
 72
65
 73
4
 40
25.400000000000002
 49
12.699999999999999
 74
0
 49
-6.2999999999999998
 74
0
 49
0.1
 74
0
 49
-6.2999999999999998
 74
0
  0
LTYPE
  5
14
100
AcDbSymbolTableRecord
100
AcDbLinetypeTableRecord
  2
BYBLOCK
 70
0
  3

 72
65
 73
0
 40
0.0
  0
ENDTAB
  0
TABLE
  2
LAYER
  5
2
100
AcDbSymbolTable
 70
1
  0
LAYER
  5
10
100
AcDbSymbolTableRecord
100
AcDbLayerTableRecord
  2
0
 70
0
 62
7
420
16777215
  6
Continuous
370
25
390
F
  0
ENDTAB
  0
TABLE
  2
STYLE
  5
3
100
AcDbSymbolTable
 70
1
  0
STYLE
  5
57
100
AcDbSymbolTableRecord
100
AcDbTextStyleTableRecord
  2
Standard
 70
0
 40
0.0
 41
1.0
 50
0.0
 71
0
 42
2.5
  3

  4

1001
ACAD
1000
txt
1071
0
  0
ENDTAB
  0
TABLE
  2
VIEW
  5
6
100
AcDbSymbolTable
 70
0
  0
ENDTAB
  0
TABLE
  2
UCS
  5
7
100
AcDbSymbolTable
 70
0
  0
ENDTAB
  0
TABLE
  2
APPID
  5
9
100
AcDbSymbolTable
 70
1
  0
APPID
  5
12
100
AcDbSymbolTableRecord
100
AcDbRegAppTableRecord
  2
ACAD
 70
0
  0
APPID
  5
58
100
AcDbSymbolTableRecord
100
AcDbRegAppTableRecord
  2
QCAD
 70
0
  0
ENDTAB
  0
TABLE
  2
DIMSTYLE
  5
A
100
AcDbSymbolTable
 70
1
100
AcDbDimStyleTable
 71
0
  0
DIMSTYLE
105
27
100
AcDbSymbolTableRecord
100
AcDbDimStyleTableRecord
  2
Standard
 41
2.5
 42
0.625
 43
3.75
 44
1.25
 70
0
 73
0
 74
0
 77
1
 78
8
140
2.5
141
2.5
143
0.03937007874016
147
0.625
171
3
172
1
271
2
272
2
274
3
278
44
283
0
284
8
340
57
  0
ENDTAB
  0
TABLE
  2
BLOCK_RECORD
  5
1
100
AcDbSymbolTable
 70
1
  0
BLOCK_RECORD
  5
1F
100
AcDbSymbolTableRecord
100
AcDbBlockTableRecord
  2
*Model_Space
340
22
  0
BLOCK_RECORD
  5
1B
100
AcDbSymbolTableRecord
100
AcDbBlockTableRecord
  2
*Paper_Space
340
1E
  0
BLOCK_RECORD
  5
23
100
AcDbSymbolTableRecord
100
AcDbBlockTableRecord
  2
*Paper_Space0
340
26
  0
BLOCK_RECORD
  5
59
100
AcDbSymbolTableRecord
100
AcDbBlockTableRecord
  2
Arm3
340
0
  0
ENDTAB
  0
ENDSEC
  0
SECTION
  2
BLOCKS
  0
BLOCK
  5
20
100
AcDbEntity
  8
0
100
AcDbBlockBegin
  2
*Model_Space
 70
0
 10
0.0
 20
0.0
 30
0.0
  3
*Model_Space
  1

  0
ENDBLK
  5
21
100
AcDbEntity
  8
0
100
AcDbBlockEnd
  0
BLOCK
  5
1C
100
AcDbEntity
 67
1
  8
0
100
AcDbBlockBegin
  2
*Paper_Space
 70
0
 10
0.0
 20
0.0
 30
0.0
  3
*Paper_Space
  1

  0
ENDBLK
  5
1D
100
AcDbEntity
 67
1
  8
0
100
AcDbBlockEnd
  0
BLOCK
  5
24
100
AcDbEntity
  8
0
100
AcDbBlockBegin
  2
*Paper_Space0
 70
0
 10
0.0
 20
0.0
 30
0.0
  3
*Paper_Space0
  1

  0
ENDBLK
  5
25
100
AcDbEntity
  8
0
100
AcDbBlockEnd
  0
BLOCK
  5
5A
100
AcDbEntity
  8
0
100
AcDbBlockBegin
  2
Arm3
 70
0
 10
0.0
 20
0.0
 30
0.0
  3
Arm3
  1

  0
CIRCLE
  5
5B
100
AcDbEntity
  8
0
 62
256
370
-1
 48
1.0
  6
BYLAYER
100
AcDbCircle
 10
-74.080354498998588
 20
0.0000000216934203
 30
0.0
 40
1.4750000000000001
  0
CIRCLE
  5
5C
100
AcDbEntity
  8
0
 62
256
370
-1
 48
1.0
  6
BYLAYER
100
AcDbCircle
 10
-87.24534421155532
 20
0.0000000000000321
 30
0.0
 40
1.4750000000000001
  0
CIRCLE
  5
5D
100
AcDbEntity
  8
0
 62
256
370
-1
 48
1.0
  6
BYLAYER
100
AcDbCircle
 10
0.0
 20
0.0
 30
0.0
 40
4.0000000000000044
  0
ARC
  5
5E
100
AcDbEntity
  8
0
 62
256
370
-1
 48
1.0
  6
BYLAYER
100
AcDbCircle
 10
-5.6568542494922411
 20
-5.6568542494922394
 30
0.0
 40
1.550000000000028
100
AcDbArc
 50
315.00000000000136
 51
134.99999914622782
  0
ARC
  5
5F
100
AcDbEntity
  8
0
 62
256
370
-1
 48
1.0
  6
BYLAYER
100
AcDbCircle
 10
5.6568542494921781
 20
-5.6568542494921807
 30
0.0
 40
1.550000000000028
100
AcDbArc
 50
45.000000000001378
 51
224.99999914622782
  0
LINE
  5
60
100
AcDbEntity
  8
0
 62
256
370
-1
 48
1.0
  6
BYLAYER
100
AcDbLine
 10
-7.8135299321113161
 20
-5.621498910433127
 30
0.0
 11
-6.7528697603315306
 21
-4.5608387386529952
 31
0.0
  0
LINE
  5
61
100
AcDbEntity
  8
0
 62
256
370
-1
 48
1.0
  6
BYLAYER
100
AcDbLine
 10
5.6214989104330035
 20
-7.8135299321113179
 30
0.0
 11
4.5608387386528904
 21
-6.7528697603315289
 31
0.0
  0
ARC
  5
62
100
AcDbEntity
  8
0
 62
256
370
-1
 48
1.0
  6
BYLAYER
100
AcDbCircle
 10
-6.7175144212721731
 20
-6.7175144212721705
 30
0.0
 40
1.5500000000000189
100
AcDbArc
 50
135.00000000000065
 51
315.00000000000074
  0
LINE
  5
63
100
AcDbEntity
  8
0
 62
256
370
-1
 48
1.0
  6
BYLAYER
100
AcDbLine
 10
-4.5608387386531053
 20
-6.7528697603314543
 30
0.0
 11
-5.6214989104329529
 21
-7.8135299321114902
 31
0.0
  0
LINE
  5
64
100
AcDbEntity
  8
0
 62
256
370
-1
 48
1.0
  6
BYLAYER
100
AcDbLine
 10
6.7528697766635517
 20
-4.5608387549846583
 30
0.0
 11
7.8135299321114084
 21
-5.6214989104333375
 31
0.0
  0
ARC
  5
65
100
AcDbEntity
  8
0
 62
256
370
-1
 48
1.0
  6
BYLAYER
100
AcDbCircle
 10
6.7175144212723437
 20
-6.7175144212722397
 30
0.0
 40
1.550000000000012
100
AcDbArc
 50
224.99999914622703
 51
45.000000625005818
  0
LINE
  5
66
100
AcDbEntity
  8
0
 62
256
370
-1
 48
1.0
  6
BYLAYER
100
AcDbLine
 10
4.5608387386532172
 20
6.7528697603314241
 30
0.0
 11
5.6214989104330497
 21
7.8135299321110523
 31
0.0
  0
ARC
  5
67
100
AcDbEntity
  8
0
 62
256
370
-1
 48
1.0
  6
BYLAYER
100
AcDbCircle
 10
6.7175144212721927
 20
6.71751442127219
 30
0.0
 40
1.5500000000000329
100
AcDbArc
 50
314.99999914622794
 51
134.99999914622794
  0
LINE
  5
68
100
AcDbEntity
  8
0
 62
256
370
-1
 48
1.0
  6
BYLAYER
100
AcDbLine
 10
7.8135299157795517
 20
5.6214988941010189
 30
0.0
 11
6.7528697603316363
 21
4.560838738653084
 31
0.0
  0
ARC
  5
69
100
AcDbEntity
  8
0
 62
256
370
-1
 48
1.0
  6
BYLAYER
100
AcDbCircle
 10
5.6568542494924419
 20
5.6568542494924392
 30
0.0
 40
1.550000000000032
100
AcDbArc
 50
135.00000000000139
 51
315.00000000000114
  0
LINE
  5
6A
100
AcDbEntity
  8
0
 62
256
370
-1
 48
1.0
  6
BYLAYER
100
AcDbLine
 10
-27.361742156214909
 20
4.5000000000000329
 30
0.0
 11
-66.963468527300023
 21
4.50000000000004
 31
0.0
  0
LINE
  5
6B
100
AcDbEntity
  8
0
 62
256
370
-1
 48
1.0
  6
BYLAYER
100
AcDbLine
 10
-66.666145366070324
 20
-4.4999999999998961
 30
0.0
 11
-14.685075692004519
 21
-4.4999999999999662
 31
0.0
  0
LINE
  5
6C
100
AcDbEntity
  8
0
 62
256
370
-1
 48
1.0
  6
BYLAYER
100
AcDbLine
 10
-97.902686870781508
 20
1.0152070354953502
 30
0.0
 11
-95.882360000343908
 21
3.0355339059327791
 31
0.0
  0
LINE
  5
6D
100
AcDbEntity
  8
0
 62
256
370
-1
 48
1.0
  6
BYLAYER
100
AcDbLine
 10
-92.3874798352863
 20
-4.4999999999998819
 30
0.0
 11
-97.902686870781508
 21
1.0152070354953502
 31
0.0
  0
LINE
  5
6E
100
AcDbEntity
  8
0
 62
256
370
-1
 48
1.0
  6
BYLAYER
100
AcDbLine
 10
12.121999504545768
 20
9.4908155086989279
 30
0.0
 11
8.8650787099471362
 21
1.9918251876442827
 31
0.0
  0
LINE
  5
6F
100
AcDbEntity
  8
0
 62
256
370
-1
 48
1.0
  6
BYLAYER
100
AcDbLine
 10
8.865078709947138
 20
-1.9918251876443205
 30
0.0
 11
12.121999504545766
 21
-9.4908155086989723
 31
0.0
  0
LINE
  5
70
100
AcDbEntity
  8
0
 62
256
370
-1
 48
1.0
  6
BYLAYER
100
AcDbLine
 10
9.4908155086989368
 20
-12.121999504545776
 30
0.0
 11
1.5471033641263732
 21
-8.6719295401501721
 31
0.0
  0
LINE
  5
71
100
AcDbEntity
  8
0
 62
256
370
-1
 48
1.0
  6
BYLAYER
100
AcDbLine
 10
-1.6379807802083708
 20
-8.4025383085939165
 30
0.0
 11
-7.3987490544055481
 21
-9.8182630504933428
 31
0.0
  0
ARC
  5
72
100
AcDbEntity
  8
0
 62
256
370
-1
 48
1.0
  6
BYLAYER
100
AcDbCircle
 10
10.287545583756664
 20
10.287545583756661
 30
0.0
 40
2.0
100
AcDbArc
 50
336.52399120472904
 51
113.37301110994495
  0
ARC
  5
73
100
AcDbEntity
  8
0
 62
256
370
-1
 48
1.0
  6
BYLAYER
100
AcDbCircle
 10
10.287545583756652
 20
-10.287545583756692
 30
0.0
 40
2.0
100
AcDbArc
 50
246.52399120472933
 51
23.476008795270531
  0
ARC
  5
74
100
AcDbEntity
  8
0
 62
256
370
-1
 48
1.0
  6
BYLAYER
100
AcDbCircle
 10
-27.361742156214696
 20
97.402477144360404
 30
0.0
 40
92.902477144360347
100
AcDbArc
 50
269.99999999999994
 51
293.3730111099452
  0
ARC
  5
75
100
AcDbEntity
  8
0
 62
256
370
-1
 48
1.0
  6
BYLAYER
100
AcDbCircle
 10
-7.8760526370817292
 20
-7.8760526370817274
 30
0.0
 40
2.0
100
AcDbArc
 50
193.41440583139581
 51
283.8069816570324
  0
ARC
  5
76
100
AcDbEntity
  8
0
 62
256
370
-1
 48
1.0
  6
BYLAYER
100
AcDbCircle
 10
-14.68507569200451
 20
-9.4999999999999769
 30
0.0
 40
5.0
100
AcDbArc
 50
13.414405831396047
 51
90.0
  0
LINE
  5
77
100
AcDbEntity
  8
0
 62
256
370
-1
 48
1.0
  6
BYLAYER
100
AcDbLine
 10
-66.963468527300023
 20
4.50000000000004
 30
0.0
 11
-92.346826094411171
 21
4.5000000000000453
 31
0.0
  0
LINE
  5
78
100
AcDbEntity
  8
0
 62
256
370
-1
 48
1.0
  6
BYLAYER
100
AcDbLine
 10
-66.666145366070324
 20
-4.4999999999998961
 30
0.0
 11
-92.3874798352863
 21
-4.4999999999998819
 31
0.0
  0
ARC
  5
79
100
AcDbEntity
  8
0
 62
256
370
-1
 48
1.0
  6
BYLAYER
100
AcDbCircle
 10
-92.346826094411171
 20
-0.4999999999999524
 30
0.0
 40
5.0
100
AcDbArc
 50
90.0
 51
134.99999999999994
  0
ARC
  5
7A
100
AcDbEntity
  8
0
 62
256
370
-1
 48
1.0
  6
BYLAYER
100
AcDbCircle
 10
13.451213511919887
 20
-0.0000000000000272
 30
0.0
 40
5.0
100
AcDbArc
 50
156.52399120472936
 51
203.47600879527064
  0
ARC
  5
7B
100
AcDbEntity
  8
0
 62
256
370
-1
 48
1.0
  6
BYLAYER
100
AcDbCircle
 10
-0.4447218235179472
 20
-13.258064342122935
 30
0.0
 40
5.0
100
AcDbArc
 50
66.523991204729271
 51
103.80698165703242
  0
HATCH
  5
7C
100
AcDbEntity
  8
0
 62
256
370
-1
 48
1.0
  6
BYLAYER
100
AcDbHatch
 10
0.0
 20
0.0
 30
0.0
210
0.0
220
0.0
230
1.0
  2
SOLID
 70
1
 71
0
 91
7
 92
1
 93
18
 72
1
 10
8.865078709947138
 20
-1.9918251876443205
 11
12.121999504545766
 21
-9.4908155086989723
 72
2
 10
10.287545583756652
 20
-10.287545583756692
 40
2.0
 50
336.5239912047295
 51
113.47600879527069
 73
0
 72
1
 10
9.4908155086989368
 20
-12.121999504545776
 11
1.5471033641263732
 21
-8.6719295401501721
 72
2
 10
-0.4447218235179472
 20
-13.258064342122935
 40
5.0
 50
66.523991204729271
 51
103.80698165703242
 73
1
 72
1
 10
-1.6379807802083708
 20
-8.4025383085939165
 11
-7.3987490544055481
 21
-9.8182630504933428
 72
2
 10
-7.8760526370817292
 20
-7.8760526370817274
 40
2.0
 50
76.193018342967633
 51
166.58559416860419
 73
0
 72
2
 10
-14.68507569200451
 20
-9.4999999999999769
 40
5.0
 50
13.414405831396047
 51
90.0
 73
1
 72
1
 10
-14.685075692004519
 20
-4.4999999999999662
 11
-66.666145366070324
 21
-4.4999999999998961
 72
1
 10
-66.666145366070324
 20
-4.4999999999998961
 11
-92.3874798352863
 21
-4.4999999999998819
 72
1
 10
-92.3874798352863
 20
-4.4999999999998819
 11
-97.902686870781508
 21
1.0152070354953502
 72
1
 10
-97.902686870781508
 20
1.0152070354953502
 11
-95.882360000343908
 21
3.0355339059327791
 72
2
 10
-92.346826094411171
 20
-0.4999999999999524
 40
5.0
 50
225.00000000000003
 51
270.0
 73
0
 72
1
 10
-92.346826094411171
 20
4.5000000000000453
 11
-66.963468527300023
 21
4.50000000000004
 72
1
 10
-66.963468527300023
 20
4.50000000000004
 11
-27.361742156214909
 21
4.5000000000000329
 72
2
 10
-27.361742156214696
 20
97.402477144360404
 40
92.902477144360347
 50
269.99999999999994
 51
293.3730111099452
 73
1
 72
2
 10
10.287545583756664
 20
10.287545583756661
 40
2.0
 50
246.62698889005503
 51
23.476008795270936
 73
0
 72
1
 10
12.121999504545768
 20
9.4908155086989279
 11
8.8650787099471362
 21
1.9918251876442827
 72
2
 10
13.451213511919887
 20
-0.0000000000000272
 40
5.0
 50
156.52399120472936
 51
203.47600879527064
 73
1
 97
0
 92
1
 93
4
 72
2
 10
6.7175144212723437
 20
-6.7175144212722397
 40
1.550000000000012
 50
224.99999914622703
 51
45.000000625005818
 73
1
 72
1
 10
7.8135299321114084
 20
-5.6214989104333375
 11
6.7528697766635517
 21
-4.5608387549846583
 72
2
 10
5.6568542494921781
 20
-5.6568542494921807
 40
1.550000000000028
 50
45.000000000001378
 51
224.99999914622782
 73
1
 72
1
 10
4.5608387386528904
 20
-6.7528697603315289
 11
5.6214989104330035
 21
-7.8135299321113179
 97
0
 92
1
 93
4
 72
1
 10
-4.5608387386531053
 20
-6.7528697603314543
 11
-5.6214989104329529
 21
-7.8135299321114902
 72
2
 10
-6.7175144212721731
 20
-6.7175144212721705
 40
1.5500000000000189
 50
44.999999999999233
 51
224.99999999999932
 73
0
 72
1
 10
-7.8135299321113161
 20
-5.621498910433127
 11
-6.7528697603315306
 21
-4.5608387386529952
 72
2
 10
-5.6568542494922411
 20
-5.6568542494922394
 40
1.550000000000028
 50
225.00000085377218
 51
44.999999999998629
 73
0
 97
0
 92
1
 93
4
 72
2
 10
5.6568542494924419
 20
5.6568542494924392
 40
1.550000000000032
 50
135.00000000000139
 51
315.00000000000114
 73
1
 72
1
 10
6.7528697603316363
 20
4.560838738653084
 11
7.8135299157795517
 21
5.6214988941010189
 72
2
 10
6.7175144212721927
 20
6.71751442127219
 40
1.5500000000000329
 50
314.99999914622794
 51
134.99999914622794
 73
1
 72
1
 10
5.6214989104330497
 20
7.8135299321110523
 11
4.5608387386532172
 21
6.7528697603314241
 97
0
 92
1
 93
1
 72
2
 10
0.0
 20
0.0
 40
4.0000000000000044
 50
0.0
 51
360.0
 73
1
 97
0
 92
1
 93
1
 72
2
 10
-87.24534421155532
 20
0.0000000000000321
 40
1.4750000000000001
 50
0.0
 51
360.0
 73
1
 97
0
 92
1
 93
1
 72
2
 10
-74.080354498998588
 20
0.0000000216934203
 40
1.4750000000000001
 50
0.0
 51
360.0
 73
1
 97
0
 75
0
 76
1
 98
0
1001
ACAD
1010
0.0
1020
0.0
1030
0
  0
ENDBLK
  5
7D
100
AcDbEntity
  8
0
100
AcDbBlockEnd
  0
ENDSEC
  0
SECTION
  2
ENTITIES
  0
CIRCLE
  5
7E
100
AcDbEntity
  8
0
 62
256
370
-1
 48
1.0
  6
BYLAYER
100
AcDbCircle
 10
26.40221724584292
 20
-25.684357497414965
 30
0.0
 40
1.5
  0
CIRCLE
  5
7F
100
AcDbEntity
  8
0
 62
256
370
-1
 48
1.0
  6
BYLAYER
100
AcDbCircle
 10
35.711270761182348
 20
-34.993410982075531
 30
0.0
 40
1.5
  0
CIRCLE
  5
80
100
AcDbEntity
  8
0
 62
256
370
-1
 48
1.0
  6
BYLAYER
100
AcDbCircle
 10
-25.980503757762861
 20
26.698363536869792
 30
0.0
 40
3.5
  0
ARC
  5
81
100
AcDbEntity
  8
0
 62
256
370
-1
 48
1.0
  6
BYLAYER
100
AcDbCircle
 10
-25.980503757762861
 20
34.698363536869508
 30
0.0
 40
1.550000000000028
100
AcDbArc
 50
180.00000000000139
 51
359.99999914622782
  0
ARC
  5
82
100
AcDbEntity
  8
0
 62
256
370
-1
 48
1.0
  6
BYLAYER
100
AcDbCircle
 10
-17.98050375776306
 20
26.698363536869891
 30
0.0
 40
1.550000000000028
100
AcDbArc
 50
90.000000000001393
 51
269.99999914622782
  0
LINE
  5
83
100
AcDbEntity
  8
0
 62
256
370
-1
 48
1.0
  6
BYLAYER
100
AcDbLine
 10
-24.43050375776285
 20
36.198363536869735
 30
0.0
 11
-24.430503757762622
 21
34.69836353686955
 31
0.0
  0
LINE
  5
84
100
AcDbEntity
  8
0
 62
256
370
-1
 48
1.0
  6
BYLAYER
100
AcDbLine
 10
-16.480503757762833
 20
25.148363536869866
 30
0.0
 11
-17.980503757763024
 21
25.148363536869638
 31
0.0
  0
ARC
  5
85
100
AcDbEntity
  8
0
 62
256
370
-1
 48
1.0
  6
BYLAYER
100
AcDbCircle
 10
-16.480503757762904
 20
26.698363536869877
 30
0.0
 40
1.5500000000000189
100
AcDbArc
 50
270.00000000000068
 51
90.000000000000753
  0
LINE
  5
86
100
AcDbEntity
  8
0
 62
256
370
-1
 48
1.0
  6
BYLAYER
100
AcDbLine
 10
-17.980503757763003
 20
28.248363536869832
 30
0.0
 11
-16.480503757762833
 21
28.248363536869959
 31
0.0
  0
LINE
  5
87
100
AcDbEntity
  8
0
 62
256
370
-1
 48
1.0
  6
BYLAYER
100
AcDbLine
 10
-27.530503757763285
 20
34.698363559966339
 30
0.0
 11
-27.530503757762702
 21
36.198363536870033
 31
0.0
  0
ARC
  5
88
100
AcDbEntity
  8
0
 62
256
370
-1
 48
1.0
  6
BYLAYER
100
AcDbCircle
 10
-25.980503757762932
 20
36.19836353686992
 30
0.0
 40
1.550000000000012
100
AcDbArc
 50
359.99999914622703
 51
180.00000062500581
  0
LINE
  5
89
100
AcDbEntity
  8
0
 62
256
370
-1
 48
1.0
  6
BYLAYER
100
AcDbLine
 10
-33.980503757762776
 20
25.148363536869851
 30
0.0
 11
-35.480503757762648
 21
25.148363536869994
 31
0.0
  0
ARC
  5
8A
100
AcDbEntity
  8
0
 62
256
370
-1
 48
1.0
  6
BYLAYER
100
AcDbCircle
 10
-35.480503757762847
 20
26.698363536869891
 30
0.0
 40
1.5500000000000329
100
AcDbArc
 50
89.999999146227907
 51
269.99999914622788
  0
LINE
  5
8B
100
AcDbEntity
  8
0
 62
256
370
-1
 48
1.0
  6
BYLAYER
100
AcDbLine
 10
-35.480503734666044
 20
28.248363536869959
 30
0.0
 11
-33.980503757762833
 21
28.248363536869974
 31
0.0
  0
ARC
  5
8C
100
AcDbEntity
  8
0
 62
256
370
-1
 48
1.0
  6
BYLAYER
100
AcDbCircle
 10
-33.980503757762946
 20
26.698363536869891
 30
0.0
 40
1.550000000000032
100
AcDbArc
 50
270.00000000000131
 51
90.000000000001194
  0
LINE
  5
8D
100
AcDbEntity
  8
0
 62
256
370
-1
 48
1.0
  6
BYLAYER
100
AcDbLine
 10
42.529290245842972
 20
-43.247150024949917
 30
0.0
 11
39.672116585243344
 21
-43.247150024949917
 31
0.0
  0
LINE
  5
8E
100
AcDbEntity
  8
0
 62
256
370
-1
 48
1.0
  6
BYLAYER
100
AcDbLine
 10
42.52929024584293
 20
-35.447469436057133
 30
0.0
 11
42.529290245842972
 21
-43.247150024949917
 31
0.0
  0
LINE
  5
8F
100
AcDbEntity
  8
0
 62
256
370
-1
 48
1.0
  6
BYLAYER
100
AcDbLine
 10
-41.263071814158607
 20
28.558891582882609
 30
0.0
 11
-33.657494126440412
 21
31.558487711304466
 31
0.0
  0
LINE
  5
90
100
AcDbEntity
  8
0
 62
256
370
-1
 48
1.0
  6
BYLAYER
100
AcDbLine
 10
-30.840627932197506
 20
34.375353905547371
 30
0.0
 11
-27.84103180377565
 21
41.980931593265566
 31
0.0
  0
LINE
  5
91
100
AcDbEntity
  8
0
 62
256
370
-1
 48
1.0
  6
BYLAYER
100
AcDbLine
 10
-24.119975711750044
 20
41.980931593265552
 30
0.0
 11
-20.942490853921015
 21
33.924311000652196
 31
0.0
  0
LINE
  5
92
100
AcDbEntity
  8
0
 62
256
370
-1
 48
1.0
  6
BYLAYER
100
AcDbLine
 10
-18.880784623437791
 20
31.481628036917726
 30
0.0
 11
-13.806237746617981
 21
28.409218290679235
 31
0.0
  0
ARC
  5
93
100
AcDbEntity
  8
0
 62
256
370
-1
 48
1.0
  6
BYLAYER
100
AcDbCircle
 10
-40.529290245842972
 20
26.698363536869792
 30
0.0
 40
2.0
100
AcDbArc
 50
111.52399120472904
 51
243.74851506707176
  0
ARC
  5
94
100
AcDbEntity
  8
0
 62
256
370
-1
 48
1.0
  6
BYLAYER
100
AcDbCircle
 10
-25.980503757762833
 20
41.247150024949917
 30
0.0
 40
2.0
100
AcDbArc
 50
21.523991204729327
 51
158.47600879527056
  0
ARC
  5
95
100
AcDbEntity
  8
0
 62
256
370
-1
 48
1.0
  6
BYLAYER
100
AcDbCircle
 10
-14.842083300437501
 20
26.698363536869806
 30
0.0
 40
2.0
100
AcDbArc
 50
352.45317011648189
 51
58.806981657032388
  0
ARC
  5
96
100
AcDbEntity
  8
0
 62
256
370
-1
 48
1.0
  6
BYLAYER
100
AcDbCircle
 10
39.672116585243344
 20
-38.247150024949917
 30
0.0
 40
5.0
100
AcDbArc
 50
225.0
 51
270.0
  0
ARC
  5
97
100
AcDbEntity
  8
0
 62
256
370
-1
 48
1.0
  6
BYLAYER
100
AcDbCircle
 10
-35.491948047229513
 20
36.209807826336473
 30
0.0
 40
5.0
100
AcDbArc
 50
291.52399120472933
 51
338.47600879527062
  0
ARC
  5
98
100
AcDbEntity
  8
0
 62
256
370
-1
 48
1.0
  6
BYLAYER
100
AcDbCircle
 10
-16.291170738888987
 20
35.758764921441298
 30
0.0
 40
5.0
100
AcDbArc
 50
201.5239912047293
 51
238.80698165703237
  0
LINE
  5
99
100
AcDbEntity
  8
0
 62
256
370
-1
 48
1.0
  6
BYLAYER
100
AcDbLine
 10
-9.52868362429097
 20
16.610504434076791
 30
0.0
 11
42.52929024584293
 21
-35.447469436057133
 31
0.0
  0
LINE
  5
9A
100
AcDbEntity
  8
0
 62
256
370
-1
 48
1.0
  6
BYLAYER
100
AcDbLine
 10
36.136582679310607
 20
-41.782683930882655
 30
0.0
 11
-3.0810445360208973
 21
-2.5650567155511297
 31
0.0
  0
ARC
  5
9B
100
AcDbEntity
  8
0
 62
256
370
-1
 48
1.0
  6
BYLAYER
100
AcDbCircle
 10
-105.44493997904044
 20
-104.92895215857058
 30
0.0
 40
144.76440923285966
100
AcDbArc
 50
44.999999999999979
 51
63.748515067072105
  0
ARC
  5
9C
100
AcDbEntity
  8
0
 62
256
370
-1
 48
1.0
  6
BYLAYER
100
AcDbCircle
 10
-1.2425467376897068
 20
24.89664132067805
 30
0.0
 40
11.718367164711477
100
AcDbArc
 50
172.453170116482
 51
225.0
  0
ENDSEC
  0
SECTION
  2
OBJECTS
  0
DICTIONARY
  5
C
100
AcDbDictionary
280
0
281
1
  3
ACAD_GROUP
350
D
  3
ACAD_LAYOUT
350
1A
  3
ACAD_MLINESTYLE
350
17
  3
ACAD_PLOTSETTINGS
350
19
  3
ACAD_PLOTSTYLENAME
350
E
  3
AcDbVariableDictionary
350
9D
  3
QCAD_OBJECTS
350
9E
  0
DICTIONARY
  5
D
100
AcDbDictionary
280
0
281
1
  0
ACDBDICTIONARYWDFLT
  5
E
100
AcDbDictionary
281
1
  3
Normal
350
F
100
AcDbDictionaryWithDefault
340
F
  0
ACDBPLACEHOLDER
  5
F
  0
DICTIONARY
  5
17
100
AcDbDictionary
280
0
281
1
  3
Standard
350
18
  0
MLINESTYLE
  5
18
100
AcDbMlineStyle
  2
STANDARD
 70
0
  3

 62
256
 51
90.0
 52
90.0
 71
2
 49
0.5
 62
256
  6
BYLAYER
 49
-0.5
 62
256
  6
BYLAYER
  0
DICTIONARY
  5
19
100
AcDbDictionary
280
0
281
1
  0
DICTIONARY
  5
1A
100
AcDbDictionary
281
1
  3
Layout1
350
1E
  3
Layout2
350
26
  3
Model
350
22
  0
LAYOUT
  5
1E
100
AcDbPlotSettings
  1

  2
none_device
  4

  6

 40
0.0
 41
0.0
 42
0.0
 43
0.0
 44
0.0
 45
0.0
 46
0.0
 47
0.0
 48
0.0
 49
0.0
140
0.0
141
0.0
142
1.0
143
1.0
 70
688
 72
0
 73
0
 74
5
  7

 75
16
147
1.0
148
0.0
149
0.0
100
AcDbLayout
  1
Layout1
 70
1
 71
1
 10
0.0
 20
0.0
 11
420.0
 21
297.0
 12
0.0
 22
0.0
 32
0.0
 14
100000000000000000000.0
 24
100000000000000000000.0
 34
100000000000000000000.0
 15
-100000000000000000000.0
 25
-100000000000000000000.0
 35
-100000000000000000000.0
146
0.0
 13
0.0
 23
0.0
 33
0.0
 16
1.0
 26
0.0
 36
0.0
 17
0.0
 27
1.0
 37
0.0
 76
0
330
1B
  0
LAYOUT
  5
22
100
AcDbPlotSettings
  1

  2
none_device
  4

  6

 40
0.0
 41
0.0
 42
0.0
 43
0.0
 44
0.0
 45
0.0
 46
0.0
 47
0.0
 48
0.0
 49
0.0
140
0.0
141
0.0
142
1.0
143
1.0
 70
1712
 72
0
 73
0
 74
0
  7

 75
0
147
1.0
148
0.0
149
0.0
100
AcDbLayout
  1
Model
 70
1
 71
0
 10
0.0
 20
0.0
 11
12.0
 21
9.0
 12
0.0
 22
0.0
 32
0.0
 14
0.0
 24
0.0
 34
0.0
 15
0.0
 25
0.0
 35
0.0
146
0.0
 13
0.0
 23
0.0
 33
0.0
 16
1.0
 26
0.0
 36
0.0
 17
0.0
 27
1.0
 37
0.0
 76
0
330
1F
  0
LAYOUT
  5
26
100
AcDbPlotSettings
  1

  2
none_device
  4

  6

 40
0.0
 41
0.0
 42
0.0
 43
0.0
 44
0.0
 45
0.0
 46
0.0
 47
0.0
 48
0.0
 49
0.0
140
0.0
141
0.0
142
1.0
143
1.0
 70
688
 72
0
 73
0
 74
5
  7

 75
16
147
1.0
148
0.0
149
0.0
100
AcDbLayout
  1
Layout2
 70
1
 71
2
 10
0.0
 20
0.0
 11
12.0
 21
9.0
 12
0.0
 22
0.0
 32
0.0
 14
0.0
 24
0.0
 34
0.0
 15
0.0
 25
0.0
 35
0.0
146
0.0
 13
0.0
 23
0.0
 33
0.0
 16
1.0
 26
0.0
 36
0.0
 17
0.0
 27
1.0
 37
0.0
 76
0
330
23
  0
DICTIONARY
  5
9D
100
AcDbDictionary
281
1
  3
DIMASSOC
350
A0
  3
HIDETEXT
350
9F
  0
DICTIONARYVAR
  5
9F
100
DictionaryVariables
280
0
  1
2
  0
DICTIONARYVAR
  5
A0
100
DictionaryVariables
280
0
  1
1
  0
DICTIONARY
  5
9E
100
AcDbDictionary
281
1
  3
ColorSettings/BackgroundColor
350
A1
  3
ColorSettings/ColorMode
350
A2
  3
Grid/DisplayGrid00
350
A3
  3
Grid/DisplayGrid01
350
A4
  3
Grid/DisplayGrid02
350
A5
  3
Grid/DisplayGrid03
350
A6
  3
Grid/GridSpacingX00
350
A7
  3
Grid/GridSpacingX01
350
A8
  3
Grid/GridSpacingX02
350
A9
  3
Grid/GridSpacingX03
350
AA
  3
Grid/GridSpacingY00
350
AB
  3
Grid/GridSpacingY01
350
AC
  3
Grid/GridSpacingY02
350
AD
  3
Grid/GridSpacingY03
350
AE
  3
Grid/IsometricGrid00
350
AF
  3
Grid/IsometricGrid01
350
B0
  3
Grid/IsometricGrid02
350
B1
  3
Grid/IsometricGrid03
350
B2
  3
Grid/IsometricProjection00
350
B3
  3
Grid/IsometricProjection01
350
B4
  3
Grid/IsometricProjection02
350
B5
  3
Grid/IsometricProjection03
350
B6
  3
Grid/MetaGridSpacingX00
350
B7
  3
Grid/MetaGridSpacingX01
350
B8
  3
Grid/MetaGridSpacingX02
350
B9
  3
Grid/MetaGridSpacingX03
350
BA
  3
Grid/MetaGridSpacingY00
350
BB
  3
Grid/MetaGridSpacingY01
350
BC
  3
Grid/MetaGridSpacingY02
350
BD
  3
Grid/MetaGridSpacingY03
350
BE
  3
MultiPageSettings/Columns
350
BF
  3
MultiPageSettings/GlueMarginsBottom
350
C0
  3
MultiPageSettings/GlueMarginsLeft
350
C1
  3
MultiPageSettings/GlueMarginsRight
350
C2
  3
MultiPageSettings/GlueMarginsTop
350
C3
  3
MultiPageSettings/PrintCropMarks
350
C4
  3
MultiPageSettings/Rows
350
C5
  3
PageSettings/OffsetX
350
C6
  3
PageSettings/OffsetY
350
C7
  3
PageSettings/PageOrientation
350
C8
  3
PageSettings/PaperHeight
350
C9
  3
PageSettings/PaperWidth
350
CA
  3
PageSettings/Scale
350
CB
  3
PageSettings/ShowPaperBorders
350
CC
  3
QCADVersion
350
CD
  3
UnitSettings/PaperUnit
350
CE
  3
ViewportCenter
350
CF
  3
ViewportHeight
350
D0
  3
ViewportWidth
350
D1
  0
XRECORD
  5
A1
330
9E
100
AcDbXrecord
280
1
1000
White
  0
XRECORD
  5
A2
330
9E
100
AcDbXrecord
280
1
1000
FullColor
  0
XRECORD
  5
A3
330
9E
100
AcDbXrecord
280
1
290
1
  0
XRECORD
  5
A4
330
9E
100
AcDbXrecord
280
1
290
1
  0
XRECORD
  5
A5
330
9E
100
AcDbXrecord
280
1
290
1
  0
XRECORD
  5
A6
330
9E
100
AcDbXrecord
280
1
290
1
  0
XRECORD
  5
A7
330
9E
100
AcDbXrecord
280
1
1000
auto
  0
XRECORD
  5
A8
330
9E
100
AcDbXrecord
280
1
1000
auto
  0
XRECORD
  5
A9
330
9E
100
AcDbXrecord
280
1
1000
auto
  0
XRECORD
  5
AA
330
9E
100
AcDbXrecord
280
1
1000
auto
  0
XRECORD
  5
AB
330
9E
100
AcDbXrecord
280
1
1000
auto
  0
XRECORD
  5
AC
330
9E
100
AcDbXrecord
280
1
1000
auto
  0
XRECORD
  5
AD
330
9E
100
AcDbXrecord
280
1
1000
auto
  0
XRECORD
  5
AE
330
9E
100
AcDbXrecord
280
1
1000
auto
  0
XRECORD
  5
AF
330
9E
100
AcDbXrecord
280
1
290
0
  0
XRECORD
  5
B0
330
9E
100
AcDbXrecord
280
1
290
0
  0
XRECORD
  5
B1
330
9E
100
AcDbXrecord
280
1
290
0
  0
XRECORD
  5
B2
330
9E
100
AcDbXrecord
280
1
290
0
  0
XRECORD
  5
B3
330
9E
100
AcDbXrecord
280
1
 90
65537
  0
XRECORD
  5
B4
330
9E
100
AcDbXrecord
280
1
 90
65537
  0
XRECORD
  5
B5
330
9E
100
AcDbXrecord
280
1
 90
65537
  0
XRECORD
  5
B6
330
9E
100
AcDbXrecord
280
1
 90
65537
  0
XRECORD
  5
B7
330
9E
100
AcDbXrecord
280
1
1000
auto
  0
XRECORD
  5
B8
330
9E
100
AcDbXrecord
280
1
1000
auto
  0
XRECORD
  5
B9
330
9E
100
AcDbXrecord
280
1
1000
auto
  0
XRECORD
  5
BA
330
9E
100
AcDbXrecord
280
1
1000
auto
  0
XRECORD
  5
BB
330
9E
100
AcDbXrecord
280
1
1000
auto
  0
XRECORD
  5
BC
330
9E
100
AcDbXrecord
280
1
1000
auto
  0
XRECORD
  5
BD
330
9E
100
AcDbXrecord
280
1
1000
auto
  0
XRECORD
  5
BE
330
9E
100
AcDbXrecord
280
1
1000
auto
  0
XRECORD
  5
BF
330
9E
100
AcDbXrecord
280
1
 90
1
  0
XRECORD
  5
C0
330
9E
100
AcDbXrecord
280
1
 40
10.0
  0
XRECORD
  5
C1
330
9E
100
AcDbXrecord
280
1
 40
10.0
  0
XRECORD
  5
C2
330
9E
100
AcDbXrecord
280
1
 40
10.0
  0
XRECORD
  5
C3
330
9E
100
AcDbXrecord
280
1
 40
10.0
  0
XRECORD
  5
C4
330
9E
100
AcDbXrecord
280
1
290
0
  0
XRECORD
  5
C5
330
9E
100
AcDbXrecord
280
1
 90
1
  0
XRECORD
  5
C6
330
9E
100
AcDbXrecord
280
1
 40
0.0
  0
XRECORD
  5
C7
330
9E
100
AcDbXrecord
280
1
 40
0.0
  0
XRECORD
  5
C8
330
9E
100
AcDbXrecord
280
1
1000
Portrait
  0
XRECORD
  5
C9
330
9E
100
AcDbXrecord
280
1
 40
279.39999999999998
  0
XRECORD
  5
CA
330
9E
100
AcDbXrecord
280
1
 40
215.90000000000001
  0
XRECORD
  5
CB
330
9E
100
AcDbXrecord
280
1
1000
1:1
  0
XRECORD
  5
CC
330
9E
100
AcDbXrecord
280
1
290
1
  0
XRECORD
  5
CD
330
9E
100
AcDbXrecord
280
1
1000
3.23.0
  0
XRECORD
  5
CE
330
9E
100
AcDbXrecord
280
1
 90
4
  0
XRECORD
  5
D0
330
9E
100
AcDbXrecord
280
1
 40
53.84215393424109
  0
XRECORD
  5
D1
330
9E
100
AcDbXrecord
280
1
 40
122.83879774442553
  0
ENDSEC
  0
EOF
