0
SECTION
2
HEADER
9
$INSUNITS
70
4
9
$ACADVER
1
AC1014
9
$HANDSEED
5
FFFF
0
ENDSEC
0
SECTION
2
TABLES
0
TABLE
2
VPORT
5
8
100
AcDbSymbolTable
0
ENDTAB
0
TABLE
2
LTYPE
5
5
100
AcDbSymbolTable
0
LTYPE
5
14
100
AcDbSymbolTableRecord
100
AcDbLinetypeTableRecord
2
BYBLOCK
70
0
0
LTYPE
5
15
100
AcDbSymbolTableRecord
100
AcDbLinetypeTableRecord
2
BYLAYER
70
0
0
ENDTAB
0
TABLE
2
LAYER
5
2
100
AcDbSymbolTable
70
2
0
LAYER
5
50
100
AcDbSymbolTableRecord
100
AcDbLayerTableRecord
2
0
70
0
6
CONTINUOUS
0
ENDTAB
0
TABLE
2
STYLE
5
3
100
AcDbSymbolTable
70
1
0
STYLE
5
11
100
AcDbSymbolTableRecord
100
AcDbTextStyleTableRecord
2
STANDARD
70
0
0
ENDTAB
0
TABLE
2
VIEW
5
6
100
AcDbSymbolTable
70
0
0
ENDTAB
0
TABLE
2
UCS
5
7
100
AcDbSymbolTable
70
0
0
ENDTAB
0
TABLE
2
APPID
5
9
100
AcDbSymbolTable
70
2
0
APPID
5
12
100
AcDbSymbolTableRecord
100
AcDbRegAppTableRecord
2
ACAD
70
0
0
ENDTAB
0
TABLE
2
DIMSTYLE
5
A
100
AcDbSymbolTable
70
1
0
ENDTAB
0
TABLE
2
BLOCK_RECORD
5
1
100
AcDbSymbolTable
70
1
0
BLOCK_RECORD
5
1F
100
AcDbSymbolTableRecord
100
AcDbBlockTableRecord
2
*MODEL_SPACE
0
BLOCK_RECORD
5
1B
100
AcDbSymbolTableRecord
100
AcDbBlockTableRecord
2
*PAPER_SPACE
0
ENDTAB
0
ENDSEC
0
SECTION
2
BLOCKS
0
BLOCK
5
20
100
AcDbEntity
100
AcDbBlockBegin
2
*MODEL_SPACE
0
ENDBLK
5
21
100
AcDbEntity
100
AcDbBlockEnd
0
BLOCK
5
1C
100
AcDbEntity
100
AcDbBlockBegin
2
*PAPER_SPACE
0
ENDBLK
5
1D
100
AcDbEntity
100
AcDbBlockEnd
0
ENDSEC
0
SECTION
2
ENTITIES
0
LINE
5
100
100
AcDbEntity
8
0
100
AcDbLine
10
69.500000000014325
20
9.0999999999857
30
0
11
0
21
9.0999999999922121
31
0
0
LWPOLYLINE
5
101
100
AcDbEntity
8
0
100
AcDbPolyline
90
4
70
1
43
0.0
10
71.049999999983925
20
3.5500128423604247
10
71.049999999990419
20
4.550000000000205
42
0.99999999999999989
10
67.950000000009595
20
4.5499999999999972
10
67.950000000009595
20
3.5500040472791339
42
1.0000054482745095
0
LWPOLYLINE
5
102
100
AcDbEntity
8
0
100
AcDbPolyline
90
4
70
1
43
0.0
10
77.600000000028984
20
-6.1000000000272951
10
78.600000000036786
20
-6.1000000000131438
42
0.99999999999999989
10
78.600000000008151
20
-3.0000000000162497
10
77.600000000000151
20
-3.0000000000162386
42
0.99999999999999989
0
LINE
5
103
100
AcDbEntity
8
0
100
AcDbLine
10
72.545262358661816
20
7.9394093501360699
30
0
11
81.817335854398792
21
-1.3326641456012118
31
0
0
ARC
5
104
100
AcDbEntity
8
0
100
AcDbCircle
10
78.599999999999994
20
-4.5499999999999989
30
0
40
4.5500000000000025
210
0
220
0
230
1
100
AcDbArc
50
-90
51
44.999999999999908
0
SPLINE
5
105
100
AcDbEntity
8
0
100
AcDbSpline
70
4
71
5
72
16
73
10
74
0
42
0.000000001
43
0.0000000001
44
0.0000000001
40
0
40
0
40
0
40
0
40
0
40
0
40
0.20000000000000001
40
0.40000000000000002
40
0.60000000000000009
40
0.80000000000000004
40
1
40
1
40
1
40
1
40
1
40
1
41
1
41
1
41
1
41
1
41
1
41
1
41
1
41
1
41
1
41
1
10
74.382664145590283
20
-7.7673358544092919
30
0
10
73.667557180824076
20
-7.0522288896382683
30
0
10
72.198850938095191
20
-5.6850104943862494
30
0
10
69.88041065236493
20
-3.8230285382848885
30
0
10
66.583422319711886
20
-1.6911128323852778
30
0
10
62.185777374874078
20
0.40678727348417482
30
0
10
58.461174458332508
20
1.5452209722612711
30
0
10
55.536651557307771
20
1.9990840385683697
30
0
10
53.522903346599321
20
2.0999999999999996
30
0
10
52.500000000032955
20
2.0999999999999996
30
0
0
ARC
5
106
100
AcDbEntity
8
0
100
AcDbCircle
10
69.500000000014325
20
4.5499999999857001
30
0
40
4.549999999999998
210
0
220
-0
230
1
100
AcDbArc
50
44.999999999999091
51
48.134744712973827
0
ARC
5
107
100
AcDbEntity
8
0
100
AcDbCircle
10
69.500000000014325
20
4.5499999999857001
30
0
40
4.5499999999999998
210
0
220
-0
230
1
100
AcDbArc
50
48.134744712973827
51
90
0
ARC
5
108
100
AcDbEntity
8
0
100
AcDbCircle
10
77.599999999999895
20
-4.5500000000213161
30
0
40
4.5499999999999998
210
0
220
0
230
1
100
AcDbArc
50
224.99999999980733
51
270
0
LINE
5
109
100
AcDbEntity
8
0
100
AcDbLine
10
0
20
2.0999999999999908
30
0
11
52.500000000032955
21
2.0999999999999996
31
0
0
LINE
5
110
100
AcDbEntity
8
0
100
AcDbLine
10
77.599999999999895
20
-9.1000000000213159
30
0
11
78.599999999999994
21
-9.1000000000000014
31
0
0
LWPOLYLINE
5
111
100
AcDbEntity
8
0
100
AcDbPolyline
90
4
70
1
43
0.0
10
-67.950000000009595
20
4.5500000000000007
10
-67.950000000034066
20
3.5500040472445371
42
-1.0000054482745095
10
-71.049999999983925
20
3.5500128423604238
10
-71.05000000001904
20
4.5499999999714014
42
-0.99999999999999989
0
LINE
5
112
100
AcDbEntity
8
0
100
AcDbLine
10
-77.599999999902892
20
-2.1316282072803006e-11
30
0
11
-78.599999999902991
21
0
31
0
0
LWPOLYLINE
5
113
100
AcDbEntity
8
0
100
AcDbPolyline
90
4
70
1
43
0.0
10
-78.599999999991837
20
-6.0999999999837495
42
-0.99999999999999989
10
-78.600000000008151
20
-3.0000000000162519
10
-77.599999999970805
20
-3.0000000000153371
42
-0.99999999999999989
10
-77.600000000028984
20
-6.1000000000272969
0
LINE
5
114
100
AcDbEntity
8
0
100
AcDbLine
10
-72.545262358661816
20
7.9394093501360707
30
0
11
-81.817335854398792
21
-1.3326641456012123
31
0
0
LINE
5
115
100
AcDbEntity
8
0
100
AcDbLine
10
-77.599999999999895
20
-9.1000000000213177
30
0
11
-78.599999999999994
21
-9.1000000000000014
31
0
0
ARC
5
116
100
AcDbEntity
8
0
100
AcDbCircle
10
-78.599999999999994
20
-4.5500000000000007
30
0
40
4.5500000000000025
210
0
220
0
230
1
100
AcDbArc
50
135.00000000000009
51
270
0
ARC
5
117
100
AcDbEntity
8
0
100
AcDbCircle
10
-69.500000000014325
20
4.549999999985701
30
0
40
4.5499999999999989
210
0
220
0
230
1
100
AcDbArc
50
131.8652552870262
51
135.00000000000094
0
ARC
5
118
100
AcDbEntity
8
0
100
AcDbCircle
10
-77.599999999999895
20
-4.550000000021317
30
0
40
4.5500000000000007
210
0
220
0
230
1
100
AcDbArc
50
270
51
315.00000000019259
0
ARC
5
119
100
AcDbEntity
8
0
100
AcDbCircle
10
-69.500000000014325
20
4.549999999985701
30
0
40
4.5500000000000007
210
0
220
-0
230
1
100
AcDbArc
50
90
51
131.8652552870262
0
LINE
5
120
100
AcDbEntity
8
0
100
AcDbLine
10
-69.500000000014325
20
9.0999999999857017
30
0
11
0
21
9.0999999999922121
31
0
0
SPLINE
5
121
100
AcDbEntity
8
0
100
AcDbSpline
70
4
71
5
72
16
73
10
74
0
42
0.000000001
43
0.0000000001
44
0.0000000001
40
0
40
0
40
0
40
0
40
0
40
0
40
0.20000000000000001
40
0.40000000000000002
40
0.60000000000000009
40
0.80000000000000004
40
1
40
1
40
1
40
1
40
1
40
1
41
1
41
1
41
1
41
1
41
1
41
1
41
1
41
1
41
1
41
1
10
-74.382664145590283
20
-7.7673358544092919
30
0
10
-73.667557180824076
20
-7.0522288896382683
30
0
10
-72.198850938095191
20
-5.6850104943862494
30
0
10
-69.88041065236493
20
-3.8230285382848885
30
0
10
-66.583422319711886
20
-1.6911128323852778
30
0
10
-62.185777374874078
20
0.40678727348417482
30
0
10
-58.461174458332508
20
1.5452209722612711
30
0
10
-55.536651557307771
20
1.9990840385683697
30
0
10
-53.522903346599321
20
2.0999999999999996
30
0
10
-52.500000000032955
20
2.0999999999999996
30
0
0
LINE
5
122
100
AcDbEntity
8
0
100
AcDbLine
10
0
20
2.0999999999999908
30
0
11
-52.500000000032955
21
2.0999999999999996
31
0
0
ENDSEC
0
SECTION
2
OBJECTS
0
DICTIONARY
5
C
100
AcDbDictionary
3
ACAD_GROUP
350
D
3
ACAD_MLINESTYLE
350
17
0
DICTIONARY
5
D
100
AcDbDictionary
0
DICTIONARY
5
1A
330
C
100
AcDbDictionary
0
DICTIONARY
5
17
100
AcDbDictionary
0
ENDSEC
0
EOF
