0
SECTION
2
HEADER
9
$INSUNITS
70
4
9
$ACADVER
1
AC1014
9
$HANDSEED
5
FFFF
0
ENDSEC
0
SECTION
2
TABLES
0
TABLE
2
VPORT
5
8
100
AcDbSymbolTable
0
ENDTAB
0
TABLE
2
LTYPE
5
5
100
AcDbSymbolTable
0
LTYPE
5
14
100
AcDbSymbolTableRecord
100
AcDbLinetypeTableRecord
2
BYBLOCK
70
0
0
LTYPE
5
15
100
AcDbSymbolTableRecord
100
AcDbLinetypeTableRecord
2
BYLAYER
70
0
0
ENDTAB
0
TABLE
2
LAYER
5
2
100
AcDbSymbolTable
70
2
0
LAYER
5
50
100
AcDbSymbolTableRecord
100
AcDbLayerTableRecord
2
0
70
0
6
CONTINUOUS
0
ENDTAB
0
TABLE
2
STYLE
5
3
100
AcDbSymbolTable
70
1
0
STYLE
5
11
100
AcDbSymbolTableRecord
100
AcDbTextStyleTableRecord
2
STANDARD
70
0
0
ENDTAB
0
TABLE
2
VIEW
5
6
100
AcDbSymbolTable
70
0
0
ENDTAB
0
TABLE
2
UCS
5
7
100
AcDbSymbolTable
70
0
0
ENDTAB
0
TABLE
2
APPID
5
9
100
AcDbSymbolTable
70
2
0
APPID
5
12
100
AcDbSymbolTableRecord
100
AcDbRegAppTableRecord
2
ACAD
70
0
0
ENDTAB
0
TABLE
2
DIMSTYLE
5
A
100
AcDbSymbolTable
70
1
0
ENDTAB
0
TABLE
2
BLOCK_RECORD
5
1
100
AcDbSymbolTable
70
1
0
BLOCK_RECORD
5
1F
100
AcDbSymbolTableRecord
100
AcDbBlockTableRecord
2
*MODEL_SPACE
0
BLOCK_RECORD
5
1B
100
AcDbSymbolTableRecord
100
AcDbBlockTableRecord
2
*PAPER_SPACE
0
ENDTAB
0
ENDSEC
0
SECTION
2
BLOCKS
0
BLOCK
5
20
100
AcDbEntity
100
AcDbBlockBegin
2
*MODEL_SPACE
0
ENDBLK
5
21
100
AcDbEntity
100
AcDbBlockEnd
0
BLOCK
5
1C
100
AcDbEntity
100
AcDbBlockBegin
2
*PAPER_SPACE
0
ENDBLK
5
1D
100
AcDbEntity
100
AcDbBlockEnd
0
ENDSEC
0
SECTION
2
ENTITIES
0
LWPOLYLINE
5
100
100
AcDbEntity
8
0
100
AcDbPolyline
90
56
70
1
43
0.0
10
8.4999999999999982
20
-39.000000610947609
42
0.41421356237309503
10
10.5
20
-41.000000610947609
10
12.000000000000002
20
-41.000000610947609
42
0.41421356237309503
10
14.000000000000002
20
-39.000000610947609
10
14.000000000000002
20
-15.656854809313581
42
0.18318429182291074
10
12.994787210154204
20
-13.005204461719311
42
-0.19846122256402815
10
11.996524925944234
20
-10.117851471886837
42
0.17744315100300836
10
11.600000168085106
20
-8.800000124772394
42
-0.16227766118795062
10
10.000000149011612
20
-4.0000000993410714
10
10.000000149011612
20
4.0000001490116075
42
-0.16227766016837886
10
11.600000149011612
20
8.8000001490116126
42
0.37323778245253469
10
11.414213711384706
20
11.414213711384706
10
11.379627471717242
20
11.485812222836095
42
0.034173275376035442
10
9.3503676350617884
20
15.043817247431424
42
-0.052253380389530112
10
9.2537001913307968
20
15.228491191447539
42
-0.011440325448048978
10
8.9356703083601765
20
16.086556731604261
10
3.4990304834977093
20
31.852812223705254
42
-0.029470993054255368
10
3.4196011439676157
20
32.136351017106797
10
2.0370152669001609
20
35.72003116920208
42
0.3105148092948492
10
0.16764469890704434
20
37.000143943002172
42
-0.00085533070946504125
10
-0.16764469890488951
20
37.000143943002193
42
0.31051480929484843
10
-2.037015266900152
20
35.72003116920208
10
-3.4196011439677125
20
32.136351017106527
42
-0.029470993054228924
10
-3.4990304834977493
20
31.85281222370525
10
-8.9356703083601889
20
16.086556731604226
42
-0.011440325448049644
10
-9.253700191330843
20
15.228491191447455
42
-0.052253380389519315
10
-9.3503676350617972
20
15.043817247431427
42
0.034173275376035851
10
-11.379627471717264
20
11.485812222836064
10
-11.414213711384708
20
11.414213711384704
42
0.37323778245253364
10
-11.600000149011613
20
8.8000001490116162
42
-0.1622776601683793
10
-10.000000149011612
20
4.0000001490116119
10
-10.00000014901161
20
-4.0000000993410731
42
-0.1622776611879512
10
-11.600000168085096
20
-8.8000001247723922
42
0.17659508043107378
10
-11.996901763138219
20
-10.111283852705546
42
-0.19755129095397139
10
-12.995352465939565
20
-12.984863064519327
42
0.18312920457996765
10
-14.000000000000002
20
-15.635874872261756
10
-14.000000000000004
20
-39.000000610947609
42
0.41421356237309503
10
-12.000000000000002
20
-41.000000610947609
10
-10.5
20
-41.000000610947609
42
0.41421356237309503
10
-8.5
20
-39.000000610947609
10
-8.5000000000000018
20
-31.000000610947609
42
-0.41421356237309492
10
-6.5000000000000018
20
-29.000000610947609
10
-4.42098124367587
20
-29.000000610947609
42
0.49945089654956509
10
-3.4604906218379354
20
-27.721688258793812
42
-0.070626227244244527
10
-3.5
20
-27.443375906640021
10
-3.4999999999999991
20
-24.806624148212002
42
-0.26794919243112558
10
-2.9999999999999982
20
-23.940598744427565
10
-0.49999999999999684
20
-22.497223071453497
42
-0.26794919243112475
10
0.50000000000000155
20
-22.497223071453497
10
3
20
-23.940598744427568
42
-0.26794919243112097
10
3.5000000000000004
20
-24.806624148212006
10
3.4999999999999982
20
-27.443374550666533
42
-0.070626404593372674
10
3.4604904253838189
20
-27.721687580807071
42
0.4994511170388346
10
4.4209808507676405
20
-29.000000610947609
10
6.5000000000000027
20
-29.000000610947609
42
-0.41421356237309342
10
8.5
20
-31.000000610947609
0
CIRCLE
5
101
100
AcDbEntity
8
0
100
AcDbCircle
10
10.000000149011612
20
10.000000149011612
30
0
40
1.0499999999999998
210
0
220
0
230
1
0
CIRCLE
5
102
100
AcDbEntity
8
0
100
AcDbCircle
10
0
20
-18.000000268220901
30
0
40
1.05
210
0
220
0
230
1
0
CIRCLE
5
103
100
AcDbEntity
8
0
100
AcDbCircle
10
-10.000000149011612
20
10.000000149011612
30
0
40
1.0499999999999998
210
0
220
0
230
1
0
CIRCLE
5
104
100
AcDbEntity
8
0
100
AcDbCircle
10
10.000000149011612
20
-10.000000149011612
30
0
40
1.0499999999999998
210
0
220
0
230
1
0
CIRCLE
5
105
100
AcDbEntity
8
0
100
AcDbCircle
10
-10.000000149011612
20
-10.000000149011612
30
0
40
1.0499999999999998
210
0
220
0
230
1
0
CIRCLE
5
106
100
AcDbEntity
8
0
100
AcDbCircle
10
0
20
35.000000521540642
30
0
40
1.05
210
0
220
0
230
1
0
LWPOLYLINE
5
107
100
AcDbEntity
8
0
100
AcDbPolyline
90
6
70
1
43
0.0
10
5.7846838821645168
20
21.842119886566419
42
0.71054444685486695
10
4.2739025049333552
20
21.821707648910518
10
3.1726678631993144
20
18.518003723708393
42
0.30873607945603898
10
3.4194669819081396
20
17.650444487217023
10
6.7231709071102674
20
14.897357882881913
42
0.76586305050299552
10
7.987153165632602
20
15.785329357029179
0
LWPOLYLINE
5
108
100
AcDbEntity
8
0
100
AcDbPolyline
90
6
70
1
43
0.0
10
-4.2739025049333552
20
21.821707648910518
42
0.71054444685486695
10
-5.7846838821645168
20
21.842119886566419
10
-7.9871531656326038
20
15.785329357029184
42
0.76586305050299686
10
-6.7231709071102683
20
14.897357882881913
10
-3.4194669819081414
20
17.650444487217023
42
0.30873607945603859
10
-3.1726678631993126
20
18.518003723708393
0
LWPOLYLINE
5
109
100
AcDbEntity
8
0
100
AcDbPolyline
90
6
70
1
43
0.0
10
5.7846838821645186
20
-4.1578801134335865
42
0.71054444685486917
10
4.2739025049333552
20
-4.1782923510894809
10
3.1726678631993139
20
-7.4819962762916106
42
0.30873607945603826
10
3.4194669819081405
20
-8.349555512782981
10
6.7231709071102683
20
-11.102642117118084
42
0.76586305050299675
10
7.987153165632602
20
-10.214670642970823
0
LWPOLYLINE
5
110
100
AcDbEntity
8
0
100
AcDbPolyline
90
6
70
1
43
0.0
10
5.7846838821645186
20
8.8421198865664117
42
0.71054444685486928
10
4.2739025049333552
20
8.8217076489105199
10
3.1726678631993139
20
5.5180037237083912
42
0.30873607945603854
10
3.4194669819081405
20
4.6504444872170199
10
6.7231709071102674
20
1.8973578828819133
42
0.76586305050299597
10
7.987153165632602
20
2.7853293570291782
0
LWPOLYLINE
5
111
100
AcDbEntity
8
0
100
AcDbPolyline
90
12
70
1
43
0.0
10
-0.49999999999999822
20
15.752776928546501
10
-2.9999999999999973
20
14.309401255572441
42
0.26794919243112414
10
-3.4999999999999973
20
13.443375851788002
10
-3.5
20
10.556624505839869
42
0.26794919243112258
10
-2.9999999999999991
20
9.6905991020554296
10
-0.49999999999999933
20
8.2472234290813677
42
0.26794919243112247
10
0.5
20
8.247223429081366
10
3
20
9.6905991020554296
42
0.26794919243112231
10
3.4999999999999991
20
10.556624505839869
10
3.5000000000000004
20
13.443375851787998
42
0.26794919243112514
10
3.0000000000000004
20
14.309401255572435
10
0.50000000000000266
20
15.752776928546501
42
0.26794919243112475
0
LWPOLYLINE
5
112
100
AcDbEntity
8
0
100
AcDbPolyline
90
6
70
1
43
0.0
10
-4.2739025049333552
20
8.8217076489105199
42
0.71054444685486884
10
-5.7846838821645186
20
8.8421198865664135
10
-7.9871531656326038
20
2.7853293570291795
42
0.76586305050299652
10
-6.7231709071102674
20
1.8973578828819138
10
-3.4194669819081405
20
4.6504444872170208
42
0.3087360794560382
10
-3.1726678631993126
20
5.5180037237083912
0
LWPOLYLINE
5
113
100
AcDbEntity
8
0
100
AcDbPolyline
90
6
70
1
43
0.0
10
-4.2739025049333552
20
-4.1782923510894818
42
0.71054444685486917
10
-5.7846838821645177
20
-4.1578801134335865
10
-7.9871531656326038
20
-10.214670642970823
42
0.76586305050299486
10
-6.7231709071102683
20
-11.102642117118089
10
-3.4194669819081405
20
-8.349555512782981
42
0.3087360794560382
10
-3.1726678631993126
20
-7.4819962762916088
0
LWPOLYLINE
5
114
100
AcDbEntity
8
0
100
AcDbPolyline
90
6
70
1
43
0.0
10
5.7846838821645186
20
-17.157880113433592
42
0.71054444685486917
10
4.2739025049333552
20
-17.178292351089482
10
3.1726678631993126
20
-20.481996276291614
42
0.30873607945603737
10
3.4194669819081396
20
-21.349555512782985
10
6.7231709071102665
20
-24.102642117118087
42
0.76586305050299919
10
7.987153165632602
20
-23.214670642970823
0
LWPOLYLINE
5
115
100
AcDbEntity
8
0
100
AcDbPolyline
90
12
70
1
43
0.0
10
-0.49999999999999722
20
3.0027769285465009
10
-2.9999999999999982
20
1.5594012555724379
42
0.26794919243112297
10
-3.4999999999999987
20
0.69337585178800021
10
-3.5
20
-2.1933754941601311
42
0.26794919243112286
10
-3
20
-3.0594008979445695
10
-0.49999999999999989
20
-4.5027765709186349
42
0.26794919243112286
10
0.49999999999999933
20
-4.5027765709186349
10
3
20
-3.0594008979445708
42
0.26794919243112186
10
3.5
20
-2.1933754941601324
10
3.5000000000000004
20
0.69337585178799532
42
0.26794919243112225
10
3.0000000000000018
20
1.5594012555724337
10
0.50000000000000278
20
3.0027769285465
42
0.26794919243112308
0
CIRCLE
5
116
100
AcDbEntity
8
0
100
AcDbCircle
10
0
20
18.000000268220901
30
0
40
1
210
-0
220
0
230
1
0
LWPOLYLINE
5
117
100
AcDbEntity
8
0
100
AcDbPolyline
90
8
70
1
43
0.0
10
-1.466666655739147
20
25.326239565365462
42
0.25754274492940088
10
-0.99999998509883858
20
26.172144737234095
10
-0.99999998509883947
20
30.418230475353589
10
-0.93241514677906445
20
30.592605211016888
42
-0.68489980318675159
10
0.93241507227325604
20
30.592605211016888
10
1.0000000149011612
20
30.418230206229573
10
1.0000000149011612
20
26.172144718444081
42
0.25754274242486125
10
1.4666666775941839
20
25.326239551586113
42
-3.4610721925561929
0
LWPOLYLINE
5
118
100
AcDbEntity
8
0
100
AcDbPolyline
90
6
70
1
43
0.0
10
-4.2739025049333552
20
-17.178292351089482
42
0.71054444685486917
10
-5.7846838821645186
20
-17.157880113433592
10
-7.9871531656326038
20
-23.214670642970823
42
0.76586305050299686
10
-6.7231709071102674
20
-24.102642117118091
10
-3.4194669819081409
20
-21.349555512782985
42
0.30873607945603754
10
-3.1726678631993117
20
-20.481996276291614
0
CIRCLE
5
119
100
AcDbEntity
8
0
100
AcDbCircle
10
-12.000000000000002
20
-39.000000610947609
30
0
40
1.0499999999999998
210
0
220
0
230
1
0
CIRCLE
5
120
100
AcDbEntity
8
0
100
AcDbCircle
10
12.000000000000002
20
-39.000000610947609
30
0
40
1.0499999999999998
210
0
220
0
230
1
0
LWPOLYLINE
5
121
100
AcDbEntity
8
0
100
AcDbPolyline
90
9
70
1
43
0.0
10
10.577525149694944
20
-33.576799982976191
10
10.577525149694944
20
-24.376799982976184
42
0.99999999999999989
10
10.577525149694939
20
-23.876799982976188
10
9.377525149694943
20
-23.876799982976188
42
0.99999999999999989
10
9.3775251496949465
20
-24.376799982976184
10
9.3775251496949448
20
-33.576799982976191
42
0.99999999999999989
10
9.3775251496949359
20
-34.076799982976183
10
10.477525149694944
20
-34.076799982976183
10
10.477525149694944
20
-34.055928767723977
42
1.2302603709681823
0
LWPOLYLINE
5
122
100
AcDbEntity
8
0
100
AcDbPolyline
90
9
70
1
43
0.0
10
-10.577525149694944
20
-24.376799982976184
10
-10.577525149694944
20
-33.576799982976191
42
1.2302603709681823
10
-10.477525149694944
20
-34.055928767723977
10
-10.477525149694944
20
-34.076799982976183
10
-9.3775251496949359
20
-34.076799982976183
42
0.99999999999999989
10
-9.3775251496949448
20
-33.576799982976191
10
-9.3775251496949448
20
-24.376799982976184
42
0.99999999999999989
10
-9.377525149694943
20
-23.876799982976188
10
-10.577525149694939
20
-23.876799982976188
42
0.99999999999999989
0
ENDSEC
0
SECTION
2
OBJECTS
0
DICTIONARY
5
C
100
AcDbDictionary
3
ACAD_GROUP
350
D
3
ACAD_MLINESTYLE
350
17
0
DICTIONARY
5
D
100
AcDbDictionary
0
DICTIONARY
5
1A
330
C
100
AcDbDictionary
0
DICTIONARY
5
17
100
AcDbDictionary
0
ENDSEC
0
EOF
