0
SECTION
2
HEADER
9
$INSUNITS
70
4
9
$ACADVER
1
AC1014
9
$HANDSEED
5
FFFF
0
ENDSEC
0
SECTION
2
TABLES
0
TABLE
2
VPORT
5
8
100
AcDbSymbolTable
0
ENDTAB
0
TABLE
2
LTYPE
5
5
100
AcDbSymbolTable
0
LTYPE
5
14
100
AcDbSymbolTableRecord
100
AcDbLinetypeTableRecord
2
BYBLOCK
70
0
0
LTYPE
5
15
100
AcDbSymbolTableRecord
100
AcDbLinetypeTableRecord
2
BYLAYER
70
0
0
ENDTAB
0
TABLE
2
LAYER
5
2
100
AcDbSymbolTable
70
2
0
LAYER
5
50
100
AcDbSymbolTableRecord
100
AcDbLayerTableRecord
2
0
70
0
6
CONTINUOUS
0
ENDTAB
0
TABLE
2
STYLE
5
3
100
AcDbSymbolTable
70
1
0
STYLE
5
11
100
AcDbSymbolTableRecord
100
AcDbTextStyleTableRecord
2
STANDARD
70
0
0
ENDTAB
0
TABLE
2
VIEW
5
6
100
AcDbSymbolTable
70
0
0
ENDTAB
0
TABLE
2
UCS
5
7
100
AcDbSymbolTable
70
0
0
ENDTAB
0
TABLE
2
APPID
5
9
100
AcDbSymbolTable
70
2
0
APPID
5
12
100
AcDbSymbolTableRecord
100
AcDbRegAppTableRecord
2
ACAD
70
0
0
ENDTAB
0
TABLE
2
DIMSTYLE
5
A
100
AcDbSymbolTable
70
1
0
ENDTAB
0
TABLE
2
BLOCK_RECORD
5
1
100
AcDbSymbolTable
70
1
0
BLOCK_RECORD
5
1F
100
AcDbSymbolTableRecord
100
AcDbBlockTableRecord
2
*MODEL_SPACE
0
BLOCK_RECORD
5
1B
100
AcDbSymbolTableRecord
100
AcDbBlockTableRecord
2
*PAPER_SPACE
0
ENDTAB
0
ENDSEC
0
SECTION
2
BLOCKS
0
BLOCK
5
20
100
AcDbEntity
100
AcDbBlockBegin
2
*MODEL_SPACE
0
ENDBLK
5
21
100
AcDbEntity
100
AcDbBlockEnd
0
BLOCK
5
1C
100
AcDbEntity
100
AcDbBlockBegin
2
*PAPER_SPACE
0
ENDBLK
5
1D
100
AcDbEntity
100
AcDbBlockEnd
0
ENDSEC
0
SECTION
2
ENTITIES
0
SPLINE
5
100
100
AcDbEntity
8
0
100
AcDbSpline
70
0
71
3
72
8
73
4
74
0
42
0.000000001
43
0.0000000001
44
0.0000000001
40
0
40
0
40
0
40
0
40
0.051354240151974324
40
0.051354240151974324
40
0.051354240151974324
40
0.051354240151974324
10
53.259396561696583
20
2.4999999999999822
30
0
10
53.430577362203159
20
2.4999999999999822
30
0
10
53.601327908008216
20
2.5087905064752469
30
0
10
53.77098850129984
20
2.5262414928614429
30
0
0
LINE
5
101
100
AcDbEntity
8
0
100
AcDbLine
10
53.259396561696583
20
2.4999999999999822
30
0
11
18.035432594160273
21
2.4999999999999947
31
0
0
ARC
5
102
100
AcDbEntity
8
0
100
AcDbCircle
10
18.035432594160273
20
3.4999999999999956
30
0
40
1.0000000000000007
210
0
220
0
230
1
100
AcDbArc
50
153.51025248948574
51
270
0
LINE
5
103
100
AcDbEntity
8
0
100
AcDbLine
10
17.140418404384363
20
3.946037666682721
30
0
11
17.677206260867987
21
5.0231501716093039
31
0
0
ARC
5
104
100
AcDbEntity
8
0
100
AcDbCircle
10
35.673183797093635
20
-3.7029481842232048
30
0
40
19.999999999999996
210
0
220
0
230
1
100
AcDbArc
50
154.02560603756868
51
154.13164307215985
0
LINE
5
105
100
AcDbEntity
8
0
100
AcDbLine
10
17.693386420348247
20
5.0564402813707083
30
0
11
24.997527705703458
21
20.049151340784039
31
0
0
ARC
5
106
100
AcDbEntity
8
0
100
AcDbCircle
10
27.245002377796631
20
18.954227782584802
30
0
40
2.5000000000000022
210
0
220
0
230
1
100
AcDbArc
50
133.53012235774185
51
154.02560603756871
0
ARC
5
107
100
AcDbEntity
8
0
100
AcDbCircle
10
26.5289974720259
20
19.653970972507953
30
0
40
1.4999999999999991
210
0
220
-0
230
1
100
AcDbArc
50
58.363545488197587
51
132.11002673081606
0
LINE
5
108
100
AcDbEntity
8
0
100
AcDbLine
10
27.315789040338089
20
20.931061035124074
30
0
11
54.193197825587319
21
4.3723865693665642
31
0
0
SPLINE
5
109
100
AcDbEntity
8
0
100
AcDbSpline
70
0
71
3
72
20
73
16
74
0
42
0.000000001
43
0.0000000001
44
0.0000000001
40
0
40
0
40
0
40
0
40
0.039064447338692784
40
0.039064447338692784
40
0.078128894677385902
40
0.078128894677385902
40
0.11719334201607812
40
0.11719334201607812
40
0.15625778935477064
40
0.15625778935477064
40
0.19532223669346405
40
0.19532223669346405
40
0.22235528543012731
40
0.22235528543012731
40
0.2493883341667909
40
0.2493883341667909
40
0.2493883341667909
40
0.2493883341667909
10
53.77098850129984
20
2.5262414928614474
30
0
10
53.900519919484829
20
2.5395648637837986
30
0
10
54.026210596103041
20
2.5780612223403043
30
0
10
54.255760963617391
20
2.701066225543558
30
0
10
54.357426027885452
20
2.7843988753167759
30
0
10
54.523091074208168
20
2.9853433812528474
30
0
10
54.585507208125534
20
3.1010340984157425
30
0
10
54.662480263434468
20
3.3498286940069777
30
0
10
54.676301280463719
20
3.4805539604979385
30
0
10
54.653056406061253
20
3.7399441643472997
30
0
10
54.616212748298274
20
3.8661291899783246
30
0
10
54.514707183077718
20
4.0616789792638386
30
0
10
54.462572340960492
20
4.1356793698447891
30
0
10
54.339896784428639
20
4.267702372918718
30
0
10
54.269917020929114
20
4.3251212920070481
30
0
10
54.193197825587319
20
4.3723865693665642
30
0
0
LWPOLYLINE
5
110
100
AcDbEntity
8
0
100
AcDbPolyline
90
8
70
1
43
0.0
10
1.4142135623730943
20
-5.6568542494923797
10
-7.0710678118654782
20
-14.142135623730949
42
-0.4142135623730947
10
-9.1923881554251174
20
-14.142135623730949
10
-14.142135623730949
20
-9.1923881554251192
42
-0.41421356237309598
10
-14.142135623730951
20
-7.0710678118654737
10
-5.656854249492377
20
1.414213562373094
42
-0.41421356237309453
10
-3.53553390593274
20
1.4142135623730934
10
1.4142135623730945
20
-3.5355339059327391
42
-0.41421356237309481
0
CIRCLE
5
111
100
AcDbEntity
8
0
100
AcDbCircle
10
12.727922251018672
20
-12.727922251018676
30
0
40
1.0499999999999998
210
0
220
-0
230
1
0
CIRCLE
5
112
100
AcDbEntity
8
0
100
AcDbCircle
10
12.727922251018676
20
12.727922251018672
30
0
40
1.0500000000000003
210
0
220
-0
230
1
0
CIRCLE
5
113
100
AcDbEntity
8
0
100
AcDbCircle
10
1.1102230246251565e-15
20
14.142135834465194
30
0
40
1.0499999999999998
210
0
220
-0
230
1
0
CIRCLE
5
114
100
AcDbEntity
8
0
100
AcDbCircle
10
-12.727922251018672
20
12.727922251018676
30
0
40
1.0499999999999998
210
0
220
-0
230
1
0
CIRCLE
5
115
100
AcDbEntity
8
0
100
AcDbCircle
10
-1.1102230246251565e-15
20
-14.142135834465194
30
0
40
1.0499999999999998
210
0
220
-0
230
1
0
CIRCLE
5
116
100
AcDbEntity
8
0
100
AcDbCircle
10
14.142135834465194
20
-1.1102230246251565e-15
30
0
40
1.0000000000000009
210
0
220
-0
230
1
0
LWPOLYLINE
5
117
100
AcDbEntity
8
0
100
AcDbPolyline
90
6
70
1
43
0.0
10
12.011570086115476
20
18.336424719629058
42
0.52715949420973363
10
11.708239686178427
20
16.714460226038518
10
16.714460173354958
20
11.708239738861986
42
0.52715949420973396
10
18.336424666945497
20
12.01157013879903
10
22.291555619357915
20
20.972921578387989
42
0.68489980318674881
10
20.972921525704429
20
22.291555672041476
0
SPLINE
5
118
100
AcDbEntity
8
0
100
AcDbSpline
70
0
71
3
72
16
73
12
74
0
42
0.000000001
43
0.0000000001
44
0.0000000001
40
-0.19406013121493196
40
-0.19406013121493196
40
-0.19406013121493196
40
-0.19406013121493196
40
-0.15625778935477108
40
-0.15625778935477108
40
-0.11719334201607823
40
-0.11719334201607823
40
-0.078128894677385388
40
-0.078128894677385388
40
-0.039064447338692673
40
-0.039064447338692673
40
0
40
0
40
0
40
0
10
-0.79205399072849181
20
12.439069913171599
30
0
10
-0.6770805130591262
20
12.38750377451372
30
0
10
-0.57288281165404964
20
12.314667890852801
30
0
10
-0.39409915888948044
20
12.131129224714172
30
0
10
-0.32232714294576303
20
12.020997968759151
30
0
10
-0.22503791285940933
20
11.779423119595986
30
0
10
-0.20045083678312814
20
11.650289113614312
30
0
10
-0.20215962813677213
20
11.389865070808911
30
0
10
-0.22843915858999475
20
11.261064829776473
30
0
10
-0.32889009711295936
20
11.020787467153907
30
0
10
-0.4021011394604268
20
10.91160752811173
30
0
10
-0.49417692484874154
20
10.819531742723417
30
0
0
LINE
5
119
100
AcDbEntity
8
0
100
AcDbLine
10
-0.49417692484874154
20
10.819531742723417
30
0
11
-10.789614864465928
21
0.524093803106227
31
0
0
SPLINE
5
120
100
AcDbEntity
8
0
100
AcDbSpline
70
0
71
3
72
18
73
14
74
0
42
0.000000001
43
0.0000000001
44
0.0000000001
40
-0.19912429713372246
40
-0.19912429713372246
40
-0.19912429713372246
40
-0.19912429713372246
40
-0.17769104324424678
40
-0.17769104324424678
40
-0.15625778935477111
40
-0.15625778935477111
40
-0.11719334201607831
40
-0.11719334201607831
40
-0.078128894677385555
40
-0.078128894677385555
40
-0.039064447338692791
40
-0.039064447338692791
40
0
40
0
40
0
40
0
10
-10.789614864465928
20
0.52409380310622589
30
0
10
-10.840133528359734
20
0.47357513921242211
30
0
10
-10.895920937958534
20
0.42861552310755058
30
0
10
-11.016120767063855
20
0.35135567392329592
30
0
10
-11.080187826477799
20
0.31927742509185286
30
0
10
-11.269122124317306
20
0.2487778858590739
30
0
10
-11.398845626287583
20
0.22751926766730657
30
0
10
-11.659139632037064
20
0.23592358857322804
30
0
10
-11.787221583250107
20
0.26550617778234864
30
0
10
-12.024836684411193
20
0.37210198323080923
30
0
10
-12.132098104481903
20
0.44809608547085711
30
0
10
-12.311453836194318
20
0.63692172870001285
30
0
10
-12.381833409284425
20
0.74794799362192244
30
0
10
-12.428953234477424
20
0.86933836631898243
30
0
0
SPLINE
5
121
100
AcDbEntity
8
0
100
AcDbSpline
70
4
71
5
72
20
73
14
74
0
42
0.000000001
43
0.0000000001
44
0.0000000001
40
-0.93873238992647212
40
-0.93873238992647212
40
-0.93873238992647212
40
-0.93873238992647212
40
-0.93873238992647212
40
-0.93873238992647212
40
-0.93333333333333324
40
-0.86666666666666659
40
-0.79999999999999993
40
-0.73333333333333328
40
-0.66666666666666663
40
-0.59999999999999998
40
-0.53333333333333333
40
-0.46666666666666662
40
-0.42889475480779471
40
-0.42889475480779471
40
-0.42889475480779471
40
-0.42889475480779471
40
-0.42889475480779471
40
-0.42889475480779471
41
1
41
1
41
1
41
1
41
1
41
1
41
1
41
1
41
1
41
1
41
1
41
1
41
1
41
1
10
-12.428953234477426
20
0.86933836631898465
30
0
10
-12.440961623451614
20
0.90027444910573795
30
0
10
-12.596773894998483
20
1.322116810298154
30
0
10
-12.782305129983627
20
2.3614848356707476
30
0
10
-12.754796417120096
20
4.4741454551487418
30
0
10
-12.401556964897697
20
7.68694523882907
30
0
10
-11.86168617207699
20
10.731298603160429
30
0
10
-11.377265965797392
20
11.709555334884501
30
0
10
-9.2191348350389148
20
12.165561934234969
30
0
10
-5.8161642934454063
20
12.684272684402023
30
0
10
-3.1402934109263314
20
12.877796096459068
30
0
10
-1.6646820929180273
20
12.742197080466013
30
0
10
-0.99975572125621137
20
12.532225103855442
30
0
10
-0.79205399072848071
20
12.439069913171597
30
0
0
CIRCLE
5
122
100
AcDbEntity
8
0
100
AcDbCircle
10
-14.142135834465194
20
1.1102230246251565e-15
30
0
40
1.0499999999999998
210
0
220
-0
230
1
0
CIRCLE
5
123
100
AcDbEntity
8
0
100
AcDbCircle
10
24.779344221714886
20
24.779344221714883
30
0
40
1
210
0
220
-0
230
1
0
LWPOLYLINE
5
124
100
AcDbEntity
8
0
100
AcDbPolyline
90
8
70
1
43
0.0
10
9.1923881554251174
20
14.142135623730949
42
0.41421356237309442
10
7.0710678118654791
20
14.142135623730949
10
-1.4142135623730927
20
5.6568542494923824
42
0.41421356237309503
10
-1.4142135623730949
20
3.5355339059327386
10
3.5355339059327378
20
-1.4142135623730956
42
0.4142135623730952
10
5.6568542494923797
20
-1.4142135623730945
10
14.142135623730955
20
7.0710678118654746
42
0.41421356237309492
10
14.142135623730949
20
9.1923881554251157
0
SPLINE
5
125
100
AcDbEntity
8
0
100
AcDbSpline
70
0
71
3
72
18
73
14
74
0
42
0.000000001
43
0.0000000001
44
0.0000000001
40
-0.19912429713372237
40
-0.19912429713372237
40
-0.19912429713372237
40
-0.19912429713372237
40
-0.17769104324424664
40
-0.17769104324424664
40
-0.15625778935477097
40
-0.15625778935477097
40
-0.11719334201607826
40
-0.11719334201607826
40
-0.078128894677385582
40
-0.078128894677385582
40
-0.039064447338692777
40
-0.039064447338692777
40
0
40
0
40
0
40
0
10
0.86933836631898131
20
-12.428953234477426
30
0
10
0.80273584522873365
20
-12.403100285174622
30
0
10
0.73909525171001134
20
-12.370184073262752
30
0
10
0.61991962100544584
20
-12.291353544537582
30
0
10
0.56472700116876662
20
-12.245665724874069
30
0
10
0.42401603714696146
20
-12.101212346456684
30
0
10
0.35224402120324405
20
-11.991081090501661
30
0
10
0.25495479111689257
20
-11.749506241338498
30
0
10
0.23036771504060916
20
-11.620372235356825
30
0
10
0.23207650639425426
20
-11.359948192551423
30
0
10
0.25835603684747688
20
-11.231147951518988
30
0
10
0.35880697537043926
20
-10.990870588896421
30
0
10
0.43201801771790893
20
-10.881690649854242
30
0
10
0.52409380310622367
20
-10.789614864465928
30
0
0
LINE
5
126
100
AcDbEntity
8
0
100
AcDbLine
10
0.52409380310622367
20
-10.789614864465928
30
0
11
10.819531742723418
21
-0.49417692484874376
31
0
0
SPLINE
5
127
100
AcDbEntity
8
0
100
AcDbSpline
70
0
71
3
72
16
73
12
74
0
42
0.000000001
43
0.0000000001
44
0.0000000001
40
-0.1940601312149326
40
-0.1940601312149326
40
-0.1940601312149326
40
-0.1940601312149326
40
-0.15625778935477108
40
-0.15625778935477108
40
-0.11719334201607824
40
-0.11719334201607824
40
-0.078128894677385527
40
-0.078128894677385527
40
-0.039064447338692784
40
-0.039064447338692784
40
0
40
0
40
0
40
0
10
10.819531742723418
20
-0.49417692484874487
30
0
10
10.90863271697026
20
-0.40507595060190416
30
0
10
11.0137772412324
20
-0.33361368122528656
30
0
10
11.248918636007797
20
-0.23183666551510052
30
0
10
11.377380136302113
20
-0.20394833905061915
30
0
10
11.637762440089567
20
-0.19898266554762567
30
0
10
11.767193846839174
20
-0.22195279305430526
30
0
10
12.009966558497126
20
-0.31621313738448786
30
0
10
12.120986823960674
20
-0.3866021739403358
30
0
10
12.30979717847557
20
-0.56597400023130962
30
0
10
12.385782137628167
20
-0.67324189754189301
30
0
10
12.4390699131716
20
-0.79205399072849736
30
0
0
SPLINE
5
128
100
AcDbEntity
8
0
100
AcDbSpline
70
4
71
5
72
20
73
14
74
0
42
0.000000001
43
0.0000000001
44
0.0000000001
40
0.42889475480779465
40
0.42889475480779465
40
0.42889475480779465
40
0.42889475480779465
40
0.42889475480779465
40
0.42889475480779465
40
0.46666666666666662
40
0.53333333333333333
40
0.59999999999999998
40
0.66666666666666663
40
0.73333333333333328
40
0.79999999999999993
40
0.86666666666666659
40
0.93333333333333324
40
0.93873238992647212
40
0.93873238992647212
40
0.93873238992647212
40
0.93873238992647212
40
0.93873238992647212
40
0.93873238992647212
41
1
41
1
41
1
41
1
41
1
41
1
41
1
41
1
41
1
41
1
41
1
41
1
41
1
41
1
10
12.439069913171593
20
-0.7920539907284796
30
0
10
12.532225103855437
20
-0.99975572125621026
30
0
10
12.742197080466012
20
-1.6646820929180262
30
0
10
12.877796096459072
20
-3.1402934109263314
30
0
10
12.684272684402023
20
-5.8161642934454072
30
0
10
12.165561934234967
20
-9.2191348350389166
30
0
10
11.709555334884501
20
-11.377265965797392
30
0
10
10.731298603160425
20
-11.861686172076993
30
0
10
7.68694523882907
20
-12.401556964897697
30
0
10
4.4741454551487401
20
-12.754796417120097
30
0
10
2.361484835670745
20
-12.782305129983627
30
0
10
1.3221168102981518
20
-12.596773894998483
30
0
10
0.90027444910573573
20
-12.440961623451614
30
0
10
0.86933836631898243
20
-12.428953234477426
30
0
0
LWPOLYLINE
5
129
100
AcDbEntity
8
0
100
AcDbPolyline
90
5
70
1
43
0.0
10
3.9275351601668129
20
62.55737614526241
10
4.9881682849796549
20
61.496755956523188
10
4.9882017987137992
20
61.496722440265046
42
-0.9999904552847414
10
3.5032247024848662
20
60.011851057527281
10
2.4426237628876502
20
61.07246493091958
42
-1.0041826251936519
0
LWPOLYLINE
5
130
100
AcDbEntity
8
0
100
AcDbPolyline
90
4
70
1
43
0.0
10
-3.9275351601668174
20
67.442623854737604
42
1.0041826525721615
10
-2.4426238035415411
20
68.927535109396388
10
-3.503224693210865
20
69.988148933198289
42
1.0000130317424909
10
-4.9881682844735087
20
68.50324404398178
0
LWPOLYLINE
5
131
100
AcDbEntity
8
0
100
AcDbPolyline
90
4
70
1
43
0.0
10
-4.9881489433207555
20
61.496775296667074
42
1.0000130249293364
10
-3.5032440439795658
20
60.011831715528629
10
-2.4426238216028135
20
61.0724648726925
42
1.0041826302574604
10
-3.9275416029496686
20
62.557382636030077
0
LWPOLYLINE
5
132
100
AcDbEntity
8
0
100
AcDbPolyline
90
4
70
1
43
0.0
10
2.4426238216027638
20
68.927535127307451
42
1.0041826302572601
10
3.927535109396183
20
67.442623803541352
10
4.9881489364830429
20
68.50322469649447
42
1.0000130295250915
10
3.5032440439844148
20
69.988168284475194
0
CIRCLE
5
133
100
AcDbEntity
8
0
100
AcDbCircle
10
8.8817841970012523e-15
20
65.000000000000014
30
0
40
2.5499999999999989
210
0
220
-0
230
1
0
SPLINE
5
134
100
AcDbEntity
8
0
100
AcDbSpline
70
6
71
5
72
31
73
25
74
0
42
0.000000001
43
0.0000000001
44
0.0000000001
40
0
40
0
40
0
40
0
40
0
40
0
40
0.050000000000000003
40
0.10000000000000001
40
0.15000000000000002
40
0.20000000000000001
40
0.25
40
0.29999999999999999
40
0.34999999999999998
40
0.39999999999999997
40
0.44999999999999996
40
0.49999999999999994
40
0.54999999999999993
40
0.59999999999999998
40
0.65000000000000002
40
0.70000000000000007
40
0.75000000000000011
40
0.80000000000000016
40
0.8500000000000002
40
0.90000000000000024
40
0.95000000000000029
40
1
40
1
40
1
40
1
40
1
40
1
41
1
41
1
41
1
41
1
41
1
41
1
41
1
41
1
41
1
41
1
41
1
41
1
41
1
41
1
41
1
41
1
41
1
41
1
41
1
41
1
41
1
41
1
41
1
41
1
41
1
10
8.8817841970012523e-15
20
77.02081545929542
30
0
10
0.12669727118123753
20
77.02081545929542
30
0
10
0.37886709195929402
20
76.952373950518592
30
0
10
0.76153491795412975
20
76.645220455472383
30
0
10
1.3146511458907462
20
75.875399206955052
30
0
10
2.0066583078484346
20
74.555780843908863
30
0
10
2.5888747853950278
20
73.176345624981977
30
0
10
2.9041468192753728
20
71.990735413415692
30
0
10
2.8348308084744911
20
71.165746993575354
30
0
10
2.2472771564821548
20
70.610032498907458
30
0
10
1.3687992937002447
20
70.230770201757565
30
0
10
0.52365347886900171
20
70.000704352611521
30
0
10
-0.010634215272169456
20
69.90901639715085
30
0
10
-0.55150520158203875
20
69.980126103886136
30
0
10
-1.3951775512050046
20
70.213942384619656
30
0
10
-2.2780629776656447
20
70.598882215100076
30
0
10
-2.8854188635656453
20
71.140424672097197
30
0
10
-2.987353827887409
20
71.940394430527718
30
0
10
-2.6803126436080982
20
73.124083184338303
30
0
10
-2.0804045278653449
20
74.519224550732901
30
0
10
-1.3540819374173596
20
75.861510966130851
30
0
10
-0.77500685538269387
20
76.643553866571452
30
0
10
-0.38131653512811781
20
76.952373950518407
30
0
10
-0.12669727118122864
20
77.02081545929542
30
0
10
8.8817841970012523e-15
20
77.02081545929542
30
0
0
LWPOLYLINE
5
135
100
AcDbEntity
8
0
100
AcDbPolyline
90
5
70
1
43
0.0
10
-61.496755956523188
20
-4.988168284979646
10
-62.557376145249151
20
-3.9275351601534672
42
-1.004182634319708
10
-61.072464917494472
20
-2.4426237764520091
10
-60.01185105753158
20
-3.5032247024805603
42
-0.99999045528764929
10
-61.496722440265074
20
-4.9882017987137663
0
LWPOLYLINE
5
136
100
AcDbEntity
8
0
100
AcDbPolyline
90
4
70
1
43
0.0
10
-68.927535109396388
20
2.4426238035415584
42
1.0041826525721615
10
-67.442623854737619
20
3.9275351601668302
10
-68.50324404398178
20
4.9881682844735167
42
1.0000130317446208
10
-69.988148933198303
20
3.5032246932108757
0
LWPOLYLINE
5
137
100
AcDbEntity
8
0
100
AcDbPolyline
90
4
70
1
43
0.0
10
-60.01183171552546
20
3.5032440439827432
42
1.0000130249250745
10
-61.496775296667074
20
4.9881489433207644
10
-62.557376196458435
20
3.9275351093963846
42
1.0041826120004227
10
-61.07245840454064
20
2.4426173534509621
0
LWPOLYLINE
5
138
100
AcDbEntity
8
0
100
AcDbPolyline
90
4
70
1
43
0.0
10
-67.442623803541352
20
-3.9275351093961728
42
1.0041826302572667
10
-68.927535127307436
20
-2.4426238216027505
10
-69.988168284475194
20
-3.5032440439844144
42
1.0000130295293521
10
-68.503224696494485
20
-4.9881489364830323
0
CIRCLE
5
139
100
AcDbEntity
8
0
100
AcDbCircle
10
-65.000000000000014
20
8.8817841970012523e-15
30
0
40
2.5499999999999989
210
0
220
0
230
1
0
SPLINE
5
140
100
AcDbEntity
8
0
100
AcDbSpline
70
6
71
5
72
31
73
25
74
0
42
0.000000001
43
0.0000000001
44
0.0000000001
40
0
40
0
40
0
40
0
40
0
40
0
40
0.050000000000000003
40
0.10000000000000001
40
0.15000000000000002
40
0.20000000000000001
40
0.25
40
0.29999999999999999
40
0.34999999999999998
40
0.39999999999999997
40
0.44999999999999996
40
0.49999999999999994
40
0.54999999999999993
40
0.59999999999999998
40
0.65000000000000002
40
0.70000000000000007
40
0.75000000000000011
40
0.80000000000000016
40
0.8500000000000002
40
0.90000000000000024
40
0.95000000000000029
40
1
40
1
40
1
40
1
40
1
40
1
41
1
41
1
41
1
41
1
41
1
41
1
41
1
41
1
41
1
41
1
41
1
41
1
41
1
41
1
41
1
41
1
41
1
41
1
41
1
41
1
41
1
41
1
41
1
41
1
41
1
10
-77.02081545929542
20
8.8817841970012523e-15
30
0
10
-77.02081545929542
20
-0.12669727118122864
30
0
10
-76.952373950518606
20
-0.3788670919592807
30
0
10
-76.645220455472383
20
-0.76153491795411643
30
0
10
-75.875399206955052
20
-1.3146511458907373
30
0
10
-74.555780843908863
20
-2.0066583078484213
30
0
10
-73.176345624981963
20
-2.5888747853950145
30
0
10
-71.990735413415692
20
-2.9041468192753594
30
0
10
-71.16574699357534
20
-2.8348308084744778
30
0
10
-70.610032498907458
20
-2.2472771564821459
30
0
10
-70.230770201757565
20
-1.3687992937002358
30
0
10
-70.000704352611521
20
-0.52365347886899283
30
0
10
-69.90901639715085
20
0.010634215272178338
30
0
10
-69.980126103886136
20
0.55150520158205207
30
0
10
-70.213942384619656
20
1.3951775512050135
30
0
10
-70.598882215100076
20
2.2780629776656536
30
0
10
-71.140424672097183
20
2.8854188635656586
30
0
10
-71.940394430527718
20
2.9873538278874179
30
0
10
-73.124083184338303
20
2.6803126436081071
30
0
10
-74.519224550732901
20
2.0804045278653582
30
0
10
-75.861510966130851
20
1.3540819374173685
30
0
10
-76.643553866571452
20
0.77500685538270275
30
0
10
-76.952373950518421
20
0.38131653512813113
30
0
10
-77.02081545929542
20
0.12669727118123753
30
0
10
-77.02081545929542
20
8.8817841970012523e-15
30
0
0
LWPOLYLINE
5
141
100
AcDbEntity
8
0
100
AcDbPolyline
90
5
70
1
43
0.0
10
-3.9275351601668129
20
-62.55737614526241
10
-4.9881682849796549
20
-61.496755956523188
10
-4.9882017987137992
20
-61.496722440265046
42
-0.9999904552847414
10
-3.5032247024848662
20
-60.011851057527281
10
-2.4426237628876502
20
-61.07246493091958
42
-1.0041826251936519
0
LWPOLYLINE
5
142
100
AcDbEntity
8
0
100
AcDbPolyline
90
4
70
1
43
0.0
10
3.9275351601668174
20
-67.442623854737604
42
1.0041826525721615
10
2.4426238035415411
20
-68.927535109396388
10
3.503224693210865
20
-69.988148933198289
42
1.0000130317424909
10
4.9881682844735087
20
-68.50324404398178
0
LWPOLYLINE
5
143
100
AcDbEntity
8
0
100
AcDbPolyline
90
4
70
1
43
0.0
10
4.9881489433207555
20
-61.496775296667074
42
1.0000130249293364
10
3.5032440439795658
20
-60.011831715528629
10
2.4426238216028135
20
-61.0724648726925
42
1.0041826302574604
10
3.9275416029496686
20
-62.557382636030077
0
LWPOLYLINE
5
144
100
AcDbEntity
8
0
100
AcDbPolyline
90
4
70
1
43
0.0
10
-2.4426238216027638
20
-68.927535127307451
42
1.0041826302572601
10
-3.927535109396183
20
-67.442623803541352
10
-4.9881489364830429
20
-68.50322469649447
42
1.0000130295250915
10
-3.5032440439844148
20
-69.988168284475194
0
CIRCLE
5
145
100
AcDbEntity
8
0
100
AcDbCircle
10
-8.8817841970012523e-15
20
-65.000000000000014
30
0
40
2.5499999999999989
210
0
220
-0
230
1
0
SPLINE
5
146
100
AcDbEntity
8
0
100
AcDbSpline
70
6
71
5
72
31
73
25
74
0
42
0.000000001
43
0.0000000001
44
0.0000000001
40
0
40
0
40
0
40
0
40
0
40
0
40
0.050000000000000003
40
0.10000000000000001
40
0.15000000000000002
40
0.20000000000000001
40
0.25
40
0.29999999999999999
40
0.34999999999999998
40
0.39999999999999997
40
0.44999999999999996
40
0.49999999999999994
40
0.54999999999999993
40
0.59999999999999998
40
0.65000000000000002
40
0.70000000000000007
40
0.75000000000000011
40
0.80000000000000016
40
0.8500000000000002
40
0.90000000000000024
40
0.95000000000000029
40
1
40
1
40
1
40
1
40
1
40
1
41
1
41
1
41
1
41
1
41
1
41
1
41
1
41
1
41
1
41
1
41
1
41
1
41
1
41
1
41
1
41
1
41
1
41
1
41
1
41
1
41
1
41
1
41
1
41
1
41
1
10
-8.8817841970012523e-15
20
-77.02081545929542
30
0
10
-0.12669727118123753
20
-77.02081545929542
30
0
10
-0.37886709195929402
20
-76.952373950518592
30
0
10
-0.76153491795412975
20
-76.645220455472383
30
0
10
-1.3146511458907462
20
-75.875399206955052
30
0
10
-2.0066583078484346
20
-74.555780843908863
30
0
10
-2.5888747853950278
20
-73.176345624981977
30
0
10
-2.9041468192753728
20
-71.990735413415692
30
0
10
-2.8348308084744911
20
-71.165746993575354
30
0
10
-2.2472771564821548
20
-70.610032498907458
30
0
10
-1.3687992937002447
20
-70.230770201757565
30
0
10
-0.52365347886900171
20
-70.000704352611521
30
0
10
0.010634215272169456
20
-69.90901639715085
30
0
10
0.55150520158203875
20
-69.980126103886136
30
0
10
1.3951775512050046
20
-70.213942384619656
30
0
10
2.2780629776656447
20
-70.598882215100076
30
0
10
2.8854188635656453
20
-71.140424672097197
30
0
10
2.987353827887409
20
-71.940394430527718
30
0
10
2.6803126436080982
20
-73.124083184338303
30
0
10
2.0804045278653449
20
-74.519224550732901
30
0
10
1.3540819374173596
20
-75.861510966130851
30
0
10
0.77500685538269387
20
-76.643553866571452
30
0
10
0.38131653512811781
20
-76.952373950518407
30
0
10
0.12669727118122864
20
-77.02081545929542
30
0
10
-8.8817841970012523e-15
20
-77.02081545929542
30
0
0
LWPOLYLINE
5
147
100
AcDbEntity
8
0
100
AcDbPolyline
90
5
70
1
43
0.0
10
61.496755956523188
20
4.988168284979646
10
62.557376145249151
20
3.9275351601534672
42
-1.004182634319708
10
61.072464917494472
20
2.4426237764520091
10
60.01185105753158
20
3.5032247024805603
42
-0.99999045528764929
10
61.496722440265074
20
4.9882017987137663
0
LWPOLYLINE
5
148
100
AcDbEntity
8
0
100
AcDbPolyline
90
4
70
1
43
0.0
10
68.927535109396388
20
-2.4426238035415584
42
1.0041826525721615
10
67.442623854737619
20
-3.9275351601668302
10
68.50324404398178
20
-4.9881682844735167
42
1.0000130317446208
10
69.988148933198303
20
-3.5032246932108757
0
LWPOLYLINE
5
149
100
AcDbEntity
8
0
100
AcDbPolyline
90
4
70
1
43
0.0
10
60.01183171552546
20
-3.5032440439827432
42
1.0000130249250745
10
61.496775296667074
20
-4.9881489433207644
10
62.557376196458435
20
-3.9275351093963846
42
1.0041826120004227
10
61.07245840454064
20
-2.4426173534509621
0
LWPOLYLINE
5
150
100
AcDbEntity
8
0
100
AcDbPolyline
90
4
70
1
43
0.0
10
67.442623803541352
20
3.9275351093961728
42
1.0041826302572667
10
68.927535127307436
20
2.4426238216027505
10
69.988168284475194
20
3.5032440439844144
42
1.0000130295293521
10
68.503224696494485
20
4.9881489364830323
0
CIRCLE
5
151
100
AcDbEntity
8
0
100
AcDbCircle
10
65.000000000000014
20
-8.8817841970012523e-15
30
0
40
2.5499999999999989
210
0
220
-0
230
1
0
SPLINE
5
152
100
AcDbEntity
8
0
100
AcDbSpline
70
6
71
5
72
31
73
25
74
0
42
0.000000001
43
0.0000000001
44
0.0000000001
40
0
40
0
40
0
40
0
40
0
40
0
40
0.050000000000000003
40
0.10000000000000001
40
0.15000000000000002
40
0.20000000000000001
40
0.25
40
0.29999999999999999
40
0.34999999999999998
40
0.39999999999999997
40
0.44999999999999996
40
0.49999999999999994
40
0.54999999999999993
40
0.59999999999999998
40
0.65000000000000002
40
0.70000000000000007
40
0.75000000000000011
40
0.80000000000000016
40
0.8500000000000002
40
0.90000000000000024
40
0.95000000000000029
40
1
40
1
40
1
40
1
40
1
40
1
41
1
41
1
41
1
41
1
41
1
41
1
41
1
41
1
41
1
41
1
41
1
41
1
41
1
41
1
41
1
41
1
41
1
41
1
41
1
41
1
41
1
41
1
41
1
41
1
41
1
10
77.02081545929542
20
-8.8817841970012523e-15
30
0
10
77.02081545929542
20
0.12669727118122864
30
0
10
76.952373950518606
20
0.3788670919592807
30
0
10
76.645220455472383
20
0.76153491795411643
30
0
10
75.875399206955052
20
1.3146511458907373
30
0
10
74.555780843908863
20
2.0066583078484213
30
0
10
73.176345624981963
20
2.5888747853950145
30
0
10
71.990735413415692
20
2.9041468192753594
30
0
10
71.16574699357534
20
2.8348308084744778
30
0
10
70.610032498907458
20
2.2472771564821459
30
0
10
70.230770201757565
20
1.3687992937002358
30
0
10
70.000704352611521
20
0.52365347886899283
30
0
10
69.90901639715085
20
-0.010634215272178338
30
0
10
69.980126103886136
20
-0.55150520158205207
30
0
10
70.213942384619656
20
-1.3951775512050135
30
0
10
70.598882215100076
20
-2.2780629776656536
30
0
10
71.140424672097183
20
-2.8854188635656586
30
0
10
71.940394430527718
20
-2.9873538278874179
30
0
10
73.124083184338303
20
-2.6803126436081071
30
0
10
74.519224550732901
20
-2.0804045278653582
30
0
10
75.861510966130851
20
-1.3540819374173685
30
0
10
76.643553866571452
20
-0.77500685538270275
30
0
10
76.952373950518421
20
-0.38131653512813113
30
0
10
77.02081545929542
20
-0.12669727118123753
30
0
10
77.02081545929542
20
-8.8817841970012523e-15
30
0
0
CIRCLE
5
153
100
AcDbEntity
8
0
100
AcDbCircle
10
-12.727922251018676
20
-12.727922251018672
30
0
40
1.0500000000000003
210
0
220
-0
230
1
0
LWPOLYLINE
5
154
100
AcDbEntity
8
0
100
AcDbPolyline
90
8
70
1
43
0.0
10
-17.677669814154914
20
-10.606601854775469
42
0.41421356237309548
10
-20.506096938901109
20
-10.606601854775468
10
-30.405592065173593
20
-20.506096981047953
42
0.41421356237309365
10
-30.405592065173593
20
-23.334524105794145
10
-29.698485231303483
20
-24.041630939664248
42
0.41421356237309548
10
-26.870058106557295
20
-24.041630939664248
10
-16.970562980284811
20
-14.14213581339177
42
0.41421356237309459
10
-16.970562980284811
20
-11.313708688645576
0
LWPOLYLINE
5
155
100
AcDbEntity
8
0
100
AcDbPolyline
90
8
70
1
43
0.0
10
-11.313708688645578
20
-16.970562980284804
42
0.41421356237309459
10
-14.142135813391771
20
-16.970562980284804
10
-24.041630939664259
20
-26.870058106557295
42
0.4142135623730932
10
-24.041630939664252
20
-29.698485231303483
10
-23.334524105794149
20
-30.405592065173586
42
0.41421356237309503
10
-20.506096981047953
20
-30.405592065173586
10
-10.606601854775473
20
-20.506096938901102
42
0.41421356237309592
10
-10.606601854775473
20
-17.677669814154914
0
LWPOLYLINE
5
156
100
AcDbEntity
8
0
100
AcDbPolyline
90
6
70
1
43
0.0
10
-15.310948943409032
20
-35.109938816632365
10
-4.2071067811865381
20
-24.00609665440987
42
-0.66817863791929955
10
-2.4999999999999902
20
-24.713203435596416
10
-2.4999999999999885
20
-52.922731482873687
42
-0.73103903309458973
10
-4.3158656450658732
20
-53.500972997468779
10
-15.528466671167706
20
-37.680635408195641
42
-0.36558667403789458
0
LWPOLYLINE
5
157
100
AcDbEntity
8
0
100
AcDbPolyline
90
9
70
1
43
0.0
10
-9.7575608100700304
20
-24.716440333111123
10
-16.262943196986271
20
-31.221822720027358
42
-1.2302603709681557
10
-16.672449087861757
20
-31.489907254665543
10
-16.687207265698198
20
-31.50466543250198
10
-17.46502472500341
20
-30.726847973196772
42
-0.99999999999999989
10
-17.11147133441013
20
-30.373294582603506
10
-10.606088947493884
20
-23.867912195687264
42
-0.99999999999999989
10
-10.252535556900614
20
-23.514358805093991
10
-9.4040074194767556
20
-24.362886942517843
42
-0.99999999999999989
0
LWPOLYLINE
5
158
100
AcDbEntity
8
0
100
AcDbPolyline
90
9
70
1
43
0.0
10
-23.89969643380098
20
-10.574304709380172
10
-30.405078820717218
20
-17.079687096296407
42
-1.2302603709681881
10
-30.814584711592712
20
-17.347771630934584
10
-30.829342889429149
20
-17.362529808771029
10
-31.607160348734354
20
-16.584712349465814
42
-0.99999999999999989
10
-31.253606958141074
20
-16.231158958872559
10
-24.748224571224835
20
-9.725776571956315
42
-0.99999999999999989
10
-24.394671180631562
20
-9.3722231813630419
10
-23.546143043207714
20
-10.220751318786894
42
-0.99999999999999989
0
CIRCLE
5
159
100
AcDbEntity
8
0
100
AcDbCircle
10
-19.091883524041982
20
-36.062446272519118
30
0
40
1.0499999999999998
210
0
220
-0
230
1
0
CIRCLE
5
160
100
AcDbEntity
8
0
100
AcDbCircle
10
-36.062446272519125
20
-19.091883524041975
30
0
40
1.0499999999999998
210
0
220
-0
230
1
0
LWPOLYLINE
5
161
100
AcDbEntity
8
0
100
AcDbPolyline
90
6
70
1
43
0.0
10
-52.922731482873687
20
-2.49999999999998
42
0.7310390330945824
10
-53.500972997468779
20
-4.315865645065859
10
-37.680635408195641
20
-15.528466671167712
42
0.36558667403789447
10
-35.109938816632365
20
-15.310948943409034
10
-24.00609665440987
20
-4.2071067811865381
42
0.66817863791929955
10
-24.713203435596416
20
-2.4999999999999911
0
LINE
5
162
100
AcDbEntity
8
0
100
AcDbLine
10
4.3723865693665864
20
54.193197825587305
30
0
11
20.931460624232994
21
27.315140442538258
31
0
0
ARC
5
163
100
AcDbEntity
8
0
100
AcDbCircle
10
19.654370561616886
20
26.528348874226054
30
0
40
1.4999999999999978
210
0
220
0
230
1
100
AcDbArc
50
-41.117056314855219
51
31.636454511803151
0
ARC
5
164
100
AcDbEntity
8
0
100
AcDbCircle
10
18.954227782584802
20
27.245002377796613
30
0
40
2.5000000000000009
210
-0
220
0
230
1
100
AcDbArc
50
295.97439396243118
51
317.06085986572555
0
LINE
5
165
100
AcDbEntity
8
0
100
AcDbLine
10
20.049151340784036
20
24.997527705703433
30
0
11
5.056440281370671
21
17.693386420348226
31
0
0
ARC
5
166
100
AcDbEntity
8
0
100
AcDbCircle
10
-3.7029481842232004
20
35.673183797093635
30
0
40
20
210
-0
220
0
230
1
100
AcDbArc
50
293.45026835171109
51
295.97439396243124
0
LINE
5
167
100
AcDbEntity
8
0
100
AcDbLine
10
4.2561103776394145
20
17.325067086955737
30
0
11
3.9451635301963184
21
17.170483016343727
31
0
0
ARC
5
168
100
AcDbEntity
8
0
100
AcDbCircle
10
3.4999999999999973
20
18.06593230657916
30
0
40
0.99999999999999978
210
0
220
0
230
1
100
AcDbArc
50
180
51
296.43380185401912
0
LINE
5
169
100
AcDbEntity
8
0
100
AcDbLine
10
2.4999999999999978
20
18.06593230657916
30
0
11
2.4999999999999911
21
53.259396561696583
31
0
0
SPLINE
5
170
100
AcDbEntity
8
0
100
AcDbSpline
70
0
71
3
72
8
73
4
74
0
42
0.000000001
43
0.0000000001
44
0.0000000001
40
0.46505614017363073
40
0.46505614017363073
40
0.46505614017363073
40
0.46505614017363073
40
0.51638769071820345
40
0.51638769071820345
40
0.51638769071820345
40
0.51638769071820345
10
2.5262414928614652
20
53.770988501299826
30
0
10
2.5087828896748965
20
53.601253856556859
30
0
10
2.5000000000000044
20
53.430501730178491
30
0
10
2.5000000000000044
20
53.259396561696576
30
0
0
SPLINE
5
171
100
AcDbEntity
8
0
100
AcDbSpline
70
0
71
3
72
20
73
16
74
0
42
0.000000001
43
0.0000000001
44
0.0000000001
40
0
40
0
40
0
40
0
40
0.039064447338692548
40
0.039064447338692548
40
0.078128894677385569
40
0.078128894677385569
40
0.11719334201607867
40
0.11719334201607867
40
0.15625778935477172
40
0.15625778935477172
40
0.1953222366934646
40
0.1953222366934646
40
0.22235528543012825
40
0.22235528543012825
40
0.24938833416679179
40
0.24938833416679179
40
0.24938833416679179
40
0.24938833416679179
10
4.3723865693665864
20
54.193197825587305
30
0
10
4.3040852853957867
20
54.304061864471379
30
0
10
4.2147827868831156
20
54.400525223163939
30
0
10
4.0042285004966072
20
54.55379131374913
30
0
10
3.8849897263615762
20
54.609128738279296
30
0
10
3.6320121023079244
20
54.670982790427644
30
0
10
3.5006918563587286
20
54.676908059594247
30
0
10
3.2431717423580286
20
54.638088052844211
30
0
10
3.1194339069557042
20
54.593713917350641
30
0
10
2.8959323427829897
20
54.460032756182159
30
0
10
2.7983054107838612
20
54.372003795269883
30
0
10
2.666315050554493
20
54.195590517235395
30
0
10
2.6223317705553839
20
54.116473068785382
30
0
10
2.5567550256288785
20
53.94860688387638
30
0
10
2.5354614194191827
20
53.860625738718397
30
0
10
2.5262414928614652
20
53.770988501299826
30
0
0
LINE
5
172
100
AcDbEntity
8
0
100
AcDbLine
10
57.899247073572546
20
6.6586996621028227
30
0
11
28.213123747749904
21
24.942795241564205
31
0
0
ARC
5
173
100
AcDbEntity
8
0
100
AcDbCircle
10
33.457366290697493
20
33.457366290697486
30
0
40
10
210
0
220
0
230
1
100
AcDbArc
50
211.62949241870552
51
238.37050758129445
0
LINE
5
174
100
AcDbEntity
8
0
100
AcDbLine
10
24.942795241564205
20
28.213123747749904
30
0
11
6.6586996621028316
21
57.899247073572546
31
0
0
SPLINE
5
175
100
AcDbEntity
8
0
100
AcDbSpline
70
0
71
3
72
14
73
10
74
0
42
0.000000001
43
0.0000000001
44
0.0000000001
40
0
40
0
40
0
40
0
40
0.039064447338692625
40
0.039064447338692625
40
0.07812889467738543
40
0.07812889467738543
40
0.099870725679680042
40
0.099870725679680042
40
0.1216125566819749
40
0.1216125566819749
40
0.1216125566819749
40
0.1216125566819749
10
6.7209057528496396
20
59.037742037669631
30
0
10
6.640944643165283
20
58.934969855403239
30
0
10
6.5818216977818134
20
58.817562048422438
30
0
10
6.5119078422391086
20
58.566692251830368
30
0
10
6.5017853466448461
20
58.435628714209102
30
0
10
6.5255722797426019
20
58.234341747999601
30
0
10
6.54187637597893
20
58.163507174446032
30
0
10
6.5895072408129352
20
58.0266111909933
30
0
10
6.6206931837348826
20
57.960954528508296
30
0
10
6.6586996621028138
20
57.899247073572539
30
0
0
SPLINE
5
176
100
AcDbEntity
8
0
100
AcDbSpline
70
0
71
3
72
50
73
46
74
0
42
0.000000001
43
0.0000000001
44
0.0000000001
40
0.4417099179029263
40
0.4417099179029263
40
0.4417099179029263
40
0.4417099179029263
40
0.44639005930805775
40
0.44639005930805775
40
0.44639005930805775
40
0.47714101070005299
40
0.47714101070005299
40
0.47714101070005299
40
0.51818000316311352
40
0.51818000316311352
40
0.51818000316311352
40
0.55577253099100365
40
0.55577253099100365
40
0.55577253099100365
40
0.59134504032931923
40
0.59134504032931923
40
0.59134504032931923
40
0.63543498962181799
40
0.63543498962181799
40
0.63543498962181799
40
0.66032710988501075
40
0.66032710988501075
40
0.66032710988501075
40
0.70104552547960641
40
0.70104552547960641
40
0.70104552547960641
40
0.74093405981509808
40
0.74093405981509808
40
0.74093405981509808
40
0.79032966380277125
40
0.79032966380277125
40
0.79032966380277125
40
0.82880453464642756
40
0.82880453464642756
40
0.82880453464642756
40
0.86679470739432196
40
0.86679470739432196
40
0.86679470739432196
40
0.90699590177569334
40
0.90699590177569334
40
0.90699590177569334
40
0.95994046906715014
40
0.95994046906715014
40
0.95994046906715014
40
0.99999999999999989
40
0.99999999999999989
40
0.99999999999999989
40
0.99999999999999989
10
6.7209057527827332
20
59.037742037583655
30
0
10
6.7851311943136094
20
59.120289526091611
30
0
10
6.8451242325708517
20
59.204565668293014
30
0
10
6.900325478032161
20
59.29063491528639
30
0
10
7.2630262319233152
20
59.856154415987213
30
0
10
7.3790910028249579
20
60.524008080979272
30
0
10
7.2456449952948665
20
61.124992101760149
30
0
10
7.0675532794503049
20
61.927041390734885
30
0
10
6.5553090746801246
20
62.613913810411859
30
0
10
6.1406187364797793
20
63.261348990675174
30
0
10
5.7607541944156537
20
63.854412405979808
30
0
10
5.4826913365289665
20
64.393307350101864
30
0
10
5.4396537143003654
20
64.889875904235282
30
0
10
5.3989287003924247
20
65.359761558371062
30
0
10
5.5577494005613159
20
65.851882722563246
30
0
10
5.8900793249231986
20
66.423643738128831
30
0
10
6.3019819369695407
20
67.13230654130534
30
0
10
6.94326253997958
20
67.875332610622721
30
0
10
7.2438069392481941
20
68.702319738388098
30
0
10
7.4134870466439162
20
69.169216692700303
30
0
10
7.4406312045051948
20
69.705375882067187
30
0
10
7.2471137126726415
20
70.177358005966425
30
0
10
6.930558691487354
20
70.949424188796471
30
0
10
6.1967572554827743
20
71.507869074222214
30
0
10
5.5306834912887171
20
72.17613014574502
30
0
10
4.8781849639012353
20
72.830771400991893
30
0
10
4.3085449527876296
20
73.580183327841496
30
0
10
3.8740991345636555
20
74.436374730597208
30
0
10
3.3361071038061407
20
75.496631573139069
30
0
10
2.9825548227298304
20
76.696260039900778
30
0
10
2.487273404568624
20
77.701264152002679
30
0
10
2.1014923419507747
20
78.484074772561428
30
0
10
1.58205566602168
20
79.163977224110681
30
0
10
0.85837207572939889
20
79.468250593169756
30
0
10
0.14380529468058789
20
79.76869079217937
30
0
10
-0.70201977414599437
20
79.654543725715257
30
0
10
-1.3436652437578767
20
79.203059445413487
30
0
10
-2.0226543712611944
20
78.725298856300356
30
0
10
-2.4693743841145288
20
77.935613080470574
30
0
10
-2.8586921498024953
20
77.087550560090278
30
0
10
-3.3714197182345718
20
75.970660779361694
30
0
10
-3.8371702625128368
20
74.748226590740813
30
0
10
-4.5303716154500728
20
73.747686272688057
30
0
10
-5.0548696416179606
20
72.990645883634485
30
0
10
-5.7355208815208725
20
72.360482490205555
30
0
10
-6.3079895424544574
20
71.711689905296097
30
0
0
SPLINE
5
177
100
AcDbEntity
8
0
100
AcDbSpline
70
0
71
3
72
32
73
28
74
0
42
0.000000001
43
0.0000000001
44
0.0000000001
40
0
40
0
40
0
40
0
40
0.028526070490429628
40
0.028526070490429628
40
0.028526070490429628
40
0.057929213951855726
40
0.057929213951855726
40
0.057929213951855726
40
0.10358486784357974
40
0.10358486784357974
40
0.10358486784357974
40
0.13155317245534001
40
0.13155317245534001
40
0.13155317245534001
40
0.15940885841836169
40
0.15940885841836169
40
0.15940885841836169
40
0.21254514455781559
40
0.21254514455781559
40
0.21254514455781559
40
0.24042371293807954
40
0.24042371293807954
40
0.24042371293807954
40
0.27740639799606592
40
0.27740639799606592
40
0.27740639799606592
40
0.28422554608153411
40
0.28422554608153411
40
0.28422554608153411
40
0.28422554608153411
10
-6.3079895424544574
20
71.711689905296097
30
0
10
-6.7156398817138196
20
71.249689912290378
30
0
10
-7.0634330432249515
20
70.736324898809727
30
0
10
-7.1107116802291737
20
70.137844513611768
30
0
10
-7.1594439634562779
20
69.520963032135768
30
0
10
-6.8810251129038713
20
68.929732134286724
30
0
10
-6.5082818267560461
20
68.396577715044472
30
0
10
-5.92950566681401
20
67.568723588913343
30
0
10
-5.0992004732376905
20
66.779662049958318
30
0
10
-4.6902125671422601
20
66.150939144824989
30
0
10
-4.4396697019074116
20
65.765788298691831
30
0
10
-4.3638420339581874
20
65.495311089855946
30
0
10
-4.3997483305553198
20
65.256144731823085
30
0
10
-4.4355100449670104
20
65.017941413646923
30
0
10
-4.6125382112038693
20
64.721154693858111
30
0
10
-4.9526004817953773
20
64.358902099056621
30
0
10
-5.6012883704860394
20
63.667884920097734
30
0
10
-6.7470442877637371
20
62.852304507552788
30
0
10
-7.2766321691082503
20
61.758048090256175
30
0
10
-7.5544865890553714
20
61.183933778332232
30
0
10
-7.6201509993630978
20
60.499900193756353
30
0
10
-7.3912196209220005
20
59.871494349084188
30
0
10
-7.087527661087667
20
59.037874231827359
30
0
10
-6.3521375205098574
20
58.313631735868725
30
0
10
-5.4731771282032415
20
57.719256598477614
30
0
10
-5.311107741759229
20
57.609661200689821
30
0
10
-5.1430145783792147
20
57.504101504742223
30
0
10
-4.9729532573446056
20
57.404492508631776
30
0
0
SPLINE
5
178
100
AcDbEntity
8
0
100
AcDbSpline
70
0
71
3
72
12
73
8
74
0
42
0.000000001
43
0.0000000001
44
0.0000000001
40
0
40
0
40
0
40
0
40
0.19532223669346382
40
0.19532223669346382
40
0.35856191305935026
40
0.35856191305935026
40
0.52180158942523602
40
0.52180158942523602
40
0.52180158942523602
40
0.52180158942523602
10
-2.5000000000000089
20
53.090093968807878
30
0
10
-2.5000000000000044
20
53.741168091119405
30
0
10
-2.6271692538231406
20
54.386017589958854
30
0
10
-3.0809297974698646
20
55.491738916662371
30
0
10
-3.3683050415614968
20
55.958050851478632
30
0
10
-4.0819374405637276
20
56.779664167384496
30
0
10
-4.5034325764417327
20
57.129482980343425
30
0
10
-4.9729532573446056
20
57.404492508631776
30
0
0
LINE
5
179
100
AcDbEntity
8
0
100
AcDbLine
10
-2.5000000000000089
20
53.090093968807878
30
0
11
-2.4999999999999964
21
17.394676659533808
31
0
0
ARC
5
180
100
AcDbEntity
8
0
100
AcDbCircle
10
-4.4999999999999911
20
17.394676659533808
30
0
40
2.0000000000000004
210
-0
220
0
230
1
100
AcDbArc
50
-82.694240466689166
51
0
0
LINE
5
181
100
AcDbEntity
8
0
100
AcDbLine
10
-4.2456713680292602
20
15.410913330162106
30
0
11
-12.727076684330175
21
14.323553674226092
31
0
0
ARC
5
182
100
AcDbEntity
8
0
100
AcDbCircle
10
-12.357918372197002
20
12.357918372197004
30
0
40
2.0000000000000009
210
0
220
0
230
1
100
AcDbArc
50
100.63659727507562
51
169.36340272491901
0
LINE
5
183
100
AcDbEntity
8
0
100
AcDbLine
10
-14.323553674226062
20
12.727076684330363
30
0
11
-15.410913330162108
21
4.2456713680292681
31
0
0
ARC
5
184
100
AcDbEntity
8
0
100
AcDbCircle
10
-17.394676659533808
20
4.5000000000000009
30
0
40
1.9999999999999996
210
0
220
0
230
1
100
AcDbArc
50
270
51
352.69424046668917
0
LINE
5
185
100
AcDbEntity
8
0
100
AcDbLine
10
-17.394676659533808
20
2.5000000000000009
30
0
11
-53.090093968807864
21
2.5000000000000133
31
0
0
SPLINE
5
186
100
AcDbEntity
8
0
100
AcDbSpline
70
0
71
3
72
12
73
8
74
0
42
0.000000001
43
0.0000000001
44
0.0000000001
40
0
40
0
40
0
40
0
40
0.19532223669346363
40
0.19532223669346363
40
0.3585619130593497
40
0.3585619130593497
40
0.5218015894252348
40
0.5218015894252348
40
0.5218015894252348
40
0.5218015894252348
10
-57.404492508631762
20
4.9729532573446056
30
0
10
-57.075433560628852
20
4.4111546088209908
30
0
10
-56.639788826918817
20
3.9189995913091114
30
0
10
-55.689406166144835
20
3.1942299165863508
30
0
10
-55.205757488258989
20
2.9371009453519115
30
0
10
-54.174727521477294
20
2.5888239731334783
30
0
10
-53.634226223360812
20
2.5000000000000089
30
0
10
-53.090093968807864
20
2.5000000000000089
30
0
0
SPLINE
5
187
100
AcDbEntity
8
0
100
AcDbSpline
70
0
71
3
72
32
73
28
74
0
42
0.000000001
43
0.0000000001
44
0.0000000001
40
0
40
0
40
0
40
0
40
0.028526070490429628
40
0.028526070490429628
40
0.028526070490429628
40
0.057929213951855726
40
0.057929213951855726
40
0.057929213951855726
40
0.10358486784357974
40
0.10358486784357974
40
0.10358486784357974
40
0.13155317245534001
40
0.13155317245534001
40
0.13155317245534001
40
0.15940885841836169
40
0.15940885841836169
40
0.15940885841836169
40
0.21254514455781559
40
0.21254514455781559
40
0.21254514455781559
40
0.24042371293807954
40
0.24042371293807954
40
0.24042371293807954
40
0.27740639799606592
40
0.27740639799606592
40
0.27740639799606592
40
0.28422554608153422
40
0.28422554608153422
40
0.28422554608153422
40
0.28422554608153422
10
-71.711689905296097
20
6.3079895424544663
30
0
10
-71.249689912290378
20
6.7156398817138374
30
0
10
-70.736324898809727
20
7.0634330432249604
30
0
10
-70.137844513611768
20
7.110711680229187
30
0
10
-69.520963032135768
20
7.1594439634562912
30
0
10
-68.929732134286724
20
6.8810251129038846
30
0
10
-68.396577715044472
20
6.5082818267560549
30
0
10
-67.568723588913343
20
5.9295056668140189
30
0
10
-66.779662049958318
20
5.0992004732376994
30
0
10
-66.150939144824989
20
4.690212567142269
30
0
10
-65.765788298691831
20
4.4396697019074249
30
0
10
-65.495311089855946
20
4.3638420339581963
30
0
10
-65.256144731823085
20
4.3997483305553331
30
0
10
-65.017941413646923
20
4.4355100449670193
30
0
10
-64.721154693858111
20
4.6125382112038826
30
0
10
-64.358902099056621
20
4.9526004817953906
30
0
10
-63.667884920097734
20
5.6012883704860528
30
0
10
-62.852304507552788
20
6.747044287763746
30
0
10
-61.758048090256175
20
7.2766321691082592
30
0
10
-61.183933778332232
20
7.5544865890553803
30
0
10
-60.499900193756353
20
7.6201509993631067
30
0
10
-59.871494349084188
20
7.3912196209220093
30
0
10
-59.037874231827359
20
7.0875276610876758
30
0
10
-58.313631735868725
20
6.3521375205098662
30
0
10
-57.719256598477614
20
5.4731771282032504
30
0
10
-57.609661200689821
20
5.3111077417592378
30
0
10
-57.504101504742209
20
5.143014578379228
30
0
10
-57.404492508631762
20
4.9729532573446056
30
0
0
SPLINE
5
188
100
AcDbEntity
8
0
100
AcDbSpline
70
0
71
3
72
50
73
46
74
0
42
0.000000001
43
0.0000000001
44
0.0000000001
40
0.43018151342435185
40
0.43018151342435185
40
0.43018151342435185
40
0.43018151342435185
40
0.44639005930805775
40
0.44639005930805775
40
0.44639005930805775
40
0.47714101070005299
40
0.47714101070005299
40
0.47714101070005299
40
0.51818000316311352
40
0.51818000316311352
40
0.51818000316311352
40
0.55577253099100365
40
0.55577253099100365
40
0.55577253099100365
40
0.59134504032931923
40
0.59134504032931923
40
0.59134504032931923
40
0.63543498962181799
40
0.63543498962181799
40
0.63543498962181799
40
0.66032710988501075
40
0.66032710988501075
40
0.66032710988501075
40
0.70104552547960641
40
0.70104552547960641
40
0.70104552547960641
40
0.74093405981509808
40
0.74093405981509808
40
0.74093405981509808
40
0.79032966380277125
40
0.79032966380277125
40
0.79032966380277125
40
0.82880453464642756
40
0.82880453464642756
40
0.82880453464642756
40
0.86679470739432196
40
0.86679470739432196
40
0.86679470739432196
40
0.90699590177569334
40
0.90699590177569334
40
0.90699590177569334
40
0.95994046906715014
40
0.95994046906715014
40
0.95994046906715014
40
0.99999999999999989
40
0.99999999999999989
40
0.99999999999999989
40
0.99999999999999989
10
-58.456677677739862
20
-6.1755693940251248
30
0
10
-58.716188397934943
20
-6.4612685849623386
30
0
10
-58.992554746696044
20
-6.7091492202130265
30
0
10
-59.29063491528639
20
-6.9003254780321521
30
0
10
-59.856154415987213
20
-7.2630262319233063
30
0
10
-60.524008080979272
20
-7.379091002824949
30
0
10
-61.124992101760149
20
-7.2456449952948576
30
0
10
-61.927041390734885
20
-7.067553279450296
30
0
10
-62.613913810411866
20
-6.5553090746801113
30
0
10
-63.261348990675174
20
-6.1406187364797704
30
0
10
-63.854412405979808
20
-5.7607541944156404
30
0
10
-64.393307350101864
20
-5.4826913365289576
30
0
10
-64.889875904235282
20
-5.4396537143003565
30
0
10
-65.359761558371062
20
-5.3989287003924114
30
0
10
-65.851882722563246
20
-5.5577494005613071
30
0
10
-66.423643738128817
20
-5.8900793249231853
30
0
10
-67.13230654130534
20
-6.3019819369695318
30
0
10
-67.875332610622735
20
-6.9432625399795667
30
0
10
-68.702319738388098
20
-7.2438069392481852
30
0
10
-69.169216692700303
20
-7.4134870466439073
30
0
10
-69.705375882067187
20
-7.4406312045051859
30
0
10
-70.177358005966425
20
-7.2471137126726326
30
0
10
-70.949424188796485
20
-6.9305586914873407
30
0
10
-71.507869074222214
20
-6.1967572554827655
30
0
10
-72.176130145745034
20
-5.5306834912887037
30
0
10
-72.830771400991907
20
-4.878184963901222
30
0
10
-73.58018332784151
20
-4.3085449527876163
30
0
10
-74.436374730597208
20
-3.8740991345636377
30
0
10
-75.496631573139069
20
-3.336107103806123
30
0
10
-76.696260039900778
20
-2.9825548227298171
30
0
10
-77.701264152002693
20
-2.4872734045686107
30
0
10
-78.484074772561442
20
-2.1014923419507614
30
0
10
-79.163977224110681
20
-1.5820556660216756
30
0
10
-79.468250593169756
20
-0.85837207572938556
30
0
10
-79.76869079217937
20
-0.14380529468057901
30
0
10
-79.654543725715257
20
0.70201977414600769
30
0
10
-79.203059445413516
20
1.3436652437578855
30
0
10
-78.725298856300356
20
2.0226543712612077
30
0
10
-77.935613080470574
20
2.4693743841145466
30
0
10
-77.087550560090278
20
2.8586921498025086
30
0
10
-75.970660779361708
20
3.3714197182345851
30
0
10
-74.748226590740813
20
3.8371702625128545
30
0
10
-73.747686272688057
20
4.5303716154500817
30
0
10
-72.990645883634485
20
5.0548696416179784
30
0
10
-72.360482490205555
20
5.7355208815208814
30
0
10
-71.711689905296097
20
6.3079895424544663
30
0
0
SPLINE
5
189
100
AcDbEntity
8
0
100
AcDbSpline
70
0
71
3
72
14
73
10
74
0
42
0.000000001
43
0.0000000001
44
0.0000000001
40
0
40
0
40
0
40
0
40
0.019532223669346455
40
0.019532223669346455
40
0.03906444733869311
40
0.03906444733869311
40
0.055881959442343324
40
0.055881959442343324
40
0.072699471545993169
40
0.072699471545993169
40
0.072699471545993169
40
0.072699471545993169
10
-57.797447763404236
20
-6.1038198725000559
30
0
10
-57.850566664282766
20
-6.0661720638401517
30
0
10
-57.910531173710936
20
-6.0392594912809638
30
0
10
-58.037400964810928
20
-6.0099344743841687
30
0
10
-58.103093302130446
20
-6.0078023931914748
30
0
10
-58.222667441511035
20
-6.0273771950187349
30
0
10
-58.276074497307491
20
-6.0456732746653685
30
0
10
-58.374582608532471
20
-6.0992112710879987
30
0
10
-58.418985905300502
20
-6.1340739642629716
30
0
10
-58.456677682889797
20
-6.1755693996947647
30
0
0
LINE
5
190
100
AcDbEntity
8
0
100
AcDbLine
10
-57.797447763404236
20
-6.1038198725000559
30
0
11
-40.928355415255822
21
-18.059721641657298
31
0
0
ARC
5
191
100
AcDbEntity
8
0
100
AcDbCircle
10
-69.840431145010498
20
-58.853003894951556
30
0
40
49.999999999999993
210
0
220
-0
230
1
100
AcDbArc
50
44.999999999999986
51
54.673045042998666
0
LINE
5
192
100
AcDbEntity
8
0
100
AcDbLine
10
-34.485092085683114
20
-23.497664835624192
30
0
11
-23.497664835624196
21
-34.4850920856831
31
0
0
ARC
5
193
100
AcDbEntity
8
0
100
AcDbCircle
10
-58.853003894951577
20
-69.84043114501047
30
0
40
50.000000000000007
210
0
220
-0
230
1
100
AcDbArc
50
35.326954957001291
51
45
0
LINE
5
194
100
AcDbEntity
8
0
100
AcDbLine
10
-18.059721641657305
20
-40.928355415255822
30
0
11
-6.1038198725000692
21
-57.797447763404229
31
0
0
SPLINE
5
195
100
AcDbEntity
8
0
100
AcDbSpline
70
0
71
3
72
14
73
10
74
0
42
0.000000001
43
0.0000000001
44
0.0000000001
40
0
40
0
40
0
40
0
40
0.019532223669346132
40
0.019532223669346132
40
0.039064447338692465
40
0.039064447338692465
40
0.055881959442342921
40
0.055881959442342921
40
0.072699471545993141
40
0.072699471545993141
40
0.072699471545993141
40
0.072699471545993141
10
-6.1755693996947736
20
-58.456677682889797
30
0
10
-6.1273757001085682
20
-58.412901634100166
30
0
10
-6.0881931943211942
20
-58.360130806999059
30
0
10
-6.0322615018625081
20
-58.2425402194146
30
0
10
-6.0160470526562282
20
-58.178844689040396
30
0
10
-6.0094397292475144
20
-58.057859190105361
30
0
10
-6.015818044431982
20
-58.001766612747133
30
0
10
-6.046910594932231
20
-57.894047448521576
30
0
10
-6.0714045935982819
20
-57.843183864607056
30
0
10
-6.1038198725000692
20
-57.797447763404229
30
0
0
SPLINE
5
196
100
AcDbEntity
8
0
100
AcDbSpline
70
0
71
3
72
50
73
46
74
0
42
0.000000001
43
0.0000000001
44
0.0000000001
40
0.4301815134243519
40
0.4301815134243519
40
0.4301815134243519
40
0.4301815134243519
40
0.44639005930805775
40
0.44639005930805775
40
0.44639005930805775
40
0.47714101070005299
40
0.47714101070005299
40
0.47714101070005299
40
0.51818000316311352
40
0.51818000316311352
40
0.51818000316311352
40
0.55577253099100365
40
0.55577253099100365
40
0.55577253099100365
40
0.59134504032931923
40
0.59134504032931923
40
0.59134504032931923
40
0.63543498962181799
40
0.63543498962181799
40
0.63543498962181799
40
0.66032710988501075
40
0.66032710988501075
40
0.66032710988501075
40
0.70104552547960641
40
0.70104552547960641
40
0.70104552547960641
40
0.74093405981509808
40
0.74093405981509808
40
0.74093405981509808
40
0.79032966380277125
40
0.79032966380277125
40
0.79032966380277125
40
0.82880453464642756
40
0.82880453464642756
40
0.82880453464642756
40
0.86679470739432196
40
0.86679470739432196
40
0.86679470739432196
40
0.90699590177569334
40
0.90699590177569334
40
0.90699590177569334
40
0.95994046906715014
40
0.95994046906715014
40
0.95994046906715014
40
0.99999999999999989
40
0.99999999999999989
40
0.99999999999999989
40
0.99999999999999989
10
-6.175569394025139
20
-58.456677677739862
30
0
10
-6.4612685849623563
20
-58.71618839793495
30
0
10
-6.7091492202130443
20
-58.992554746696051
30
0
10
-6.900325478032161
20
-59.29063491528639
30
0
10
-7.2630262319233152
20
-59.856154415987213
30
0
10
-7.3790910028249579
20
-60.524008080979272
30
0
10
-7.2456449952948665
20
-61.124992101760149
30
0
10
-7.0675532794503049
20
-61.927041390734885
30
0
10
-6.5553090746801246
20
-62.613913810411859
30
0
10
-6.1406187364797793
20
-63.261348990675174
30
0
10
-5.7607541944156537
20
-63.854412405979808
30
0
10
-5.4826913365289665
20
-64.393307350101864
30
0
10
-5.4396537143003654
20
-64.889875904235282
30
0
10
-5.3989287003924247
20
-65.359761558371062
30
0
10
-5.5577494005613159
20
-65.851882722563246
30
0
10
-5.8900793249231986
20
-66.423643738128831
30
0
10
-6.3019819369695407
20
-67.13230654130534
30
0
10
-6.94326253997958
20
-67.875332610622721
30
0
10
-7.2438069392481941
20
-68.702319738388098
30
0
10
-7.4134870466439162
20
-69.169216692700303
30
0
10
-7.4406312045051948
20
-69.705375882067187
30
0
10
-7.2471137126726415
20
-70.177358005966425
30
0
10
-6.930558691487354
20
-70.949424188796471
30
0
10
-6.1967572554827743
20
-71.507869074222214
30
0
10
-5.5306834912887171
20
-72.17613014574502
30
0
10
-4.8781849639012353
20
-72.830771400991893
30
0
10
-4.3085449527876296
20
-73.580183327841496
30
0
10
-3.8740991345636555
20
-74.436374730597208
30
0
10
-3.3361071038061407
20
-75.496631573139069
30
0
10
-2.9825548227298304
20
-76.696260039900778
30
0
10
-2.487273404568624
20
-77.701264152002679
30
0
10
-2.1014923419507747
20
-78.484074772561428
30
0
10
-1.58205566602168
20
-79.163977224110681
30
0
10
-0.85837207572939889
20
-79.468250593169756
30
0
10
-0.14380529468058789
20
-79.76869079217937
30
0
10
0.70201977414599437
20
-79.654543725715257
30
0
10
1.3436652437578767
20
-79.203059445413487
30
0
10
2.0226543712611944
20
-78.725298856300356
30
0
10
2.4693743841145288
20
-77.935613080470574
30
0
10
2.8586921498024953
20
-77.087550560090278
30
0
10
3.3714197182345718
20
-75.970660779361694
30
0
10
3.8371702625128368
20
-74.748226590740813
30
0
10
4.5303716154500728
20
-73.747686272688057
30
0
10
5.0548696416179606
20
-72.990645883634485
30
0
10
5.7355208815208725
20
-72.360482490205555
30
0
10
6.3079895424544574
20
-71.711689905296097
30
0
0
SPLINE
5
197
100
AcDbEntity
8
0
100
AcDbSpline
70
0
71
3
72
32
73
28
74
0
42
0.000000001
43
0.0000000001
44
0.0000000001
40
0
40
0
40
0
40
0
40
0.028526070490429628
40
0.028526070490429628
40
0.028526070490429628
40
0.057929213951855726
40
0.057929213951855726
40
0.057929213951855726
40
0.10358486784357974
40
0.10358486784357974
40
0.10358486784357974
40
0.13155317245534001
40
0.13155317245534001
40
0.13155317245534001
40
0.15940885841836169
40
0.15940885841836169
40
0.15940885841836169
40
0.21254514455781559
40
0.21254514455781559
40
0.21254514455781559
40
0.24042371293807954
40
0.24042371293807954
40
0.24042371293807954
40
0.27740639799606592
40
0.27740639799606592
40
0.27740639799606592
40
0.28422554608153422
40
0.28422554608153422
40
0.28422554608153422
40
0.28422554608153422
10
6.3079895424544574
20
-71.711689905296097
30
0
10
6.7156398817138196
20
-71.249689912290378
30
0
10
7.0634330432249515
20
-70.736324898809727
30
0
10
7.1107116802291737
20
-70.137844513611768
30
0
10
7.1594439634562779
20
-69.520963032135768
30
0
10
6.8810251129038713
20
-68.929732134286724
30
0
10
6.5082818267560461
20
-68.396577715044472
30
0
10
5.92950566681401
20
-67.568723588913343
30
0
10
5.0992004732376905
20
-66.779662049958318
30
0
10
4.6902125671422601
20
-66.150939144824989
30
0
10
4.4396697019074116
20
-65.765788298691831
30
0
10
4.3638420339581874
20
-65.495311089855946
30
0
10
4.3997483305553198
20
-65.256144731823085
30
0
10
4.4355100449670104
20
-65.017941413646923
30
0
10
4.6125382112038693
20
-64.721154693858111
30
0
10
4.9526004817953773
20
-64.358902099056621
30
0
10
5.6012883704860394
20
-63.667884920097734
30
0
10
6.7470442877637371
20
-62.852304507552788
30
0
10
7.2766321691082503
20
-61.758048090256175
30
0
10
7.5544865890553714
20
-61.183933778332232
30
0
10
7.6201509993630978
20
-60.499900193756353
30
0
10
7.3912196209220005
20
-59.871494349084188
30
0
10
7.087527661087667
20
-59.037874231827359
30
0
10
6.3521375205098574
20
-58.313631735868725
30
0
10
5.4731771282032415
20
-57.719256598477614
30
0
10
5.311107741759229
20
-57.609661200689821
30
0
10
5.1430145783792192
20
-57.504101504742209
30
0
10
4.9729532573445923
20
-57.404492508631776
30
0
0
SPLINE
5
198
100
AcDbEntity
8
0
100
AcDbSpline
70
0
71
3
72
12
73
8
74
0
42
0.000000001
43
0.0000000001
44
0.0000000001
40
0
40
0
40
0
40
0
40
0.19532223669346388
40
0.19532223669346388
40
0.35856191305934937
40
0.35856191305934937
40
0.52180158942523447
40
0.52180158942523447
40
0.52180158942523447
40
0.52180158942523447
10
2.5000000000000089
20
-53.090093968807878
30
0
10
2.5000000000000044
20
-53.741168091119405
30
0
10
2.6271692538231317
20
-54.38601758995884
30
0
10
3.0809297974698691
20
-55.491738916662364
30
0
10
3.3683050415614924
20
-55.958050851478625
30
0
10
4.0819374405637276
20
-56.779664167384489
30
0
10
4.5034325764417282
20
-57.129482980343404
30
0
10
4.9729532573445967
20
-57.404492508631776
30
0
0
LINE
5
199
100
AcDbEntity
8
0
100
AcDbLine
10
2.5000000000000089
20
-53.090093968807878
30
0
11
2.4999999999999964
21
-17.394676659533808
31
0
0
ARC
5
200
100
AcDbEntity
8
0
100
AcDbCircle
10
4.4999999999999964
20
-17.394676659533811
30
0
40
2.0000000000000004
210
0
220
0
230
1
100
AcDbArc
50
97.305759533310805
51
180
0
LINE
5
201
100
AcDbEntity
8
0
100
AcDbLine
10
4.2456713680292664
20
-15.410913330162108
30
0
11
12.727076684330267
21
-14.323553674226083
31
0
0
ARC
5
202
100
AcDbEntity
8
0
100
AcDbCircle
10
12.357918372197002
20
-12.357918372197004
30
0
40
2.0000000000000093
210
-0
220
0
230
1
100
AcDbArc
50
280.63659727507832
51
349.363402724926
0
LINE
5
203
100
AcDbEntity
8
0
100
AcDbLine
10
14.323553674226108
20
-12.727076684330124
30
0
11
15.410913330162108
21
-4.2456713680292681
31
0
0
ARC
5
204
100
AcDbEntity
8
0
100
AcDbCircle
10
17.394676659533808
20
-4.4999999999999973
30
0
40
2
210
0
220
-0
230
1
100
AcDbArc
50
89.999999999999901
51
172.69424046668928
0
LINE
5
205
100
AcDbEntity
8
0
100
AcDbLine
10
17.394676659533811
20
-2.4999999999999973
30
0
11
53.090093968807864
21
-2.5000000000000133
31
0
0
SPLINE
5
206
100
AcDbEntity
8
0
100
AcDbSpline
70
0
71
3
72
12
73
8
74
0
42
0.000000001
43
0.0000000001
44
0.0000000001
40
0
40
0
40
0
40
0
40
0.19532223669346346
40
0.19532223669346346
40
0.35856191305935048
40
0.35856191305935048
40
0.52180158942523658
40
0.52180158942523658
40
0.52180158942523658
40
0.52180158942523658
10
57.404492508631776
20
-4.9729532573446145
30
0
10
57.075433560628859
20
-4.4111546088210041
30
0
10
56.639788826918831
20
-3.9189995913091202
30
0
10
55.689406166144849
20
-3.1942299165863552
30
0
10
55.205757488258996
20
-2.9371009453519159
30
0
10
54.174727521477294
20
-2.5888239731334783
30
0
10
53.63422622336082
20
-2.5000000000000178
30
0
10
53.090093968807864
20
-2.5000000000000133
30
0
0
SPLINE
5
207
100
AcDbEntity
8
0
100
AcDbSpline
70
0
71
3
72
32
73
28
74
0
42
0.000000001
43
0.0000000001
44
0.0000000001
40
0
40
0
40
0
40
0
40
0.028526070490429628
40
0.028526070490429628
40
0.028526070490429628
40
0.057929213951855726
40
0.057929213951855726
40
0.057929213951855726
40
0.10358486784357974
40
0.10358486784357974
40
0.10358486784357974
40
0.13155317245534001
40
0.13155317245534001
40
0.13155317245534001
40
0.15940885841836169
40
0.15940885841836169
40
0.15940885841836169
40
0.21254514455781559
40
0.21254514455781559
40
0.21254514455781559
40
0.24042371293807954
40
0.24042371293807954
40
0.24042371293807954
40
0.27740639799606592
40
0.27740639799606592
40
0.27740639799606592
40
0.28422554608153411
40
0.28422554608153411
40
0.28422554608153411
40
0.28422554608153411
10
71.711689905296097
20
-6.3079895424544663
30
0
10
71.249689912290378
20
-6.7156398817138374
30
0
10
70.736324898809727
20
-7.0634330432249604
30
0
10
70.137844513611768
20
-7.110711680229187
30
0
10
69.520963032135768
20
-7.1594439634562912
30
0
10
68.929732134286724
20
-6.8810251129038846
30
0
10
68.396577715044472
20
-6.5082818267560549
30
0
10
67.568723588913343
20
-5.9295056668140189
30
0
10
66.779662049958318
20
-5.0992004732376994
30
0
10
66.150939144824989
20
-4.690212567142269
30
0
10
65.765788298691831
20
-4.4396697019074249
30
0
10
65.495311089855946
20
-4.3638420339581963
30
0
10
65.256144731823085
20
-4.3997483305553331
30
0
10
65.017941413646923
20
-4.4355100449670193
30
0
10
64.721154693858111
20
-4.6125382112038826
30
0
10
64.358902099056621
20
-4.9526004817953906
30
0
10
63.667884920097734
20
-5.6012883704860528
30
0
10
62.852304507552788
20
-6.747044287763746
30
0
10
61.758048090256175
20
-7.2766321691082592
30
0
10
61.183933778332232
20
-7.5544865890553803
30
0
10
60.499900193756353
20
-7.6201509993631067
30
0
10
59.871494349084188
20
-7.3912196209220093
30
0
10
59.037874231827359
20
-7.0875276610876758
30
0
10
58.313631735868725
20
-6.3521375205098662
30
0
10
57.719256598477614
20
-5.4731771282032504
30
0
10
57.609661200689821
20
-5.3111077417592378
30
0
10
57.504101504742223
20
-5.1430145783792236
30
0
10
57.404492508631776
20
-4.9729532573446145
30
0
0
SPLINE
5
208
100
AcDbEntity
8
0
100
AcDbSpline
70
0
71
3
72
50
73
46
74
0
42
0.000000001
43
0.0000000001
44
0.0000000001
40
0.4417099179029263
40
0.4417099179029263
40
0.4417099179029263
40
0.4417099179029263
40
0.44639005930805775
40
0.44639005930805775
40
0.44639005930805775
40
0.47714101070005299
40
0.47714101070005299
40
0.47714101070005299
40
0.51818000316311352
40
0.51818000316311352
40
0.51818000316311352
40
0.55577253099100365
40
0.55577253099100365
40
0.55577253099100365
40
0.59134504032931923
40
0.59134504032931923
40
0.59134504032931923
40
0.63543498962181799
40
0.63543498962181799
40
0.63543498962181799
40
0.66032710988501075
40
0.66032710988501075
40
0.66032710988501075
40
0.70104552547960641
40
0.70104552547960641
40
0.70104552547960641
40
0.74093405981509808
40
0.74093405981509808
40
0.74093405981509808
40
0.79032966380277125
40
0.79032966380277125
40
0.79032966380277125
40
0.82880453464642756
40
0.82880453464642756
40
0.82880453464642756
40
0.86679470739432196
40
0.86679470739432196
40
0.86679470739432196
40
0.90699590177569334
40
0.90699590177569334
40
0.90699590177569334
40
0.95994046906715014
40
0.95994046906715014
40
0.95994046906715014
40
0.99999999999999989
40
0.99999999999999989
40
0.99999999999999989
40
0.99999999999999989
10
59.037742037583655
20
6.7209057527827252
30
0
10
59.120289526091611
20
6.7851311943136006
30
0
10
59.204565668293014
20
6.8451242325708472
30
0
10
59.29063491528639
20
6.9003254780321521
30
0
10
59.856154415987213
20
7.2630262319233063
30
0
10
60.524008080979272
20
7.379091002824949
30
0
10
61.124992101760149
20
7.2456449952948576
30
0
10
61.927041390734885
20
7.067553279450296
30
0
10
62.613913810411866
20
6.5553090746801113
30
0
10
63.261348990675174
20
6.1406187364797704
30
0
10
63.854412405979808
20
5.7607541944156404
30
0
10
64.393307350101864
20
5.4826913365289576
30
0
10
64.889875904235282
20
5.4396537143003565
30
0
10
65.359761558371062
20
5.3989287003924114
30
0
10
65.851882722563246
20
5.5577494005613071
30
0
10
66.423643738128817
20
5.8900793249231853
30
0
10
67.13230654130534
20
6.3019819369695318
30
0
10
67.875332610622735
20
6.9432625399795667
30
0
10
68.702319738388098
20
7.2438069392481852
30
0
10
69.169216692700303
20
7.4134870466439073
30
0
10
69.705375882067187
20
7.4406312045051859
30
0
10
70.177358005966425
20
7.2471137126726326
30
0
10
70.949424188796485
20
6.9305586914873407
30
0
10
71.507869074222214
20
6.1967572554827655
30
0
10
72.176130145745034
20
5.5306834912887037
30
0
10
72.830771400991907
20
4.878184963901222
30
0
10
73.58018332784151
20
4.3085449527876163
30
0
10
74.436374730597208
20
3.8740991345636377
30
0
10
75.496631573139069
20
3.336107103806123
30
0
10
76.696260039900778
20
2.9825548227298171
30
0
10
77.701264152002693
20
2.4872734045686107
30
0
10
78.484074772561442
20
2.1014923419507614
30
0
10
79.163977224110681
20
1.5820556660216756
30
0
10
79.468250593169756
20
0.85837207572938556
30
0
10
79.76869079217937
20
0.14380529468057901
30
0
10
79.654543725715257
20
-0.70201977414600769
30
0
10
79.203059445413516
20
-1.3436652437578855
30
0
10
78.725298856300356
20
-2.0226543712612077
30
0
10
77.935613080470574
20
-2.4693743841145466
30
0
10
77.087550560090278
20
-2.8586921498025086
30
0
10
75.970660779361708
20
-3.3714197182345851
30
0
10
74.748226590740813
20
-3.8371702625128545
30
0
10
73.747686272688057
20
-4.5303716154500817
30
0
10
72.990645883634485
20
-5.0548696416179784
30
0
10
72.360482490205555
20
-5.7355208815208814
30
0
10
71.711689905296097
20
-6.3079895424544663
30
0
0
SPLINE
5
209
100
AcDbEntity
8
0
100
AcDbSpline
70
0
71
3
72
14
73
10
74
0
42
0.000000001
43
0.0000000001
44
0.0000000001
40
0
40
0
40
0
40
0
40
0.039064447338692125
40
0.039064447338692125
40
0.078128894677384486
40
0.078128894677384486
40
0.099870725679679612
40
0.099870725679679612
40
0.12161255668197507
40
0.12161255668197507
40
0.12161255668197507
40
0.12161255668197507
10
57.899247073572546
20
6.6586996621028094
30
0
10
58.010119411026018
20
6.590411849886042
30
0
10
58.133269876724427
20
6.5444327393126311
30
0
10
58.390263523733914
20
6.5022679739775668
30
0
10
58.521649705707226
20
6.506485437354077
30
0
10
58.719146756390295
20
6.5520614828550361
30
0
10
58.787783276776238
20
6.5759861235819095
30
0
10
58.91867481111543
20
6.6382485987066531
30
0
10
58.980542830441642
20
6.6764023475296952
30
0
10
59.037742037669638
20
6.7209057528496352
30
0
0
LWPOLYLINE
5
210
100
AcDbEntity
8
0
100
AcDbPolyline
90
5
70
1
43
0.0
10
4.98816828447411
20
61.496755956017637
10
3.9275351601668151
20
62.557376145262403
42
1.004182634319708
10
2.4426237764520264
20
61.072464917494457
10
3.5032247024848662
20
60.011851057527281
42
0.99999045528764929
10
4.9882017987137752
20
61.496722440265074
0
LWPOLYLINE
5
211
100
AcDbEntity
8
0
100
AcDbPolyline
90
5
70
1
43
0.0
10
62.55737614526241
20
3.9275351601668018
10
61.496755956017637
20
4.9881682844740975
10
61.496722440643772
20
4.9882017990925025
42
0.99999045527892538
10
60.011851057527259
20
3.503224702484879
10
61.072464917494464
20
2.4426237764520131
42
1.0041826343196947
0
LWPOLYLINE
5
212
100
AcDbEntity
8
0
100
AcDbPolyline
90
6
70
1
43
0.0
10
-2.4999999999999885
20
-52.922731482873687
10
-2.4999999999999947
20
-24.713203435596416
42
0.66817863791929966
10
-4.2071067811865381
20
-24.00609665440987
10
-15.310948943409034
20
-35.109938816632365
42
0.36558667403789485
10
-15.528466671167706
20
-37.680635408195641
10
-4.315865645065875
20
-53.500972997468779
42
0.73103903309458373
0
CIRCLE
5
213
100
AcDbEntity
8
0
100
AcDbCircle
10
-36.062446272519125
20
-19.091883524041975
30
0
40
1.0499999999999998
210
0
220
0
230
1
0
CIRCLE
5
214
100
AcDbEntity
8
0
100
AcDbCircle
10
-19.091883524041982
20
-36.062446272519118
30
0
40
1.0499999999999998
210
0
220
0
230
1
0
LWPOLYLINE
5
215
100
AcDbEntity
8
0
100
AcDbPolyline
90
9
70
1
43
0.0
10
-30.405078820717222
20
-17.079687096296411
10
-23.899696433800983
20
-10.574304709380172
42
0.99999999999999989
10
-23.54614304320771
20
-10.220751318786895
10
-24.394671180631569
20
-9.3722231813630419
42
0.99999999999999989
10
-24.748224571224835
20
-9.725776571956315
10
-31.253606958141074
20
-16.231158958872555
42
0.99999999999999989
10
-31.607160348734354
20
-16.584712349465818
10
-30.829342889429149
20
-17.362529808771029
10
-30.814584711592701
20
-17.347771630934584
42
1.2302603709681761
0
LWPOLYLINE
5
216
100
AcDbEntity
8
0
100
AcDbPolyline
90
9
70
1
43
0.0
10
-16.262943196986271
20
-31.221822720027362
10
-9.7575608100700322
20
-24.716440333111123
42
0.99999999999999989
10
-9.4040074194767609
20
-24.362886942517846
10
-10.252535556900618
20
-23.514358805093995
42
1.0000000105367122
10
-10.606088947493884
20
-23.867912195687264
10
-17.11147133441013
20
-30.373294582603506
42
0.99999999999999989
10
-17.465024725003406
20
-30.726847973196772
10
-16.687207265698198
20
-31.50466543250198
10
-16.672449087861757
20
-31.489907254665539
42
1.2302603709681816
0
LWPOLYLINE
5
217
100
AcDbEntity
8
0
100
AcDbPolyline
90
8
70
1
43
0.0
10
-7.0710678118654755
20
-14.142135623730949
10
1.4142135623730945
20
-5.6568542494923797
42
0.4142135623730947
10
1.4142135623730949
20
-3.5355339059327386
10
-3.5355339059327404
20
1.4142135623730934
42
0.41421356237309442
10
-5.656854249492377
20
1.4142135623730943
10
-14.142135623730951
20
-7.0710678118654746
42
0.41421356237309503
10
-14.142135623730951
20
-9.1923881554251174
10
-9.1923881554251157
20
-14.142135623730949
42
0.4142135623730947
0
CIRCLE
5
218
100
AcDbEntity
8
0
100
AcDbCircle
10
-12.727922251018676
20
-12.727922251018672
30
0
40
1.05
210
0
220
0
230
1
0
LWPOLYLINE
5
219
100
AcDbEntity
8
0
100
AcDbPolyline
90
8
70
1
43
0.0
10
-17.677669814154914
20
-10.606601854775469
42
0.41421356237309548
10
-20.506096938901109
20
-10.606601854775468
10
-30.405592065173593
20
-20.50609698104795
42
0.41421356237309503
10
-30.405592065173593
20
-23.334524105794145
10
-29.698485231303486
20
-24.041630939664248
42
0.41421356237309503
10
-26.870058106557295
20
-24.041630939664248
10
-16.970562980284811
20
-14.142135813391768
42
0.41421356237309548
10
-16.970562980284811
20
-11.313708688645576
0
LWPOLYLINE
5
220
100
AcDbEntity
8
0
100
AcDbPolyline
90
8
70
1
43
0.0
10
-11.313708688645578
20
-16.970562980284804
42
0.41421356237309503
10
-14.142135813391771
20
-16.970562980284804
10
-24.041630939664252
20
-26.870058106557288
42
0.41421356237309503
10
-24.041630939664259
20
-29.698485231303479
10
-23.334524105794149
20
-30.405592065173586
42
0.41421356237309459
10
-20.506096981047961
20
-30.405592065173586
10
-10.606601854775469
20
-20.506096938901102
42
0.41421356237309459
10
-10.606601854775469
20
-17.677669814154914
0
LWPOLYLINE
5
221
100
AcDbEntity
8
0
100
AcDbPolyline
90
6
70
1
43
0.0
10
-35.109938816632365
20
-15.310948943409034
10
-24.00609665440987
20
-4.2071067811865426
42
0.6681786379192981
10
-24.713203435596416
20
-2.4999999999999862
10
-52.922731482873687
20
-2.4999999999999853
42
0.7310390330945824
10
-53.500972997468779
20
-4.3158656450658617
10
-37.680635408195648
20
-15.528466671167712
42
0.36558667403789263
0
SPLINE
5
222
100
AcDbEntity
8
0
100
AcDbSpline
70
4
71
5
72
31
73
25
74
0
42
0.000000001
43
0.0000000001
44
0.0000000001
40
-1
40
-1
40
-1
40
-1
40
-1
40
-1
40
-0.95000000000000029
40
-0.90000000000000024
40
-0.8500000000000002
40
-0.80000000000000016
40
-0.75000000000000011
40
-0.70000000000000007
40
-0.65000000000000002
40
-0.59999999999999998
40
-0.54999999999999993
40
-0.49999999999999994
40
-0.44999999999999996
40
-0.39999999999999997
40
-0.34999999999999998
40
-0.29999999999999999
40
-0.25
40
-0.20000000000000001
40
-0.15000000000000002
40
-0.10000000000000001
40
-0.050000000000000003
40
0
40
0
40
0
40
0
40
0
40
0
41
1
41
1
41
1
41
1
41
1
41
1
41
1
41
1
41
1
41
1
41
1
41
1
41
1
41
1
41
1
41
1
41
1
41
1
41
1
41
1
41
1
41
1
41
1
41
1
41
1
10
77.02081545929542
20
-8.8817841970012523e-15
30
0
10
77.02081545929542
20
-0.12669727118123753
30
0
10
76.952373950518421
20
-0.38131653512813113
30
0
10
76.643553866571452
20
-0.77500685538270275
30
0
10
75.861510966130851
20
-1.3540819374173685
30
0
10
74.519224550732901
20
-2.0804045278653582
30
0
10
73.124083184338303
20
-2.6803126436081071
30
0
10
71.940394430527718
20
-2.9873538278874179
30
0
10
71.140424672097183
20
-2.8854188635656586
30
0
10
70.598882215100076
20
-2.2780629776656536
30
0
10
70.213942384619656
20
-1.3951775512050135
30
0
10
69.980126103886136
20
-0.55150520158205207
30
0
10
69.90901639715085
20
-0.010634215272178338
30
0
10
70.000704352611521
20
0.52365347886899283
30
0
10
70.230770201757565
20
1.3687992937002358
30
0
10
70.610032498907458
20
2.2472771564821459
30
0
10
71.16574699357534
20
2.8348308084744778
30
0
10
71.990735413415692
20
2.9041468192753594
30
0
10
73.176345624981963
20
2.5888747853950145
30
0
10
74.555780843908863
20
2.0066583078484213
30
0
10
75.875399206955052
20
1.3146511458907373
30
0
10
76.645220455472383
20
0.76153491795411643
30
0
10
76.952373950518606
20
0.3788670919592807
30
0
10
77.02081545929542
20
0.12669727118122864
30
0
10
77.02081545929542
20
-8.8817841970012523e-15
30
0
0
CIRCLE
5
223
100
AcDbEntity
8
0
100
AcDbCircle
10
65.000000000000014
20
-8.8817841970012523e-15
30
0
40
2.5499999999999989
210
-0
220
0
230
1
0
LWPOLYLINE
5
224
100
AcDbEntity
8
0
100
AcDbPolyline
90
4
70
1
43
0.0
10
67.442623803541352
20
3.9275351093961728
42
1.0041826302572467
10
68.927535127307451
20
2.442623821602746
10
69.988168284475194
20
3.5032440439844019
42
1.0000130295293521
10
68.50322469649447
20
4.9881489364830252
0
LWPOLYLINE
5
225
100
AcDbEntity
8
0
100
AcDbPolyline
90
4
70
1
43
0.0
10
60.011831715525467
20
-3.5032440439827397
42
1.0000130249250745
10
61.496775296667046
20
-4.988148943320776
10
62.557382636030077
20
-3.9275416029496775
42
1.0041826302574604
10
61.072464872692507
20
-2.4426238216028113
0
LWPOLYLINE
5
226
100
AcDbEntity
8
0
100
AcDbPolyline
90
4
70
1
43
0.0
10
68.927535109396388
20
-2.4426238035415579
42
1.0041826525721615
10
67.442623854737619
20
-3.9275351601668298
10
68.50324404398178
20
-4.9881682844735202
42
1.0000130317424909
10
69.988148933198303
20
-3.5032246932108717
0
SPLINE
5
227
100
AcDbEntity
8
0
100
AcDbSpline
70
4
71
5
72
31
73
25
74
0
42
0.000000001
43
0.0000000001
44
0.0000000001
40
-1
40
-1
40
-1
40
-1
40
-1
40
-1
40
-0.95000000000000029
40
-0.90000000000000024
40
-0.8500000000000002
40
-0.80000000000000016
40
-0.75000000000000011
40
-0.70000000000000007
40
-0.65000000000000002
40
-0.59999999999999998
40
-0.54999999999999993
40
-0.49999999999999994
40
-0.44999999999999996
40
-0.39999999999999997
40
-0.34999999999999998
40
-0.29999999999999999
40
-0.25
40
-0.20000000000000001
40
-0.15000000000000002
40
-0.10000000000000001
40
-0.050000000000000003
40
0
40
0
40
0
40
0
40
0
40
0
41
1
41
1
41
1
41
1
41
1
41
1
41
1
41
1
41
1
41
1
41
1
41
1
41
1
41
1
41
1
41
1
41
1
41
1
41
1
41
1
41
1
41
1
41
1
41
1
41
1
10
-8.8817841970012523e-15
20
-77.02081545929542
30
0
10
0.12669727118122864
20
-77.02081545929542
30
0
10
0.38131653512811781
20
-76.952373950518407
30
0
10
0.77500685538269387
20
-76.643553866571452
30
0
10
1.3540819374173596
20
-75.861510966130851
30
0
10
2.0804045278653449
20
-74.519224550732901
30
0
10
2.6803126436080982
20
-73.124083184338303
30
0
10
2.987353827887409
20
-71.940394430527718
30
0
10
2.8854188635656453
20
-71.140424672097197
30
0
10
2.2780629776656447
20
-70.598882215100076
30
0
10
1.3951775512050046
20
-70.213942384619656
30
0
10
0.55150520158203875
20
-69.980126103886136
30
0
10
0.010634215272169456
20
-69.90901639715085
30
0
10
-0.52365347886900171
20
-70.000704352611521
30
0
10
-1.3687992937002447
20
-70.230770201757565
30
0
10
-2.2472771564821548
20
-70.610032498907458
30
0
10
-2.8348308084744911
20
-71.165746993575354
30
0
10
-2.9041468192753728
20
-71.990735413415692
30
0
10
-2.5888747853950278
20
-73.176345624981977
30
0
10
-2.0066583078484346
20
-74.555780843908863
30
0
10
-1.3146511458907462
20
-75.875399206955052
30
0
10
-0.76153491795412975
20
-76.645220455472383
30
0
10
-0.37886709195929402
20
-76.952373950518592
30
0
10
-0.12669727118123753
20
-77.02081545929542
30
0
10
-8.8817841970012523e-15
20
-77.02081545929542
30
0
0
CIRCLE
5
228
100
AcDbEntity
8
0
100
AcDbCircle
10
-8.8817841970012523e-15
20
-65.000000000000014
30
0
40
2.5499999999999989
210
0
220
0
230
1
0
LWPOLYLINE
5
229
100
AcDbEntity
8
0
100
AcDbPolyline
90
4
70
1
43
0.0
10
-2.4426238216027607
20
-68.927535127307436
42
1.0041826302572601
10
-3.9275351093961861
20
-67.442623803541366
10
-4.9881489364830456
20
-68.50322469649447
42
1.0000130295293521
10
-3.5032440439844326
20
-69.988168284475194
0
LWPOLYLINE
5
230
100
AcDbEntity
8
0
100
AcDbPolyline
90
4
70
1
43
0.0
10
4.9881489433207573
20
-61.496775296667074
42
1.0000130249250745
10
3.5032440439827308
20
-60.011831715525467
10
2.4426173534509532
20
-61.07245840454064
42
1.0041826120004294
10
3.9275351093963744
20
-62.557376196458435
0
LWPOLYLINE
5
231
100
AcDbEntity
8
0
100
AcDbPolyline
90
4
70
1
43
0.0
10
3.9275351601668191
20
-67.442623854737619
42
1.0041826525721615
10
2.4426238035415451
20
-68.927535109396388
10
3.5032246932108668
20
-69.988148933198303
42
1.0000130317446208
10
4.9881682844735078
20
-68.50324404398178
0
LWPOLYLINE
5
232
100
AcDbEntity
8
0
100
AcDbPolyline
90
5
70
1
43
0.0
10
-4.98816828447411
20
-61.496755956017644
10
-3.9275351601668174
20
-62.55737614526241
42
1.004182634319708
10
-2.4426237764520264
20
-61.072464917494457
10
-3.5032247024848662
20
-60.011851057527281
42
0.99999045528764929
10
-4.9882017987137752
20
-61.496722440265074
0
SPLINE
5
233
100
AcDbEntity
8
0
100
AcDbSpline
70
4
71
5
72
31
73
25
74
0
42
0.000000001
43
0.0000000001
44
0.0000000001
40
-1
40
-1
40
-1
40
-1
40
-1
40
-1
40
-0.95000000000000029
40
-0.90000000000000024
40
-0.8500000000000002
40
-0.80000000000000016
40
-0.75000000000000011
40
-0.70000000000000007
40
-0.65000000000000002
40
-0.59999999999999998
40
-0.54999999999999993
40
-0.49999999999999994
40
-0.44999999999999996
40
-0.39999999999999997
40
-0.34999999999999998
40
-0.29999999999999999
40
-0.25
40
-0.20000000000000001
40
-0.15000000000000002
40
-0.10000000000000001
40
-0.050000000000000003
40
0
40
0
40
0
40
0
40
0
40
0
41
1
41
1
41
1
41
1
41
1
41
1
41
1
41
1
41
1
41
1
41
1
41
1
41
1
41
1
41
1
41
1
41
1
41
1
41
1
41
1
41
1
41
1
41
1
41
1
41
1
10
-77.02081545929542
20
8.8817841970012523e-15
30
0
10
-77.02081545929542
20
0.12669727118123753
30
0
10
-76.952373950518421
20
0.38131653512813113
30
0
10
-76.643553866571452
20
0.77500685538270275
30
0
10
-75.861510966130851
20
1.3540819374173685
30
0
10
-74.519224550732901
20
2.0804045278653582
30
0
10
-73.124083184338303
20
2.6803126436081071
30
0
10
-71.940394430527718
20
2.9873538278874179
30
0
10
-71.140424672097183
20
2.8854188635656586
30
0
10
-70.598882215100076
20
2.2780629776656536
30
0
10
-70.213942384619656
20
1.3951775512050135
30
0
10
-69.980126103886136
20
0.55150520158205207
30
0
10
-69.90901639715085
20
0.010634215272178338
30
0
10
-70.000704352611521
20
-0.52365347886899283
30
0
10
-70.230770201757565
20
-1.3687992937002358
30
0
10
-70.610032498907458
20
-2.2472771564821459
30
0
10
-71.16574699357534
20
-2.8348308084744778
30
0
10
-71.990735413415692
20
-2.9041468192753594
30
0
10
-73.176345624981963
20
-2.5888747853950145
30
0
10
-74.555780843908863
20
-2.0066583078484213
30
0
10
-75.875399206955052
20
-1.3146511458907373
30
0
10
-76.645220455472383
20
-0.76153491795411643
30
0
10
-76.952373950518606
20
-0.3788670919592807
30
0
10
-77.02081545929542
20
-0.12669727118122864
30
0
10
-77.02081545929542
20
8.8817841970012523e-15
30
0
0
CIRCLE
5
234
100
AcDbEntity
8
0
100
AcDbCircle
10
-65.000000000000014
20
8.8817841970012523e-15
30
0
40
2.5499999999999989
210
-0
220
0
230
1
0
LWPOLYLINE
5
235
100
AcDbEntity
8
0
100
AcDbPolyline
90
4
70
1
43
0.0
10
-67.442623803541352
20
-3.9275351093961728
42
1.0041826302572467
10
-68.927535127307451
20
-2.442623821602746
10
-69.988168284475194
20
-3.5032440439844019
42
1.0000130295293521
10
-68.50322469649447
20
-4.9881489364830252
0
LWPOLYLINE
5
236
100
AcDbEntity
8
0
100
AcDbPolyline
90
4
70
1
43
0.0
10
-60.011831715525467
20
3.5032440439827397
42
1.0000130249250745
10
-61.496775296667046
20
4.988148943320776
10
-62.557382636030077
20
3.9275416029496775
42
1.0041826302574604
10
-61.072464872692507
20
2.4426238216028113
0
LWPOLYLINE
5
237
100
AcDbEntity
8
0
100
AcDbPolyline
90
4
70
1
43
0.0
10
-68.927535109396388
20
2.4426238035415579
42
1.0041826525721615
10
-67.442623854737619
20
3.9275351601668298
10
-68.50324404398178
20
4.9881682844735202
42
1.0000130317424909
10
-69.988148933198303
20
3.5032246932108717
0
LWPOLYLINE
5
238
100
AcDbEntity
8
0
100
AcDbPolyline
90
5
70
1
43
0.0
10
-62.55737614526241
20
-3.9275351601668063
10
-61.496755956017637
20
-4.9881682844741011
10
-61.496722440643772
20
-4.9882017990925025
42
0.99999045527892538
10
-60.011851057527259
20
-3.503224702484879
10
-61.072458437536319
20
-2.4426173234839301
42
1.0041826251936652
0
SPLINE
5
239
100
AcDbEntity
8
0
100
AcDbSpline
70
4
71
5
72
31
73
25
74
0
42
0.000000001
43
0.0000000001
44
0.0000000001
40
-1
40
-1
40
-1
40
-1
40
-1
40
-1
40
-0.95000000000000029
40
-0.90000000000000024
40
-0.8500000000000002
40
-0.80000000000000016
40
-0.75000000000000011
40
-0.70000000000000007
40
-0.65000000000000002
40
-0.59999999999999998
40
-0.54999999999999993
40
-0.49999999999999994
40
-0.44999999999999996
40
-0.39999999999999997
40
-0.34999999999999998
40
-0.29999999999999999
40
-0.25
40
-0.20000000000000001
40
-0.15000000000000002
40
-0.10000000000000001
40
-0.050000000000000003
40
0
40
0
40
0
40
0
40
0
40
0
41
1
41
1
41
1
41
1
41
1
41
1
41
1
41
1
41
1
41
1
41
1
41
1
41
1
41
1
41
1
41
1
41
1
41
1
41
1
41
1
41
1
41
1
41
1
41
1
41
1
10
8.8817841970012523e-15
20
77.02081545929542
30
0
10
-0.12669727118122864
20
77.02081545929542
30
0
10
-0.38131653512811781
20
76.952373950518407
30
0
10
-0.77500685538269387
20
76.643553866571452
30
0
10
-1.3540819374173596
20
75.861510966130851
30
0
10
-2.0804045278653449
20
74.519224550732901
30
0
10
-2.6803126436080982
20
73.124083184338303
30
0
10
-2.987353827887409
20
71.940394430527718
30
0
10
-2.8854188635656453
20
71.140424672097197
30
0
10
-2.2780629776656447
20
70.598882215100076
30
0
10
-1.3951775512050046
20
70.213942384619656
30
0
10
-0.55150520158203875
20
69.980126103886136
30
0
10
-0.010634215272169456
20
69.90901639715085
30
0
10
0.52365347886900171
20
70.000704352611521
30
0
10
1.3687992937002447
20
70.230770201757565
30
0
10
2.2472771564821548
20
70.610032498907458
30
0
10
2.8348308084744911
20
71.165746993575354
30
0
10
2.9041468192753728
20
71.990735413415692
30
0
10
2.5888747853950278
20
73.176345624981977
30
0
10
2.0066583078484346
20
74.555780843908863
30
0
10
1.3146511458907462
20
75.875399206955052
30
0
10
0.76153491795412975
20
76.645220455472383
30
0
10
0.37886709195929402
20
76.952373950518592
30
0
10
0.12669727118123753
20
77.02081545929542
30
0
10
8.8817841970012523e-15
20
77.02081545929542
30
0
0
CIRCLE
5
240
100
AcDbEntity
8
0
100
AcDbCircle
10
8.8817841970012523e-15
20
65.000000000000014
30
0
40
2.5499999999999989
210
0
220
0
230
1
0
LWPOLYLINE
5
241
100
AcDbEntity
8
0
100
AcDbPolyline
90
4
70
1
43
0.0
10
2.4426238216027607
20
68.927535127307436
42
1.0041826302572601
10
3.9275351093961861
20
67.442623803541366
10
4.9881489364830456
20
68.50322469649447
42
1.0000130295293521
10
3.5032440439844326
20
69.988168284475194
0
LWPOLYLINE
5
242
100
AcDbEntity
8
0
100
AcDbPolyline
90
4
70
1
43
0.0
10
-4.9881489433207573
20
61.496775296667074
42
1.0000130249250745
10
-3.5032440439827308
20
60.011831715525467
10
-2.4426173534509532
20
61.07245840454064
42
1.0041826120004294
10
-3.9275351093963744
20
62.557376196458435
0
LWPOLYLINE
5
243
100
AcDbEntity
8
0
100
AcDbPolyline
90
4
70
1
43
0.0
10
-3.9275351601668191
20
67.442623854737619
42
1.0041826525721615
10
-2.4426238035415451
20
68.927535109396388
10
-3.5032246932108668
20
69.988148933198303
42
1.0000130317446208
10
-4.9881682844735078
20
68.50324404398178
0
CIRCLE
5
244
100
AcDbEntity
8
0
100
AcDbCircle
10
12.727922251018672
20
-12.727922251018676
30
0
40
1.0499999999999998
210
0
220
0
230
1
0
CIRCLE
5
245
100
AcDbEntity
8
0
100
AcDbCircle
10
12.727922251018676
20
12.727922251018672
30
0
40
1.05
210
0
220
0
230
1
0
CIRCLE
5
246
100
AcDbEntity
8
0
100
AcDbCircle
10
1.1102230246251565e-15
20
14.142135834465194
30
0
40
1.0499999999999998
210
0
220
0
230
1
0
CIRCLE
5
247
100
AcDbEntity
8
0
100
AcDbCircle
10
-12.727922251018672
20
12.727922251018676
30
0
40
1.0499999999999998
210
0
220
0
230
1
0
CIRCLE
5
248
100
AcDbEntity
8
0
100
AcDbCircle
10
-1.1102230246251565e-15
20
-14.142135834465194
30
0
40
1.0499999999999998
210
0
220
0
230
1
0
CIRCLE
5
249
100
AcDbEntity
8
0
100
AcDbCircle
10
14.142135834465194
20
-1.1102230246251565e-15
30
0
40
1.0000000000000009
210
0
220
0
230
1
0
LWPOLYLINE
5
250
100
AcDbEntity
8
0
100
AcDbPolyline
90
6
70
1
43
0.0
10
12.011570086115475
20
18.336424719629058
42
0.52715949420973351
10
11.70823968617843
20
16.714460226038518
10
16.714460173354958
20
11.708239738861984
42
0.52715949420973329
10
18.336424666945497
20
12.011570138799033
10
22.291555619357915
20
20.972921578387982
42
0.68489980318675125
10
20.972921525704425
20
22.291555672041483
0
SPLINE
5
251
100
AcDbEntity
8
0
100
AcDbSpline
70
0
71
3
72
16
73
12
74
0
42
0.000000001
43
0.0000000001
44
0.0000000001
40
0
40
0
40
0
40
0
40
0.039064447338692673
40
0.039064447338692673
40
0.078128894677385388
40
0.078128894677385388
40
0.11719334201607823
40
0.11719334201607823
40
0.15625778935477108
40
0.15625778935477108
40
0.19406013121493196
40
0.19406013121493196
40
0.19406013121493196
40
0.19406013121493196
10
-0.49417692484874154
20
10.819531742723417
30
0
10
-0.4021011394604268
20
10.91160752811173
30
0
10
-0.32889009711295936
20
11.020787467153907
30
0
10
-0.22843915858999475
20
11.261064829776473
30
0
10
-0.20215962813677213
20
11.389865070808911
30
0
10
-0.20045083678312814
20
11.650289113614312
30
0
10
-0.22503791285940933
20
11.779423119595986
30
0
10
-0.32232714294576303
20
12.020997968759151
30
0
10
-0.39409915888948044
20
12.131129224714172
30
0
10
-0.57288281165404964
20
12.314667890852801
30
0
10
-0.6770805130591262
20
12.38750377451372
30
0
10
-0.79205399072849181
20
12.439069913171599
30
0
0
SPLINE
5
252
100
AcDbEntity
8
0
100
AcDbSpline
70
4
71
5
72
20
73
14
74
0
42
0.000000001
43
0.0000000001
44
0.0000000001
40
0.42889475480779471
40
0.42889475480779471
40
0.42889475480779471
40
0.42889475480779471
40
0.42889475480779471
40
0.42889475480779471
40
0.46666666666666662
40
0.53333333333333333
40
0.59999999999999998
40
0.66666666666666663
40
0.73333333333333328
40
0.79999999999999993
40
0.86666666666666659
40
0.93333333333333324
40
0.93873238992647212
40
0.93873238992647212
40
0.93873238992647212
40
0.93873238992647212
40
0.93873238992647212
40
0.93873238992647212
41
1
41
1
41
1
41
1
41
1
41
1
41
1
41
1
41
1
41
1
41
1
41
1
41
1
41
1
10
-0.79205399072848071
20
12.439069913171597
30
0
10
-0.99975572125621137
20
12.532225103855442
30
0
10
-1.6646820929180273
20
12.742197080466013
30
0
10
-3.1402934109263314
20
12.877796096459068
30
0
10
-5.8161642934454063
20
12.684272684402023
30
0
10
-9.2191348350389148
20
12.165561934234969
30
0
10
-11.377265965797392
20
11.709555334884501
30
0
10
-11.86168617207699
20
10.731298603160429
30
0
10
-12.401556964897697
20
7.68694523882907
30
0
10
-12.754796417120096
20
4.4741454551487418
30
0
10
-12.782305129983627
20
2.3614848356707476
30
0
10
-12.596773894998483
20
1.322116810298154
30
0
10
-12.440961623451614
20
0.90027444910573795
30
0
10
-12.428953234477426
20
0.86933836631898465
30
0
0
SPLINE
5
253
100
AcDbEntity
8
0
100
AcDbSpline
70
0
71
3
72
18
73
14
74
0
42
0.000000001
43
0.0000000001
44
0.0000000001
40
0
40
0
40
0
40
0
40
0.039064447338692791
40
0.039064447338692791
40
0.078128894677385555
40
0.078128894677385555
40
0.11719334201607831
40
0.11719334201607831
40
0.15625778935477111
40
0.15625778935477111
40
0.17769104324424678
40
0.17769104324424678
40
0.19912429713372246
40
0.19912429713372246
40
0.19912429713372246
40
0.19912429713372246
10
-12.428953234477424
20
0.86933836631898243
30
0
10
-12.381833409284425
20
0.74794799362192244
30
0
10
-12.311453836194318
20
0.63692172870001285
30
0
10
-12.132098104481903
20
0.44809608547085711
30
0
10
-12.024836684411193
20
0.37210198323080923
30
0
10
-11.787221583250107
20
0.26550617778234864
30
0
10
-11.659139632037064
20
0.23592358857322804
30
0
10
-11.398845626287583
20
0.22751926766730657
30
0
10
-11.269122124317306
20
0.2487778858590739
30
0
10
-11.080187826477799
20
0.31927742509185286
30
0
10
-11.016120767063855
20
0.35135567392329592
30
0
10
-10.895920937958534
20
0.42861552310755058
30
0
10
-10.840133528359734
20
0.47357513921242211
30
0
10
-10.789614864465928
20
0.52409380310622589
30
0
0
LINE
5
254
100
AcDbEntity
8
0
100
AcDbLine
10
-10.789614864465928
20
0.52409380310622589
30
0
11
-0.49417692484874154
21
10.819531742723417
31
0
0
CIRCLE
5
255
100
AcDbEntity
8
0
100
AcDbCircle
10
-14.142135834465194
20
1.1102230246251565e-15
30
0
40
1.0499999999999998
210
0
220
0
230
1
0
CIRCLE
5
256
100
AcDbEntity
8
0
100
AcDbCircle
10
24.779344221714886
20
24.779344221714883
30
0
40
1
210
0
220
0
230
1
0
LWPOLYLINE
5
257
100
AcDbEntity
8
0
100
AcDbPolyline
90
8
70
1
43
0.0
10
9.1923881554251192
20
14.142135623730949
42
0.4142135623730952
10
7.0710678118654773
20
14.142135623730947
10
-1.4142135623730923
20
5.6568542494923824
42
0.41421356237309537
10
-1.4142135623730949
20
3.5355339059327386
10
3.5355339059327386
20
-1.4142135623730956
42
0.41421356237309481
10
5.6568542494923797
20
-1.4142135623730949
10
14.142135623730951
20
7.0710678118654773
42
0.4142135623730947
10
14.142135623730951
20
9.1923881554251174
0
SPLINE
5
258
100
AcDbEntity
8
0
100
AcDbSpline
70
0
71
3
72
18
73
14
74
0
42
0.000000001
43
0.0000000001
44
0.0000000001
40
0
40
0
40
0
40
0
40
0.039064447338692777
40
0.039064447338692777
40
0.078128894677385582
40
0.078128894677385582
40
0.11719334201607826
40
0.11719334201607826
40
0.15625778935477097
40
0.15625778935477097
40
0.17769104324424664
40
0.17769104324424664
40
0.19912429713372237
40
0.19912429713372237
40
0.19912429713372237
40
0.19912429713372237
10
0.52409380310622367
20
-10.789614864465928
30
0
10
0.43201801771790893
20
-10.881690649854242
30
0
10
0.35880697537043926
20
-10.990870588896421
30
0
10
0.25835603684747688
20
-11.231147951518988
30
0
10
0.23207650639425426
20
-11.359948192551423
30
0
10
0.23036771504060916
20
-11.620372235356825
30
0
10
0.25495479111689257
20
-11.749506241338498
30
0
10
0.35224402120324405
20
-11.991081090501661
30
0
10
0.42401603714696146
20
-12.101212346456684
30
0
10
0.56472700116876662
20
-12.245665724874069
30
0
10
0.61991962100544584
20
-12.291353544537582
30
0
10
0.73909525171001134
20
-12.370184073262752
30
0
10
0.80273584522873365
20
-12.403100285174622
30
0
10
0.86933836631898131
20
-12.428953234477426
30
0
0
SPLINE
5
259
100
AcDbEntity
8
0
100
AcDbSpline
70
4
71
5
72
20
73
14
74
0
42
0.000000001
43
0.0000000001
44
0.0000000001
40
-0.93873238992647212
40
-0.93873238992647212
40
-0.93873238992647212
40
-0.93873238992647212
40
-0.93873238992647212
40
-0.93873238992647212
40
-0.93333333333333324
40
-0.86666666666666659
40
-0.79999999999999993
40
-0.73333333333333328
40
-0.66666666666666663
40
-0.59999999999999998
40
-0.53333333333333333
40
-0.46666666666666662
40
-0.42889475480779465
40
-0.42889475480779465
40
-0.42889475480779465
40
-0.42889475480779465
40
-0.42889475480779465
40
-0.42889475480779465
41
1
41
1
41
1
41
1
41
1
41
1
41
1
41
1
41
1
41
1
41
1
41
1
41
1
41
1
10
0.86933836631898243
20
-12.428953234477426
30
0
10
0.90027444910573573
20
-12.440961623451614
30
0
10
1.3221168102981518
20
-12.596773894998483
30
0
10
2.361484835670745
20
-12.782305129983627
30
0
10
4.4741454551487401
20
-12.754796417120097
30
0
10
7.68694523882907
20
-12.401556964897697
30
0
10
10.731298603160425
20
-11.861686172076993
30
0
10
11.709555334884501
20
-11.377265965797392
30
0
10
12.165561934234967
20
-9.2191348350389166
30
0
10
12.684272684402023
20
-5.8161642934454072
30
0
10
12.877796096459072
20
-3.1402934109263314
30
0
10
12.742197080466012
20
-1.6646820929180262
30
0
10
12.532225103855437
20
-0.99975572125621026
30
0
10
12.439069913171593
20
-0.7920539907284796
30
0
0
SPLINE
5
260
100
AcDbEntity
8
0
100
AcDbSpline
70
0
71
3
72
16
73
12
74
0
42
0.000000001
43
0.0000000001
44
0.0000000001
40
0
40
0
40
0
40
0
40
0.039064447338692784
40
0.039064447338692784
40
0.078128894677385527
40
0.078128894677385527
40
0.11719334201607824
40
0.11719334201607824
40
0.15625778935477108
40
0.15625778935477108
40
0.1940601312149326
40
0.1940601312149326
40
0.1940601312149326
40
0.1940601312149326
10
12.4390699131716
20
-0.79205399072849736
30
0
10
12.385782137628167
20
-0.67324189754189301
30
0
10
12.30979717847557
20
-0.56597400023130962
30
0
10
12.120986823960674
20
-0.3866021739403358
30
0
10
12.009966558497126
20
-0.31621313738448786
30
0
10
11.767193846839174
20
-0.22195279305430526
30
0
10
11.637762440089567
20
-0.19898266554762567
30
0
10
11.377380136302113
20
-0.20394833905061915
30
0
10
11.248918636007797
20
-0.23183666551510052
30
0
10
11.0137772412324
20
-0.33361368122528656
30
0
10
10.90863271697026
20
-0.40507595060190416
30
0
10
10.819531742723418
20
-0.49417692484874487
30
0
0
LINE
5
261
100
AcDbEntity
8
0
100
AcDbLine
10
10.819531742723418
20
-0.49417692484874493
30
0
11
0.52409380310622367
21
-10.789614864465928
31
0
0
SPLINE
5
262
100
AcDbEntity
8
0
100
AcDbSpline
70
0
71
3
72
8
73
4
74
0
42
0.000000001
43
0.0000000001
44
0.0000000001
40
0
40
0
40
0
40
0
40
0.051354240151970931
40
0.051354240151970931
40
0.051354240151970931
40
0.051354240151970931
10
2.5000000000000044
20
53.25939656169659
30
0
10
2.5
20
53.430577362203152
30
0
10
2.5087905064752691
20
53.601327908008201
30
0
10
2.5262414928614652
20
53.770988501299811
30
0
0
LINE
5
263
100
AcDbEntity
8
0
100
AcDbLine
10
2.4999999999999956
20
18.06593230657916
30
0
11
2.5000000000000044
21
53.25939656169659
31
0
0
ARC
5
264
100
AcDbEntity
8
0
100
AcDbCircle
10
3.4999999999999982
20
18.065932306579164
30
0
40
1.0000000000000027
210
0
220
0
230
1
100
AcDbArc
50
180
51
296.4338018540189
0
LINE
5
265
100
AcDbEntity
8
0
100
AcDbLine
10
3.9451635301963197
20
17.170483016343724
30
0
11
4.2561103776394349
21
17.325067086955691
31
0
0
ARC
5
266
100
AcDbEntity
8
0
100
AcDbCircle
10
-3.7029481842232004
20
35.673183797093635
30
0
40
20.00000000000005
210
-0
220
0
230
1
100
AcDbArc
50
293.45026835171109
51
295.97439396243124
0
LINE
5
267
100
AcDbEntity
8
0
100
AcDbLine
10
5.056440281370671
20
17.693386420348226
30
0
11
20.049151340784036
21
24.997527705703433
31
0
0
ARC
5
268
100
AcDbEntity
8
0
100
AcDbCircle
10
18.954227782584802
20
27.245002377796613
30
0
40
2.5000000000000009
210
-0
220
0
230
1
100
AcDbArc
50
295.97439396243118
51
317.0608598657256
0
ARC
5
269
100
AcDbEntity
8
0
100
AcDbCircle
10
19.654370561616894
20
26.528348874226054
30
0
40
1.5000000000000022
210
0
220
0
230
1
100
AcDbArc
50
-41.117056314855319
51
31.636454511802999
0
LINE
5
270
100
AcDbEntity
8
0
100
AcDbLine
10
4.3723865693665864
20
54.193197825587305
30
0
11
20.931460624232997
21
27.315140442538251
31
0
0
SPLINE
5
271
100
AcDbEntity
8
0
100
AcDbSpline
70
0
71
3
72
20
73
16
74
0
42
0.000000001
43
0.0000000001
44
0.0000000001
40
0
40
0
40
0
40
0
40
0.039064447338693284
40
0.039064447338693284
40
0.078128894677385319
40
0.078128894677385319
40
0.11719334201607856
40
0.11719334201607856
40
0.156257789354771
40
0.156257789354771
40
0.19532223669346438
40
0.19532223669346438
40
0.22235528543012814
40
0.22235528543012814
40
0.24938833416679171
40
0.24938833416679171
40
0.24938833416679171
40
0.24938833416679171
10
2.5262414928614652
20
53.770988501299826
30
0
10
2.5395648637838208
20
53.900519919484822
30
0
10
2.5780612223403265
20
54.026210596103027
30
0
10
2.7010662255435758
20
54.255760963617369
30
0
10
2.7843988753167892
20
54.357426027885438
30
0
10
2.9853433812528607
20
54.52309107420816
30
0
10
3.1010340984157558
20
54.585507208125534
30
0
10
3.349828694006991
20
54.66248026343446
30
0
10
3.4805539604979563
20
54.676301280463697
30
0
10
3.7399441643473175
20
54.653056406061246
30
0
10
3.8661291899783423
20
54.616212748298253
30
0
10
4.0616789792638563
20
54.514707183077711
30
0
10
4.1356793698448113
20
54.462572340960484
30
0
10
4.2677023729187402
20
54.339896784428632
30
0
10
4.3251212920070703
20
54.2699170209291
30
0
10
4.3723865693665864
20
54.193197825587305
30
0
0
LINE
5
272
100
AcDbEntity
8
0
100
AcDbLine
10
54.193197825587319
20
4.3723865693665696
30
0
11
27.315789040338082
21
20.931061035124078
31
0
0
ARC
5
273
100
AcDbEntity
8
0
100
AcDbCircle
10
26.5289974720259
20
19.653970972507967
30
0
40
1.4999999999999869
210
0
220
-0
230
1
100
AcDbArc
50
58.363545488197602
51
132.11002673081603
0
ARC
5
274
100
AcDbEntity
8
0
100
AcDbCircle
10
27.245002377796631
20
18.954227782584802
30
0
40
2.4999999999999871
210
0
220
0
230
1
100
AcDbArc
50
133.53012235774159
51
154.02560603756871
0
LINE
5
275
100
AcDbEntity
8
0
100
AcDbLine
10
24.997527705703458
20
20.049151340784039
30
0
11
17.693386420348247
21
5.0564402813707066
31
0
0
ARC
5
276
100
AcDbEntity
8
0
100
AcDbCircle
10
35.673183797093635
20
-3.7029481842232048
30
0
40
19.999999999999996
210
0
220
0
230
1
100
AcDbArc
50
154.02560603756868
51
154.13164307215985
0
LINE
5
277
100
AcDbEntity
8
0
100
AcDbLine
10
17.677206260868008
20
5.023150171609295
30
0
11
17.140418404384363
21
3.9460376666827202
31
0
0
ARC
5
278
100
AcDbEntity
8
0
100
AcDbCircle
10
18.035432594160273
20
3.4999999999999956
30
0
40
0.99999999999999822
210
0
220
0
230
1
100
AcDbArc
50
153.51025248948577
51
270
0
LINE
5
279
100
AcDbEntity
8
0
100
AcDbLine
10
18.035432594160273
20
2.4999999999999951
30
0
11
53.259396561696583
21
2.4999999999999849
31
0
0
SPLINE
5
280
100
AcDbEntity
8
0
100
AcDbSpline
70
0
71
3
72
8
73
4
74
0
42
0.000000001
43
0.0000000001
44
0.0000000001
40
0.46505614017363017
40
0.46505614017363017
40
0.46505614017363017
40
0.46505614017363017
40
0.51638769071820489
40
0.51638769071820489
40
0.51638769071820489
40
0.51638769071820489
10
53.77098850129984
20
2.5262414928614429
30
0
10
53.601253856556887
20
2.5087828896748787
30
0
10
53.430501730178506
20
2.4999999999999822
30
0
10
53.25939656169659
20
2.4999999999999822
30
0
0
SPLINE
5
281
100
AcDbEntity
8
0
100
AcDbSpline
70
0
71
3
72
20
73
16
74
0
42
0.000000001
43
0.0000000001
44
0.0000000001
40
0
40
0
40
0
40
0
40
0.039064447338692486
40
0.039064447338692486
40
0.078128894677384958
40
0.078128894677384958
40
0.11719334201607765
40
0.11719334201607765
40
0.15625778935477075
40
0.15625778935477075
40
0.19532223669346371
40
0.19532223669346371
40
0.22235528543012728
40
0.22235528543012728
40
0.24938833416679018
40
0.24938833416679018
40
0.24938833416679018
40
0.24938833416679018
10
54.193197825587319
20
4.3723865693665642
30
0
10
54.3040618644714
20
4.304085285395769
30
0
10
54.40052522316396
20
4.2147827868830934
30
0
10
54.553791313749151
20
4.004228500496585
30
0
10
54.60912873827931
20
3.884989726361554
30
0
10
54.670982790427658
20
3.6320121023079022
30
0
10
54.676908059594254
20
3.5006918563587019
30
0
10
54.638088052844211
20
3.2431717423580109
30
0
10
54.593713917350648
20
3.1194339069556865
30
0
10
54.460032756182166
20
2.895932342782972
30
0
10
54.37200379526989
20
2.7983054107838434
30
0
10
54.195590517235402
20
2.6663150505544753
30
0
10
54.116473068785389
20
2.6223317705553617
30
0
10
53.948606883876394
20
2.5567550256288518
30
0
10
53.860625738718426
20
2.5354614194191605
30
0
10
53.77098850129984
20
2.5262414928614429
30
0
0
ARC
5
282
100
AcDbEntity
8
0
100
AcDbCircle
10
33.457366290697465
20
33.45736629069745
30
0
40
9.9999999999999556
210
0
220
0
230
1
100
AcDbArc
50
211.62949241870544
51
238.37050758129448
0
LINE
5
283
100
AcDbEntity
8
0
100
AcDbLine
10
28.213123747749908
20
24.942795241564202
30
0
11
57.899247073572546
21
6.6586996621028272
31
0
0
SPLINE
5
284
100
AcDbEntity
8
0
100
AcDbSpline
70
0
71
3
72
14
73
10
74
0
42
0.000000001
43
0.0000000001
44
0.0000000001
40
0
40
0
40
0
40
0
40
0.039064447338692639
40
0.039064447338692639
40
0.078128894677385541
40
0.078128894677385541
40
0.099870725679680514
40
0.099870725679680514
40
0.12161255668197583
40
0.12161255668197583
40
0.12161255668197583
40
0.12161255668197583
10
59.037742037669638
20
6.7209057528496352
30
0
10
58.934969855403253
20
6.6409446431652785
30
0
10
58.817562048422459
20
6.5818216977818134
30
0
10
58.566692251830368
20
6.5119078422391041
30
0
10
58.435628714209109
20
6.5017853466448328
30
0
10
58.234341747999622
20
6.5255722797425841
30
0
10
58.163507174446032
20
6.5418763759789167
30
0
10
58.0266111909933
20
6.5895072408129263
30
0
10
57.960954528508296
20
6.6206931837348693
30
0
10
57.899247073572539
20
6.658699662102805
30
0
0
SPLINE
5
285
100
AcDbEntity
8
0
100
AcDbSpline
70
0
71
3
72
50
73
46
74
0
42
0.000000001
43
0.0000000001
44
0.0000000001
40
-1
40
-1
40
-1
40
-1
40
-0.95994046906715014
40
-0.95994046906715014
40
-0.95994046906715014
40
-0.90699590177569334
40
-0.90699590177569334
40
-0.90699590177569334
40
-0.86679470739432196
40
-0.86679470739432196
40
-0.86679470739432196
40
-0.82880453464642756
40
-0.82880453464642756
40
-0.82880453464642756
40
-0.79032966380277125
40
-0.79032966380277125
40
-0.79032966380277125
40
-0.74093405981509808
40
-0.74093405981509808
40
-0.74093405981509808
40
-0.70104552547960641
40
-0.70104552547960641
40
-0.70104552547960641
40
-0.66032710988501075
40
-0.66032710988501075
40
-0.66032710988501075
40
-0.63543498962181799
40
-0.63543498962181799
40
-0.63543498962181799
40
-0.59134504032931923
40
-0.59134504032931923
40
-0.59134504032931923
40
-0.55577253099100365
40
-0.55577253099100365
40
-0.55577253099100365
40
-0.51818000316311352
40
-0.51818000316311352
40
-0.51818000316311352
40
-0.47714101070005299
40
-0.47714101070005299
40
-0.47714101070005299
40
-0.44639005930805775
40
-0.44639005930805775
40
-0.44639005930805775
40
-0.4417099179029263
40
-0.4417099179029263
40
-0.4417099179029263
40
-0.4417099179029263
10
71.711689905296097
20
-6.3079895424544663
30
0
10
72.360482490205555
20
-5.7355208815208814
30
0
10
72.990645883634485
20
-5.0548696416179784
30
0
10
73.747686272688057
20
-4.5303716154500817
30
0
10
74.748226590740813
20
-3.8371702625128545
30
0
10
75.970660779361708
20
-3.3714197182345851
30
0
10
77.087550560090278
20
-2.8586921498025086
30
0
10
77.935613080470574
20
-2.4693743841145466
30
0
10
78.725298856300356
20
-2.0226543712612077
30
0
10
79.203059445413516
20
-1.3436652437578855
30
0
10
79.654543725715257
20
-0.70201977414600769
30
0
10
79.76869079217937
20
0.14380529468057901
30
0
10
79.468250593169756
20
0.85837207572938556
30
0
10
79.163977224110681
20
1.5820556660216756
30
0
10
78.484074772561442
20
2.1014923419507614
30
0
10
77.701264152002693
20
2.4872734045686107
30
0
10
76.696260039900778
20
2.9825548227298171
30
0
10
75.496631573139069
20
3.336107103806123
30
0
10
74.436374730597208
20
3.8740991345636377
30
0
10
73.58018332784151
20
4.3085449527876163
30
0
10
72.830771400991907
20
4.878184963901222
30
0
10
72.176130145745034
20
5.5306834912887037
30
0
10
71.507869074222214
20
6.1967572554827655
30
0
10
70.949424188796485
20
6.9305586914873407
30
0
10
70.177358005966425
20
7.2471137126726326
30
0
10
69.705375882067187
20
7.4406312045051859
30
0
10
69.169216692700303
20
7.4134870466439073
30
0
10
68.702319738388098
20
7.2438069392481852
30
0
10
67.875332610622735
20
6.9432625399795667
30
0
10
67.13230654130534
20
6.3019819369695318
30
0
10
66.423643738128817
20
5.8900793249231853
30
0
10
65.851882722563246
20
5.5577494005613071
30
0
10
65.359761558371062
20
5.3989287003924114
30
0
10
64.889875904235282
20
5.4396537143003565
30
0
10
64.393307350101864
20
5.4826913365289576
30
0
10
63.854412405979808
20
5.7607541944156404
30
0
10
63.261348990675174
20
6.1406187364797704
30
0
10
62.613913810411866
20
6.5553090746801113
30
0
10
61.927041390734885
20
7.067553279450296
30
0
10
61.124992101760149
20
7.2456449952948576
30
0
10
60.524008080979272
20
7.379091002824949
30
0
10
59.856154415987213
20
7.2630262319233063
30
0
10
59.29063491528639
20
6.9003254780321521
30
0
10
59.204565668293014
20
6.8451242325708472
30
0
10
59.120289526091611
20
6.7851311943136006
30
0
10
59.037742037583655
20
6.7209057527827243
30
0
0
SPLINE
5
286
100
AcDbEntity
8
0
100
AcDbSpline
70
0
71
3
72
32
73
28
74
0
42
0.000000001
43
0.0000000001
44
0.0000000001
40
-0.28422554608153405
40
-0.28422554608153405
40
-0.28422554608153405
40
-0.28422554608153405
40
-0.27740639799606592
40
-0.27740639799606592
40
-0.27740639799606592
40
-0.24042371293807954
40
-0.24042371293807954
40
-0.24042371293807954
40
-0.21254514455781559
40
-0.21254514455781559
40
-0.21254514455781559
40
-0.15940885841836169
40
-0.15940885841836169
40
-0.15940885841836169
40
-0.13155317245534001
40
-0.13155317245534001
40
-0.13155317245534001
40
-0.10358486784357974
40
-0.10358486784357974
40
-0.10358486784357974
40
-0.057929213951855726
40
-0.057929213951855726
40
-0.057929213951855726
40
-0.028526070490429628
40
-0.028526070490429628
40
-0.028526070490429628
40
0
40
0
40
0
40
0
10
57.40449250863179
20
-4.9729532573446233
30
0
10
57.504207613967154
20
-5.1431957374679715
30
0
10
57.609661200689821
20
-5.3111077417592378
30
0
10
57.719256598477614
20
-5.4731771282032504
30
0
10
58.313631735868725
20
-6.3521375205098662
30
0
10
59.037874231827359
20
-7.0875276610876758
30
0
10
59.871494349084188
20
-7.3912196209220093
30
0
10
60.499900193756353
20
-7.6201509993631067
30
0
10
61.183933778332232
20
-7.5544865890553803
30
0
10
61.758048090256175
20
-7.2766321691082592
30
0
10
62.852304507552788
20
-6.747044287763746
30
0
10
63.667884920097734
20
-5.6012883704860528
30
0
10
64.358902099056621
20
-4.9526004817953906
30
0
10
64.721154693858111
20
-4.6125382112038826
30
0
10
65.017941413646923
20
-4.4355100449670193
30
0
10
65.256144731823085
20
-4.3997483305553331
30
0
10
65.495311089855946
20
-4.3638420339581963
30
0
10
65.765788298691831
20
-4.4396697019074249
30
0
10
66.150939144824989
20
-4.690212567142269
30
0
10
66.779662049958318
20
-5.0992004732376994
30
0
10
67.568723588913343
20
-5.9295056668140189
30
0
10
68.396577715044472
20
-6.5082818267560549
30
0
10
68.929732134286724
20
-6.8810251129038846
30
0
10
69.520963032135768
20
-7.1594439634562912
30
0
10
70.137844513611768
20
-7.110711680229187
30
0
10
70.736324898809727
20
-7.0634330432249604
30
0
10
71.249689912290378
20
-6.7156398817138374
30
0
10
71.711689905296097
20
-6.3079895424544663
30
0
0
SPLINE
5
287
100
AcDbEntity
8
0
100
AcDbSpline
70
0
71
3
72
12
73
8
74
0
42
0.000000001
43
0.0000000001
44
0.0000000001
40
0
40
0
40
0
40
0
40
0.1953222366934643
40
0.1953222366934643
40
0.35856191305935065
40
0.35856191305935065
40
0.52180158942523658
40
0.52180158942523658
40
0.52180158942523658
40
0.52180158942523658
10
53.090093968807864
20
-2.5000000000000133
30
0
10
53.741168091119405
20
-2.5000000000000133
30
0
10
54.386017589958854
20
-2.6271692538231362
30
0
10
55.491738916662371
20
-3.0809297974698691
30
0
10
55.958050851478646
20
-3.3683050415615012
30
0
10
56.779664167384496
20
-4.0819374405637365
30
0
10
57.129482980343425
20
-4.5034325764417371
30
0
10
57.40449250863179
20
-4.9729532573446056
30
0
0
LINE
5
288
100
AcDbEntity
8
0
100
AcDbLine
10
53.090093968807864
20
-2.5000000000000133
30
0
11
17.394676659533808
21
-2.4999999999999991
31
0
0
ARC
5
289
100
AcDbEntity
8
0
100
AcDbCircle
10
17.394676659533804
20
-4.4999999999999938
30
0
40
1.9999999999999949
210
0
220
-0
230
1
100
AcDbArc
50
89.999999999999901
51
172.69424046668939
0
LINE
5
290
100
AcDbEntity
8
0
100
AcDbLine
10
15.410913330162103
20
-4.2456713680292681
30
0
11
14.323553674226099
21
-12.727076684330122
31
0
0
ARC
5
291
100
AcDbEntity
8
0
100
AcDbCircle
10
12.357918372196998
20
-12.357918372196998
30
0
40
2.0000000000000115
210
0
220
0
230
1
100
AcDbArc
50
280.63659727507832
51
349.36340272492589
0
LINE
5
292
100
AcDbEntity
8
0
100
AcDbLine
10
12.727076684330266
20
-14.323553674226082
30
0
11
4.2456713680292673
21
-15.410913330162106
31
0
0
ARC
5
293
100
AcDbEntity
8
0
100
AcDbCircle
10
4.4999999999999956
20
-17.394676659533811
30
0
40
2.0000000000000022
210
0
220
0
230
1
100
AcDbArc
50
97.305759533310749
51
180
0
LINE
5
294
100
AcDbEntity
8
0
100
AcDbLine
10
2.4999999999999956
20
-17.394676659533808
30
0
11
2.5000000000000062
21
-53.090093968807864
31
0
0
SPLINE
5
295
100
AcDbEntity
8
0
100
AcDbSpline
70
0
71
3
72
12
73
8
74
0
42
0.000000001
43
0.0000000001
44
0.0000000001
40
0
40
0
40
0
40
0
40
0.19532223669346568
40
0.19532223669346568
40
0.3585619130593507
40
0.3585619130593507
40
0.52180158942523525
40
0.52180158942523525
40
0.52180158942523525
40
0.52180158942523525
10
4.9729532573445967
20
-57.40449250863179
30
0
10
4.4111546088209774
20
-57.075433560628859
30
0
10
3.9189995913091069
20
-56.639788826918803
30
0
10
3.1942299165863464
20
-55.689406166144835
30
0
10
2.937100945351907
20
-55.205757488258982
30
0
10
2.5888239731334783
20
-54.174727521477294
30
0
10
2.5000000000000044
20
-53.634226223360827
30
0
10
2.5000000000000044
20
-53.090093968807878
30
0
0
SPLINE
5
296
100
AcDbEntity
8
0
100
AcDbSpline
70
0
71
3
72
32
73
28
74
0
42
0.000000001
43
0.0000000001
44
0.0000000001
40
-0.28422554608153433
40
-0.28422554608153433
40
-0.28422554608153433
40
-0.28422554608153433
40
-0.27740639799606592
40
-0.27740639799606592
40
-0.27740639799606592
40
-0.24042371293807954
40
-0.24042371293807954
40
-0.24042371293807954
40
-0.21254514455781559
40
-0.21254514455781559
40
-0.21254514455781559
40
-0.15940885841836169
40
-0.15940885841836169
40
-0.15940885841836169
40
-0.13155317245534001
40
-0.13155317245534001
40
-0.13155317245534001
40
-0.10358486784357974
40
-0.10358486784357974
40
-0.10358486784357974
40
-0.057929213951855726
40
-0.057929213951855726
40
-0.057929213951855726
40
-0.028526070490429628
40
-0.028526070490429628
40
-0.028526070490429628
40
0
40
0
40
0
40
0
10
4.9729532573445834
20
-57.404492508631776
30
0
10
5.1431957374679405
20
-57.504207613967147
30
0
10
5.3111077417592245
20
-57.609661200689821
30
0
10
5.4731771282032415
20
-57.719256598477614
30
0
10
6.3521375205098574
20
-58.313631735868725
30
0
10
7.087527661087667
20
-59.037874231827359
30
0
10
7.3912196209220005
20
-59.871494349084188
30
0
10
7.6201509993630978
20
-60.499900193756353
30
0
10
7.5544865890553714
20
-61.183933778332232
30
0
10
7.2766321691082503
20
-61.758048090256175
30
0
10
6.7470442877637371
20
-62.852304507552788
30
0
10
5.6012883704860394
20
-63.667884920097734
30
0
10
4.9526004817953773
20
-64.358902099056621
30
0
10
4.6125382112038693
20
-64.721154693858111
30
0
10
4.4355100449670104
20
-65.017941413646923
30
0
10
4.3997483305553198
20
-65.256144731823085
30
0
10
4.3638420339581874
20
-65.495311089855946
30
0
10
4.4396697019074116
20
-65.765788298691831
30
0
10
4.6902125671422601
20
-66.150939144824989
30
0
10
5.0992004732376905
20
-66.779662049958318
30
0
10
5.92950566681401
20
-67.568723588913343
30
0
10
6.5082818267560461
20
-68.396577715044472
30
0
10
6.8810251129038713
20
-68.929732134286724
30
0
10
7.1594439634562779
20
-69.520963032135768
30
0
10
7.1107116802291737
20
-70.137844513611768
30
0
10
7.0634330432249515
20
-70.736324898809727
30
0
10
6.7156398817138196
20
-71.249689912290378
30
0
10
6.3079895424544574
20
-71.711689905296097
30
0
0
SPLINE
5
297
100
AcDbEntity
8
0
100
AcDbSpline
70
0
71
3
72
50
73
46
74
0
42
0.000000001
43
0.0000000001
44
0.0000000001
40
-1
40
-1
40
-1
40
-1
40
-0.95994046906715014
40
-0.95994046906715014
40
-0.95994046906715014
40
-0.90699590177569334
40
-0.90699590177569334
40
-0.90699590177569334
40
-0.86679470739432196
40
-0.86679470739432196
40
-0.86679470739432196
40
-0.82880453464642756
40
-0.82880453464642756
40
-0.82880453464642756
40
-0.79032966380277125
40
-0.79032966380277125
40
-0.79032966380277125
40
-0.74093405981509808
40
-0.74093405981509808
40
-0.74093405981509808
40
-0.70104552547960641
40
-0.70104552547960641
40
-0.70104552547960641
40
-0.66032710988501075
40
-0.66032710988501075
40
-0.66032710988501075
40
-0.63543498962181799
40
-0.63543498962181799
40
-0.63543498962181799
40
-0.59134504032931923
40
-0.59134504032931923
40
-0.59134504032931923
40
-0.55577253099100365
40
-0.55577253099100365
40
-0.55577253099100365
40
-0.51818000316311352
40
-0.51818000316311352
40
-0.51818000316311352
40
-0.47714101070005299
40
-0.47714101070005299
40
-0.47714101070005299
40
-0.44639005930805775
40
-0.44639005930805775
40
-0.44639005930805775
40
-0.4301815134243519
40
-0.4301815134243519
40
-0.4301815134243519
40
-0.4301815134243519
10
6.3079895424544574
20
-71.711689905296097
30
0
10
5.7355208815208725
20
-72.360482490205555
30
0
10
5.0548696416179606
20
-72.990645883634485
30
0
10
4.5303716154500728
20
-73.747686272688057
30
0
10
3.8371702625128368
20
-74.748226590740813
30
0
10
3.3714197182345718
20
-75.970660779361694
30
0
10
2.8586921498024953
20
-77.087550560090278
30
0
10
2.4693743841145288
20
-77.935613080470574
30
0
10
2.0226543712611944
20
-78.725298856300356
30
0
10
1.3436652437578767
20
-79.203059445413487
30
0
10
0.70201977414599437
20
-79.654543725715257
30
0
10
-0.14380529468058789
20
-79.76869079217937
30
0
10
-0.85837207572939889
20
-79.468250593169756
30
0
10
-1.58205566602168
20
-79.163977224110681
30
0
10
-2.1014923419507747
20
-78.484074772561428
30
0
10
-2.487273404568624
20
-77.701264152002679
30
0
10
-2.9825548227298304
20
-76.696260039900778
30
0
10
-3.3361071038061407
20
-75.496631573139069
30
0
10
-3.8740991345636555
20
-74.436374730597208
30
0
10
-4.3085449527876296
20
-73.580183327841496
30
0
10
-4.8781849639012353
20
-72.830771400991893
30
0
10
-5.5306834912887171
20
-72.17613014574502
30
0
10
-6.1967572554827743
20
-71.507869074222214
30
0
10
-6.930558691487354
20
-70.949424188796471
30
0
10
-7.2471137126726415
20
-70.177358005966425
30
0
10
-7.4406312045051948
20
-69.705375882067187
30
0
10
-7.4134870466439162
20
-69.169216692700303
30
0
10
-7.2438069392481941
20
-68.702319738388098
30
0
10
-6.94326253997958
20
-67.875332610622721
30
0
10
-6.3019819369695407
20
-67.13230654130534
30
0
10
-5.8900793249231986
20
-66.423643738128831
30
0
10
-5.5577494005613159
20
-65.851882722563246
30
0
10
-5.3989287003924247
20
-65.359761558371062
30
0
10
-5.4396537143003654
20
-64.889875904235282
30
0
10
-5.4826913365289665
20
-64.393307350101864
30
0
10
-5.7607541944156537
20
-63.854412405979808
30
0
10
-6.1406187364797793
20
-63.261348990675174
30
0
10
-6.5553090746801246
20
-62.613913810411859
30
0
10
-7.0675532794503049
20
-61.927041390734885
30
0
10
-7.2456449952948665
20
-61.124992101760149
30
0
10
-7.3790910028249579
20
-60.524008080979272
30
0
10
-7.2630262319233152
20
-59.856154415987213
30
0
10
-6.900325478032161
20
-59.29063491528639
30
0
10
-6.7091492202130443
20
-58.992554746696051
30
0
10
-6.4612685849623563
20
-58.71618839793495
30
0
10
-6.1755693940251311
20
-58.456677677739854
30
0
0
SPLINE
5
298
100
AcDbEntity
8
0
100
AcDbSpline
70
0
71
3
72
14
73
10
74
0
42
0.000000001
43
0.0000000001
44
0.0000000001
40
0
40
0
40
0
40
0
40
0.019532223669346448
40
0.019532223669346448
40
0.039064447338693103
40
0.039064447338693103
40
0.05588195944234331
40
0.05588195944234331
40
0.072699471545993155
40
0.072699471545993155
40
0.072699471545993155
40
0.072699471545993155
10
-6.1038198725000692
20
-57.797447763404229
30
0
10
-6.0661720638401606
20
-57.850566664282766
30
0
10
-6.0392594912809727
20
-57.910531173710936
30
0
10
-6.009934474384182
20
-58.037400964810921
30
0
10
-6.0078023931914837
20
-58.103093302130446
30
0
10
-6.0273771950187438
20
-58.222667441511035
30
0
10
-6.0456732746653774
20
-58.276074497307491
30
0
10
-6.0992112710880075
20
-58.374582608532471
30
0
10
-6.1340739642629805
20
-58.418985905300502
30
0
10
-6.1755693996947736
20
-58.456677682889797
30
0
0
LINE
5
299
100
AcDbEntity
8
0
100
AcDbLine
10
-6.1038198725000692
20
-57.797447763404229
30
0
11
-18.059721641657312
21
-40.928355415255808
31
0
0
ARC
5
300
100
AcDbEntity
8
0
100
AcDbCircle
10
-58.853003894952991
20
-69.840431145011678
30
0
40
50.000000000001862
210
0
220
-0
230
1
100
AcDbArc
50
35.326954957001504
51
44.999999999999901
0
LINE
5
301
100
AcDbEntity
8
0
100
AcDbLine
10
-23.497664835624235
20
-34.48509208568305
30
0
11
-34.485092085683114
21
-23.497664835624178
31
0
0
ARC
5
302
100
AcDbEntity
8
0
100
AcDbCircle
10
-69.840431145011635
20
-58.853003894952906
30
0
40
50.000000000001762
210
0
220
-0
230
1
100
AcDbArc
50
45.000000000000156
51
54.673045042998432
0
LINE
5
303
100
AcDbEntity
8
0
100
AcDbLine
10
-57.797447763404229
20
-6.1038198725000541
30
0
11
-40.928355415255794
21
-18.059721641657344
31
0
0
SPLINE
5
304
100
AcDbEntity
8
0
100
AcDbSpline
70
0
71
3
72
14
73
10
74
0
42
0.000000001
43
0.0000000001
44
0.0000000001
40
0
40
0
40
0
40
0
40
0.019532223669346132
40
0.019532223669346132
40
0.039064447338692465
40
0.039064447338692465
40
0.055881959442342921
40
0.055881959442342921
40
0.072699471545993141
40
0.072699471545993141
40
0.072699471545993141
40
0.072699471545993141
10
-58.456677682889797
20
-6.1755693996947647
30
0
10
-58.412901634100166
20
-6.1273757001085594
30
0
10
-58.360130806999059
20
-6.0881931943211853
30
0
10
-58.2425402194146
20
-6.0322615018624992
30
0
10
-58.178844689040396
20
-6.0160470526562193
30
0
10
-58.057859190105361
20
-6.0094397292475055
30
0
10
-58.001766612747133
20
-6.0158180444319687
30
0
10
-57.894047448521576
20
-6.0469105949322222
30
0
10
-57.843183864607056
20
-6.071404593598273
30
0
10
-57.797447763404236
20
-6.1038198725000559
30
0
0
SPLINE
5
305
100
AcDbEntity
8
0
100
AcDbSpline
70
0
71
3
72
50
73
46
74
0
42
0.000000001
43
0.0000000001
44
0.0000000001
40
-1
40
-1
40
-1
40
-1
40
-0.95994046906715014
40
-0.95994046906715014
40
-0.95994046906715014
40
-0.90699590177569334
40
-0.90699590177569334
40
-0.90699590177569334
40
-0.86679470739432196
40
-0.86679470739432196
40
-0.86679470739432196
40
-0.82880453464642756
40
-0.82880453464642756
40
-0.82880453464642756
40
-0.79032966380277125
40
-0.79032966380277125
40
-0.79032966380277125
40
-0.74093405981509808
40
-0.74093405981509808
40
-0.74093405981509808
40
-0.70104552547960641
40
-0.70104552547960641
40
-0.70104552547960641
40
-0.66032710988501075
40
-0.66032710988501075
40
-0.66032710988501075
40
-0.63543498962181799
40
-0.63543498962181799
40
-0.63543498962181799
40
-0.59134504032931923
40
-0.59134504032931923
40
-0.59134504032931923
40
-0.55577253099100365
40
-0.55577253099100365
40
-0.55577253099100365
40
-0.51818000316311352
40
-0.51818000316311352
40
-0.51818000316311352
40
-0.47714101070005299
40
-0.47714101070005299
40
-0.47714101070005299
40
-0.44639005930805775
40
-0.44639005930805775
40
-0.44639005930805775
40
-0.43018151342435185
40
-0.43018151342435185
40
-0.43018151342435185
40
-0.43018151342435185
10
-71.711689905296097
20
6.3079895424544663
30
0
10
-72.360482490205555
20
5.7355208815208814
30
0
10
-72.990645883634485
20
5.0548696416179784
30
0
10
-73.747686272688057
20
4.5303716154500817
30
0
10
-74.748226590740813
20
3.8371702625128545
30
0
10
-75.970660779361708
20
3.3714197182345851
30
0
10
-77.087550560090278
20
2.8586921498025086
30
0
10
-77.935613080470574
20
2.4693743841145466
30
0
10
-78.725298856300356
20
2.0226543712612077
30
0
10
-79.203059445413516
20
1.3436652437578855
30
0
10
-79.654543725715257
20
0.70201977414600769
30
0
10
-79.76869079217937
20
-0.14380529468057901
30
0
10
-79.468250593169756
20
-0.85837207572938556
30
0
10
-79.163977224110681
20
-1.5820556660216756
30
0
10
-78.484074772561442
20
-2.1014923419507614
30
0
10
-77.701264152002693
20
-2.4872734045686107
30
0
10
-76.696260039900778
20
-2.9825548227298171
30
0
10
-75.496631573139069
20
-3.336107103806123
30
0
10
-74.436374730597208
20
-3.8740991345636377
30
0
10
-73.58018332784151
20
-4.3085449527876163
30
0
10
-72.830771400991907
20
-4.878184963901222
30
0
10
-72.176130145745034
20
-5.5306834912887037
30
0
10
-71.507869074222214
20
-6.1967572554827655
30
0
10
-70.949424188796485
20
-6.9305586914873407
30
0
10
-70.177358005966425
20
-7.2471137126726326
30
0
10
-69.705375882067187
20
-7.4406312045051859
30
0
10
-69.169216692700303
20
-7.4134870466439073
30
0
10
-68.702319738388098
20
-7.2438069392481852
30
0
10
-67.875332610622735
20
-6.9432625399795667
30
0
10
-67.13230654130534
20
-6.3019819369695318
30
0
10
-66.423643738128817
20
-5.8900793249231853
30
0
10
-65.851882722563246
20
-5.5577494005613071
30
0
10
-65.359761558371062
20
-5.3989287003924114
30
0
10
-64.889875904235282
20
-5.4396537143003565
30
0
10
-64.393307350101864
20
-5.4826913365289576
30
0
10
-63.854412405979808
20
-5.7607541944156404
30
0
10
-63.261348990675174
20
-6.1406187364797704
30
0
10
-62.613913810411866
20
-6.5553090746801113
30
0
10
-61.927041390734885
20
-7.067553279450296
30
0
10
-61.124992101760149
20
-7.2456449952948576
30
0
10
-60.524008080979272
20
-7.379091002824949
30
0
10
-59.856154415987213
20
-7.2630262319233063
30
0
10
-59.29063491528639
20
-6.9003254780321521
30
0
10
-58.992554746696044
20
-6.7091492202130265
30
0
10
-58.716188397934943
20
-6.4612685849623386
30
0
10
-58.456677677739854
20
-6.1755693940251133
30
0
0
SPLINE
5
306
100
AcDbEntity
8
0
100
AcDbSpline
70
0
71
3
72
32
73
28
74
0
42
0.000000001
43
0.0000000001
44
0.0000000001
40
-0.28422554608153433
40
-0.28422554608153433
40
-0.28422554608153433
40
-0.28422554608153433
40
-0.27740639799606592
40
-0.27740639799606592
40
-0.27740639799606592
40
-0.24042371293807954
40
-0.24042371293807954
40
-0.24042371293807954
40
-0.21254514455781559
40
-0.21254514455781559
40
-0.21254514455781559
40
-0.15940885841836169
40
-0.15940885841836169
40
-0.15940885841836169
40
-0.13155317245534001
40
-0.13155317245534001
40
-0.13155317245534001
40
-0.10358486784357974
40
-0.10358486784357974
40
-0.10358486784357974
40
-0.057929213951855726
40
-0.057929213951855726
40
-0.057929213951855726
40
-0.028526070490429628
40
-0.028526070490429628
40
-0.028526070490429628
40
0
40
0
40
0
40
0
10
-57.404492508631776
20
4.9729532573445967
30
0
10
-57.504207613967147
20
5.1431957374679493
30
0
10
-57.609661200689821
20
5.3111077417592334
30
0
10
-57.719256598477614
20
5.4731771282032504
30
0
10
-58.313631735868725
20
6.3521375205098662
30
0
10
-59.037874231827359
20
7.0875276610876758
30
0
10
-59.871494349084188
20
7.3912196209220093
30
0
10
-60.499900193756353
20
7.6201509993631067
30
0
10
-61.183933778332232
20
7.5544865890553803
30
0
10
-61.758048090256175
20
7.2766321691082592
30
0
10
-62.852304507552788
20
6.747044287763746
30
0
10
-63.667884920097734
20
5.6012883704860528
30
0
10
-64.358902099056621
20
4.9526004817953906
30
0
10
-64.721154693858111
20
4.6125382112038826
30
0
10
-65.017941413646923
20
4.4355100449670193
30
0
10
-65.256144731823085
20
4.3997483305553331
30
0
10
-65.495311089855946
20
4.3638420339581963
30
0
10
-65.765788298691831
20
4.4396697019074249
30
0
10
-66.150939144824989
20
4.690212567142269
30
0
10
-66.779662049958318
20
5.0992004732376994
30
0
10
-67.568723588913343
20
5.9295056668140189
30
0
10
-68.396577715044472
20
6.5082818267560549
30
0
10
-68.929732134286724
20
6.8810251129038846
30
0
10
-69.520963032135768
20
7.1594439634562912
30
0
10
-70.137844513611768
20
7.110711680229187
30
0
10
-70.736324898809727
20
7.0634330432249604
30
0
10
-71.249689912290378
20
6.7156398817138374
30
0
10
-71.711689905296097
20
6.3079895424544663
30
0
0
SPLINE
5
307
100
AcDbEntity
8
0
100
AcDbSpline
70
0
71
3
72
12
73
8
74
0
42
0.000000001
43
0.0000000001
44
0.0000000001
40
0
40
0
40
0
40
0
40
0.19532223669346177
40
0.19532223669346177
40
0.35856191305934715
40
0.35856191305934715
40
0.52180158942523547
40
0.52180158942523547
40
0.52180158942523547
40
0.52180158942523547
10
-53.090093968807878
20
2.5000000000000222
30
0
10
-53.74116809111942
20
2.5000000000000266
30
0
10
-54.386017589958854
20
2.6271692538231362
30
0
10
-55.491738916662356
20
3.0809297974698646
30
0
10
-55.958050851478625
20
3.3683050415614924
30
0
10
-56.779664167384496
20
4.0819374405637321
30
0
10
-57.129482980343411
20
4.5034325764417371
30
0
10
-57.404492508631776
20
4.9729532573446145
30
0
0
LINE
5
308
100
AcDbEntity
8
0
100
AcDbLine
10
-17.394676659533808
20
2.4999999999999991
30
0
11
-53.090093968807878
21
2.5000000000000222
31
0
0
ARC
5
309
100
AcDbEntity
8
0
100
AcDbCircle
10
-17.394676659533811
20
4.5000000000000053
30
0
40
2.0000000000000058
210
0
220
0
230
1
100
AcDbArc
50
270.00000000000011
51
352.69424046668905
0
LINE
5
310
100
AcDbEntity
8
0
100
AcDbLine
10
-15.410913330162106
20
4.2456713680292699
30
0
11
-14.323553674226069
21
12.727076684330365
31
0
0
ARC
5
311
100
AcDbEntity
8
0
100
AcDbCircle
10
-12.357918372196998
20
12.357918372197002
30
0
40
2.000000000000008
210
0
220
0
230
1
100
AcDbArc
50
100.63659727507574
51
169.36340272491896
0
LINE
5
312
100
AcDbEntity
8
0
100
AcDbLine
10
-12.727076684330177
20
14.323553674226098
30
0
11
-4.2456713680292593
21
15.410913330162106
31
0
0
ARC
5
313
100
AcDbEntity
8
0
100
AcDbCircle
10
-4.4999999999999938
20
17.394676659533811
30
0
40
2.0000000000000036
210
0
220
0
230
1
100
AcDbArc
50
-82.694240466689109
51
0
0
LINE
5
314
100
AcDbEntity
8
0
100
AcDbLine
10
-2.5000000000000062
20
53.090093968807864
30
0
11
-2.4999999999999907
21
17.394676659533811
31
0
0
SPLINE
5
315
100
AcDbEntity
8
0
100
AcDbSpline
70
0
71
3
72
12
73
8
74
0
42
0.000000001
43
0.0000000001
44
0.0000000001
40
0
40
0
40
0
40
0
40
0.1953222366934636
40
0.1953222366934636
40
0.35856191305934959
40
0.35856191305934959
40
0.52180158942523613
40
0.52180158942523613
40
0.52180158942523613
40
0.52180158942523613
10
-4.9729532573446056
20
57.404492508631776
30
0
10
-4.4111546088209952
20
57.075433560628859
30
0
10
-3.9189995913091158
20
56.639788826918824
30
0
10
-3.1942299165863552
20
55.689406166144849
30
0
10
-2.9371009453519159
20
55.205757488258996
30
0
10
-2.5888239731334783
20
54.174727521477294
30
0
10
-2.5000000000000133
20
53.634226223360827
30
0
10
-2.5000000000000133
20
53.090093968807878
30
0
0
SPLINE
5
316
100
AcDbEntity
8
0
100
AcDbSpline
70
0
71
3
72
32
73
28
74
0
42
0.000000001
43
0.0000000001
44
0.0000000001
40
-0.28422554608153405
40
-0.28422554608153405
40
-0.28422554608153405
40
-0.28422554608153405
40
-0.27740639799606592
40
-0.27740639799606592
40
-0.27740639799606592
40
-0.24042371293807954
40
-0.24042371293807954
40
-0.24042371293807954
40
-0.21254514455781559
40
-0.21254514455781559
40
-0.21254514455781559
40
-0.15940885841836169
40
-0.15940885841836169
40
-0.15940885841836169
40
-0.13155317245534001
40
-0.13155317245534001
40
-0.13155317245534001
40
-0.10358486784357974
40
-0.10358486784357974
40
-0.10358486784357974
40
-0.057929213951855726
40
-0.057929213951855726
40
-0.057929213951855726
40
-0.028526070490429628
40
-0.028526070490429628
40
-0.028526070490429628
40
0
40
0
40
0
40
0
10
-4.9729532573446145
20
57.40449250863179
30
0
10
-5.1431957374679627
20
57.504207613967154
30
0
10
-5.311107741759229
20
57.609661200689821
30
0
10
-5.4731771282032415
20
57.719256598477614
30
0
10
-6.3521375205098574
20
58.313631735868725
30
0
10
-7.087527661087667
20
59.037874231827359
30
0
10
-7.3912196209220005
20
59.871494349084188
30
0
10
-7.6201509993630978
20
60.499900193756353
30
0
10
-7.5544865890553714
20
61.183933778332232
30
0
10
-7.2766321691082503
20
61.758048090256175
30
0
10
-6.7470442877637371
20
62.852304507552788
30
0
10
-5.6012883704860394
20
63.667884920097734
30
0
10
-4.9526004817953773
20
64.358902099056621
30
0
10
-4.6125382112038693
20
64.721154693858111
30
0
10
-4.4355100449670104
20
65.017941413646923
30
0
10
-4.3997483305553198
20
65.256144731823085
30
0
10
-4.3638420339581874
20
65.495311089855946
30
0
10
-4.4396697019074116
20
65.765788298691831
30
0
10
-4.6902125671422601
20
66.150939144824989
30
0
10
-5.0992004732376905
20
66.779662049958318
30
0
10
-5.92950566681401
20
67.568723588913343
30
0
10
-6.5082818267560461
20
68.396577715044472
30
0
10
-6.8810251129038713
20
68.929732134286724
30
0
10
-7.1594439634562779
20
69.520963032135768
30
0
10
-7.1107116802291737
20
70.137844513611768
30
0
10
-7.0634330432249515
20
70.736324898809727
30
0
10
-6.7156398817138196
20
71.249689912290378
30
0
10
-6.3079895424544574
20
71.711689905296097
30
0
0
SPLINE
5
317
100
AcDbEntity
8
0
100
AcDbSpline
70
0
71
3
72
50
73
46
74
0
42
0.000000001
43
0.0000000001
44
0.0000000001
40
-1
40
-1
40
-1
40
-1
40
-0.95994046906715014
40
-0.95994046906715014
40
-0.95994046906715014
40
-0.90699590177569334
40
-0.90699590177569334
40
-0.90699590177569334
40
-0.86679470739432196
40
-0.86679470739432196
40
-0.86679470739432196
40
-0.82880453464642756
40
-0.82880453464642756
40
-0.82880453464642756
40
-0.79032966380277125
40
-0.79032966380277125
40
-0.79032966380277125
40
-0.74093405981509808
40
-0.74093405981509808
40
-0.74093405981509808
40
-0.70104552547960641
40
-0.70104552547960641
40
-0.70104552547960641
40
-0.66032710988501075
40
-0.66032710988501075
40
-0.66032710988501075
40
-0.63543498962181799
40
-0.63543498962181799
40
-0.63543498962181799
40
-0.59134504032931923
40
-0.59134504032931923
40
-0.59134504032931923
40
-0.55577253099100365
40
-0.55577253099100365
40
-0.55577253099100365
40
-0.51818000316311352
40
-0.51818000316311352
40
-0.51818000316311352
40
-0.47714101070005299
40
-0.47714101070005299
40
-0.47714101070005299
40
-0.44639005930805775
40
-0.44639005930805775
40
-0.44639005930805775
40
-0.4417099179029263
40
-0.4417099179029263
40
-0.4417099179029263
40
-0.4417099179029263
10
-6.3079895424544574
20
71.711689905296097
30
0
10
-5.7355208815208725
20
72.360482490205555
30
0
10
-5.0548696416179606
20
72.990645883634485
30
0
10
-4.5303716154500728
20
73.747686272688057
30
0
10
-3.8371702625128368
20
74.748226590740813
30
0
10
-3.3714197182345718
20
75.970660779361694
30
0
10
-2.8586921498024953
20
77.087550560090278
30
0
10
-2.4693743841145288
20
77.935613080470574
30
0
10
-2.0226543712611944
20
78.725298856300356
30
0
10
-1.3436652437578767
20
79.203059445413487
30
0
10
-0.70201977414599437
20
79.654543725715257
30
0
10
0.14380529468058789
20
79.76869079217937
30
0
10
0.85837207572939889
20
79.468250593169756
30
0
10
1.58205566602168
20
79.163977224110681
30
0
10
2.1014923419507747
20
78.484074772561428
30
0
10
2.487273404568624
20
77.701264152002679
30
0
10
2.9825548227298304
20
76.696260039900778
30
0
10
3.3361071038061407
20
75.496631573139069
30
0
10
3.8740991345636555
20
74.436374730597208
30
0
10
4.3085449527876296
20
73.580183327841496
30
0
10
4.8781849639012353
20
72.830771400991893
30
0
10
5.5306834912887171
20
72.17613014574502
30
0
10
6.1967572554827743
20
71.507869074222214
30
0
10
6.930558691487354
20
70.949424188796471
30
0
10
7.2471137126726415
20
70.177358005966425
30
0
10
7.4406312045051948
20
69.705375882067187
30
0
10
7.4134870466439162
20
69.169216692700303
30
0
10
7.2438069392481941
20
68.702319738388098
30
0
10
6.94326253997958
20
67.875332610622721
30
0
10
6.3019819369695407
20
67.13230654130534
30
0
10
5.8900793249231986
20
66.423643738128831
30
0
10
5.5577494005613159
20
65.851882722563246
30
0
10
5.3989287003924247
20
65.359761558371062
30
0
10
5.4396537143003654
20
64.889875904235282
30
0
10
5.4826913365289665
20
64.393307350101864
30
0
10
5.7607541944156537
20
63.854412405979808
30
0
10
6.1406187364797793
20
63.261348990675174
30
0
10
6.5553090746801246
20
62.613913810411859
30
0
10
7.0675532794503049
20
61.927041390734885
30
0
10
7.2456449952948665
20
61.124992101760149
30
0
10
7.3790910028249579
20
60.524008080979272
30
0
10
7.2630262319233152
20
59.856154415987213
30
0
10
6.900325478032161
20
59.29063491528639
30
0
10
6.8451242325708517
20
59.204565668293014
30
0
10
6.7851311943136094
20
59.120289526091611
30
0
10
6.7209057527827332
20
59.037742037583655
30
0
0
SPLINE
5
318
100
AcDbEntity
8
0
100
AcDbSpline
70
0
71
3
72
14
73
10
74
0
42
0.000000001
43
0.0000000001
44
0.0000000001
40
0
40
0
40
0
40
0
40
0.039064447338692729
40
0.039064447338692729
40
0.078128894677385541
40
0.078128894677385541
40
0.09987072567967982
40
0.09987072567967982
40
0.12161255668197521
40
0.12161255668197521
40
0.12161255668197521
40
0.12161255668197521
10
6.6586996621028316
20
57.899247073572546
30
0
10
6.5904118498860598
20
58.010119411026018
30
0
10
6.5444327393126533
20
58.133269876724412
30
0
10
6.502267973977589
20
58.390263523733914
30
0
10
6.5064854373540815
20
58.521649705707226
30
0
10
6.5520614828550494
20
58.719146756390295
30
0
10
6.5759861235819184
20
58.787783276776231
30
0
10
6.638248598706662
20
58.91867481111543
30
0
10
6.6764023475297041
20
58.980542830441642
30
0
10
6.7209057528496441
20
59.037742037669638
30
0
0
LINE
5
319
100
AcDbEntity
8
0
100
AcDbLine
10
24.942795241564212
20
28.213123747749901
30
0
11
6.6586996621028316
21
57.899247073572546
31
0
0
ENDSEC
0
SECTION
2
OBJECTS
0
DICTIONARY
5
C
100
AcDbDictionary
3
ACAD_GROUP
350
D
3
ACAD_MLINESTYLE
350
17
0
DICTIONARY
5
D
100
AcDbDictionary
0
DICTIONARY
5
1A
330
C
100
AcDbDictionary
0
DICTIONARY
5
17
100
AcDbDictionary
0
ENDSEC
0
EOF
