0
SECTION
2
HEADER
9
$INSUNITS
70
4
9
$ACADVER
1
AC1014
9
$HANDSEED
5
FFFF
0
ENDSEC
0
SECTION
2
TABLES
0
TABLE
2
VPORT
5
8
100
AcDbSymbolTable
0
ENDTAB
0
TABLE
2
LTYPE
5
5
100
AcDbSymbolTable
0
LTYPE
5
14
100
AcDbSymbolTableRecord
100
AcDbLinetypeTableRecord
2
BYBLOCK
70
0
0
LTYPE
5
15
100
AcDbSymbolTableRecord
100
AcDbLinetypeTableRecord
2
BYLAYER
70
0
0
ENDTAB
0
TABLE
2
LAYER
5
2
100
AcDbSymbolTable
70
2
0
LAYER
5
50
100
AcDbSymbolTableRecord
100
AcDbLayerTableRecord
2
0
70
0
6
CONTINUOUS
0
ENDTAB
0
TABLE
2
STYLE
5
3
100
AcDbSymbolTable
70
1
0
STYLE
5
11
100
AcDbSymbolTableRecord
100
AcDbTextStyleTableRecord
2
STANDARD
70
0
0
ENDTAB
0
TABLE
2
VIEW
5
6
100
AcDbSymbolTable
70
0
0
ENDTAB
0
TABLE
2
UCS
5
7
100
AcDbSymbolTable
70
0
0
ENDTAB
0
TABLE
2
APPID
5
9
100
AcDbSymbolTable
70
2
0
APPID
5
12
100
AcDbSymbolTableRecord
100
AcDbRegAppTableRecord
2
ACAD
70
0
0
ENDTAB
0
TABLE
2
DIMSTYLE
5
A
100
AcDbSymbolTable
70
1
0
ENDTAB
0
TABLE
2
BLOCK_RECORD
5
1
100
AcDbSymbolTable
70
1
0
BLOCK_RECORD
5
1F
100
AcDbSymbolTableRecord
100
AcDbBlockTableRecord
2
*MODEL_SPACE
0
BLOCK_RECORD
5
1B
100
AcDbSymbolTableRecord
100
AcDbBlockTableRecord
2
*PAPER_SPACE
0
ENDTAB
0
ENDSEC
0
SECTION
2
BLOCKS
0
BLOCK
5
20
100
AcDbEntity
100
AcDbBlockBegin
2
*MODEL_SPACE
0
ENDBLK
5
21
100
AcDbEntity
100
AcDbBlockEnd
0
BLOCK
5
1C
100
AcDbEntity
100
AcDbBlockBegin
2
*PAPER_SPACE
0
ENDBLK
5
1D
100
AcDbEntity
100
AcDbBlockEnd
0
ENDSEC
0
SECTION
2
ENTITIES
0
LWPOLYLINE
5
100
100
AcDbEntity
8
0
100
AcDbPolyline
90
4
70
1
43
0.0
10
51.265241829783015
20
34.608893161148785
10
49.851028626828999
20
34.608893171685423
42
-0.99999999999999989
10
49.851028626829013
20
36.808893171685426
10
51.265242199527435
20
36.808893161148724
42
-1.0000001682578135
0
LWPOLYLINE
5
101
100
AcDbEntity
8
0
100
AcDbPolyline
90
4
70
1
43
0.0
10
34.608892971487897
20
20.152543574649606
10
34.608892982024614
20
21.566757147559414
42
-0.99999999999999989
10
36.808892982024609
20
21.566757147559414
10
36.808892971487907
20
20.15254357464962
42
-0.99999999999999989
0
LWPOLYLINE
5
102
100
AcDbEntity
8
0
100
AcDbPolyline
90
4
70
1
43
0.0
10
36.808892613239657
20
51.265242104561928
10
36.80889260270299
20
49.851028816489773
42
-0.99999999999999989
10
34.608892602702987
20
49.851028816489809
10
34.608892613239689
20
51.265242389387282
42
-1.0000001294772944
0
LWPOLYLINE
5
103
100
AcDbEntity
8
0
100
AcDbPolyline
90
4
70
1
43
0.0
10
20.152543384988796
20
36.808892802900516
10
21.566756957898612
20
36.8088927923638
42
-0.99999999999999989
10
21.566756957898612
20
34.608892792363804
10
20.152543384988807
20
34.608892802900506
42
-0.99999999999999989
0
CIRCLE
5
104
100
AcDbEntity
8
0
100
AcDbCircle
10
22.450640302672884
20
5.4800775541957378
30
0
40
1.6000000000000014
210
0
220
-0
230
1
0
CIRCLE
5
105
100
AcDbEntity
8
0
100
AcDbCircle
10
-5.4800775541957458
20
-22.450640302672888
30
0
40
1.6000000000000014
210
0
220
-0
230
1
0
CIRCLE
5
106
100
AcDbEntity
8
0
100
AcDbCircle
10
5.4800775541957414
20
22.450640302672884
30
0
40
1.6000000000000014
210
0
220
-0
230
1
0
CIRCLE
5
107
100
AcDbEntity
8
0
100
AcDbCircle
10
-22.450640302672888
20
-5.4800775541957423
30
0
40
1.6000000000000014
210
0
220
-0
230
1
0
SPLINE
5
108
100
AcDbEntity
8
0
100
AcDbSpline
70
0
71
3
72
10
73
6
74
0
42
0.000000001
43
0.0000000001
44
0.0000000001
40
0
40
0
40
0
40
0
40
0.010465399625135987
40
0.010465399625135987
40
0.020930799250272206
40
0.020930799250272206
40
0.020930799250272206
40
0.020930799250272206
10
-26.831933667973864
20
-55.71782821259545
30
0
10
-26.86525042628891
20
-55.728169077967422
30
0
10
-26.898674493635227
20
-55.738160987002736
30
0
10
-26.965726264644868
20
-55.757443609478116
30
0
10
-26.999352132341215
20
-55.766733794934225
30
0
10
-27.033072458204739
20
-55.775671328426299
30
0
0
ARC
5
109
100
AcDbEntity
8
0
100
AcDbCircle
10
-14.974729078692759
20
-93.920010078660709
30
0
40
39.99999999999995
210
0
220
-0
230
1
100
AcDbArc
50
79.273790328411025
51
107.24331313876922
0
ARC
5
110
100
AcDbEntity
8
0
100
AcDbCircle
10
-26.141694317796954
20
-152.87167576623551
30
0
40
99.999999999924512
210
0
220
-0
230
1
100
AcDbArc
50
78.475149476611037
51
79.273790328411565
0
ARC
5
111
100
AcDbEntity
8
0
100
AcDbCircle
10
-8.1603304396797114
20
-64.686242994892581
30
0
40
10.000000000000572
210
0
220
-0
230
1
100
AcDbArc
50
63.825980957770852
51
78.475149476611122
0
ARC
5
112
100
AcDbEntity
8
0
100
AcDbCircle
10
-1.3322676295501878e-14
20
-48.083261120685222
30
0
40
8.4999999999999982
210
0
220
0
230
1
100
AcDbArc
50
-116.17401904222972
51
14.201852721771887
0
ARC
5
113
100
AcDbEntity
8
0
100
AcDbCircle
10
17.934592216449175
20
-43.544494544876102
30
0
40
10.000000000000043
210
0
220
0
230
1
100
AcDbArc
50
176.75626442071041
51
194.20185272177173
0
ARC
5
114
100
AcDbEntity
8
0
100
AcDbCircle
10
43.892936656597556
20
-45.015668880778541
30
0
40
36.000000000000057
210
0
220
0
230
1
100
AcDbArc
50
135.00000000000006
51
176.75626442071041
0
LINE
5
115
100
AcDbEntity
8
0
100
AcDbLine
10
18.437092533881785
20
-19.559824758062803
30
0
11
19.55982475806281
21
-18.437092533881788
31
0
0
ARC
5
116
100
AcDbEntity
8
0
100
AcDbCircle
10
45.01566888077852
20
-43.892936656597506
30
0
40
36.000000000000007
210
0
220
0
230
1
100
AcDbArc
50
93.243735579289677
51
135
0
ARC
5
117
100
AcDbEntity
8
0
100
AcDbCircle
10
43.544494544876081
20
-17.934592216449229
30
0
40
10.000000000000091
210
0
220
-0
230
1
100
AcDbArc
50
75.798147278228171
51
93.243735579289577
0
ARC
5
118
100
AcDbEntity
8
0
100
AcDbCircle
10
48.083261120685222
20
4.4408920985006262e-15
30
0
40
8.5000000000000071
210
0
220
0
230
1
100
AcDbArc
50
-104.20185272177186
51
26.174019042229816
0
ARC
5
119
100
AcDbEntity
8
0
100
AcDbCircle
10
64.686242994892183
20
8.1603304396796243
30
0
40
10.000000000000185
210
0
220
0
230
1
100
AcDbArc
50
191.52485052338895
51
206.17401904222959
0
ARC
5
120
100
AcDbEntity
8
0
100
AcDbCircle
10
152.87167576629906
20
26.141694317810035
30
0
40
99.99999999998937
210
0
220
0
230
1
100
AcDbArc
50
187.27098943136451
51
191.52485052338906
0
ARC
5
121
100
AcDbEntity
8
0
100
AcDbCircle
10
93.354156642889166
20
18.547952328959354
30
0
40
40.00000000000022
210
0
220
0
230
1
100
AcDbArc
50
158.43870163147099
51
187.2709894313646
0
ARC
5
122
100
AcDbEntity
8
0
100
AcDbCircle
10
70.103533363386333
20
27.73536312388152
30
0
40
15.000000000000014
210
0
220
0
230
1
100
AcDbArc
50
138.98880384353234
51
158.43870163147099
0
ARC
5
123
100
AcDbEntity
8
0
100
AcDbCircle
10
57.275650150657455
20
38.890873523705849
30
0
40
1.999999999999994
210
-0
220
0
230
1
100
AcDbArc
50
-41.011196156467406
51
44.999999999999858
0
LINE
5
124
100
AcDbEntity
8
0
100
AcDbLine
10
58.689863713030554
20
40.305087086078942
30
0
11
40.305087107152382
21
58.689863734103973
31
0
0
ARC
5
125
100
AcDbEntity
8
0
100
AcDbCircle
10
38.890873523705864
20
57.275650150657469
30
0
40
2.0000000298023073
210
0
220
-0
230
1
100
AcDbArc
50
44.999999999999709
51
131.01119924067444
0
ARC
5
126
100
AcDbEntity
8
0
100
AcDbCircle
10
27.735362433362425
20
70.103532762889898
30
0
40
14.999999999999732
210
0
220
0
230
1
100
AcDbArc
50
291.56129512235117
51
311.01119924067427
0
ARC
5
127
100
AcDbEntity
8
0
100
AcDbCircle
10
18.5479529557389
20
93.354156562919172
30
0
40
40.000000000000028
210
0
220
0
230
1
100
AcDbArc
50
262.72901117201752
51
291.56129512235134
0
ARC
5
128
100
AcDbEntity
8
0
100
AcDbCircle
10
26.141694317807364
20
152.87167576628369
30
0
40
99.999999999973781
210
0
220
0
230
1
100
AcDbArc
50
258.47514947661068
51
262.7290111720182
0
ARC
5
129
100
AcDbEntity
8
0
100
AcDbCircle
10
8.160330439679587
20
64.686242994892041
30
0
40
10.000000000000025
210
0
220
0
230
1
100
AcDbArc
50
243.82598095777021
51
258.47514947661119
0
ARC
5
130
100
AcDbEntity
8
0
100
AcDbCircle
10
1.3322676295501878e-14
20
48.083261120685222
30
0
40
8.4999999999999964
210
0
220
-0
230
1
100
AcDbArc
50
63.825980957770156
51
194.20185272177176
0
ARC
5
131
100
AcDbEntity
8
0
100
AcDbCircle
10
-17.934592216449122
20
43.544494544876116
30
0
40
9.9999999999999911
210
0
220
0
230
1
100
AcDbArc
50
-3.243735579289678
51
14.201852721771811
0
ARC
5
132
100
AcDbEntity
8
0
100
AcDbCircle
10
-43.892936656597556
20
45.015668880778563
30
0
40
36.00000000000005
210
0
220
0
230
1
100
AcDbArc
50
315.00000000000006
51
356.75626442071029
0
LINE
5
133
100
AcDbEntity
8
0
100
AcDbLine
10
-18.437092533881781
20
19.559824758062842
30
0
11
-19.559824758062835
21
18.437092533881788
31
0
0
ARC
5
134
100
AcDbEntity
8
0
100
AcDbCircle
10
-45.01566888077852
20
43.892936656597492
30
0
40
35.999999999999972
210
0
220
0
230
1
100
AcDbArc
50
273.24373557928971
51
315
0
ARC
5
135
100
AcDbEntity
8
0
100
AcDbCircle
10
-43.544494544876102
20
17.934592216449253
30
0
40
10.000000000000115
210
0
220
0
230
1
100
AcDbArc
50
255.7981472782283
51
273.24373557928982
0
ARC
5
136
100
AcDbEntity
8
0
100
AcDbCircle
10
-48.083261120685222
20
-4.4408920985006262e-15
30
0
40
8.5000000000000036
210
0
220
-0
230
1
100
AcDbArc
50
75.7981472782282
51
206.17401904222987
0
ARC
5
137
100
AcDbEntity
8
0
100
AcDbCircle
10
-64.686242994892183
20
-8.1603304396796243
30
0
40
10.000000000000185
210
0
220
-0
230
1
100
AcDbArc
50
11.524850523388936
51
26.174019042229617
0
ARC
5
138
100
AcDbEntity
8
0
100
AcDbCircle
10
-152.87167576689089
20
-26.14169431792584
30
0
40
100.00000000059245
210
0
220
-0
230
1
100
AcDbArc
50
10.7262096715911
51
11.524850523386291
0
ARC
5
139
100
AcDbEntity
8
0
100
AcDbCircle
10
-93.920010078660766
20
-14.974729078692718
30
0
40
40
210
-0
220
0
230
1
100
AcDbArc
50
-17.243313138769526
51
10.72620967158888
0
SPLINE
5
140
100
AcDbEntity
8
0
100
AcDbSpline
70
0
71
3
72
10
73
6
74
0
42
0.000000001
43
0.0000000001
44
0.0000000001
40
0
40
0
40
0
40
0
40
0.01046539962514436
40
0.01046539962514436
40
0.02093079925028872
40
0.02093079925028872
40
0.02093079925028872
40
0.02093079925028872
10
-55.775671328426398
20
-27.033072458205105
30
0
10
-55.766733794934325
20
-26.999352132341553
30
0
10
-55.757443609478216
20
-26.965726264645184
30
0
10
-55.738160987002814
20
-26.898674493635482
30
0
10
-55.7281690779675
20
-26.865250426289144
30
0
10
-55.717828212595521
20
-26.83193366797407
30
0
0
SPLINE
5
141
100
AcDbEntity
8
0
100
AcDbSpline
70
4
71
5
72
16
73
10
74
0
42
0.000000001
43
0.0000000001
44
0.0000000001
40
-0.31947534363757085
40
-0.31947534363757085
40
-0.31947534363757085
40
-0.31947534363757085
40
-0.31947534363757085
40
-0.31947534363757085
40
-0.26666666666666666
40
-0.20000000000000001
40
-0.13333333333333333
40
-0.066666666666666666
40
0
40
0
40
0
40
0
40
0
40
0
41
1
41
1
41
1
41
1
41
1
41
1
41
1
41
1
41
1
41
1
10
-55.775671328426398
20
-27.033072458205105
30
0
10
-55.880162386197739
20
-27.427305668184569
30
0
10
-56.128580373670502
20
-28.396096985191861
30
0
10
-56.551338153689834
20
-30.183781900234806
30
0
10
-57.141980168140662
20
-33.097636165929821
30
0
10
-57.701405056338295
20
-37.052046715286508
30
0
10
-57.768475729382658
20
-39.830161743568013
30
0
10
-57.487038384872577
20
-41.254103885861198
30
0
10
-57.137406050046451
20
-41.857544791209904
30
0
10
-56.922096733722405
20
-42.072854107533942
30
0
0
LINE
5
142
100
AcDbEntity
8
0
100
AcDbLine
10
-56.922096733722405
20
-42.072854107533942
30
0
11
-54.093669498340738
21
-44.90128134291561
31
0
0
ARC
5
143
100
AcDbEntity
8
0
100
AcDbCircle
10
-53.386562717154192
20
-44.194174561729056
30
0
40
1.0000000000000042
210
0
220
0
230
1
100
AcDbArc
50
225.00000000000028
51
314.99999999999972
0
LINE
5
144
100
AcDbEntity
8
0
100
AcDbLine
10
-52.679455935967646
20
-44.90128134291561
30
0
11
-48.436815248848362
21
-40.658640655796326
31
0
0
ARC
5
145
100
AcDbEntity
8
0
100
AcDbCircle
10
-47.729708467661816
20
-41.365747436982872
30
0
40
0.999999999999998
210
0
220
-0
230
1
100
AcDbArc
50
45
51
135
0
LINE
5
146
100
AcDbEntity
8
0
100
AcDbLine
10
-47.022601686475269
20
-40.658640655796326
30
0
11
-40.658640655796347
21
-47.022601686475255
31
0
0
ARC
5
147
100
AcDbEntity
8
0
100
AcDbCircle
10
-41.365747436982893
20
-47.729708467661794
30
0
40
0.999999999999998
210
-0
220
0
230
1
100
AcDbArc
50
-45.000000000000306
51
44.999999999999709
0
LINE
5
148
100
AcDbEntity
8
0
100
AcDbLine
10
-40.658640655796347
20
-48.436815248848347
30
0
11
-44.901281342915631
21
-52.679455935967638
31
0
0
ARC
5
149
100
AcDbEntity
8
0
100
AcDbCircle
10
-44.194174561729071
20
-53.386562717154185
30
0
40
1.0000000000000107
210
0
220
0
230
1
100
AcDbArc
50
135.0000000000006
51
224.99999999999972
0
LINE
5
150
100
AcDbEntity
8
0
100
AcDbLine
10
-44.901281342915624
20
-54.093669498340731
30
0
11
-42.072854107533956
21
-56.922096733722398
31
0
0
SPLINE
5
151
100
AcDbEntity
8
0
100
AcDbSpline
70
4
71
5
72
16
73
10
74
0
42
0.000000001
43
0.0000000001
44
0.0000000001
40
0
40
0
40
0
40
0
40
0
40
0
40
0.066666666666666666
40
0.13333333333333333
40
0.20000000000000001
40
0.26666666666666666
40
0.3194753436375809
40
0.3194753436375809
40
0.3194753436375809
40
0.3194753436375809
40
0.3194753436375809
40
0.3194753436375809
41
1
41
1
41
1
41
1
41
1
41
1
41
1
41
1
41
1
41
1
10
-42.072854107533956
20
-56.922096733722398
30
0
10
-41.857544791209911
20
-57.137406050046444
30
0
10
-41.25410388586122
20
-57.487038384872577
30
0
10
-39.83016174356802
20
-57.768475729382651
30
0
10
-37.052046715286515
20
-57.701405056338288
30
0
10
-33.097636165929693
20
-57.141980168140634
30
0
10
-30.183781900234585
20
-56.551338153689784
30
0
10
-28.396096985191576
20
-56.128580373670417
30
0
10
-27.42730566818426
20
-55.880162386197654
30
0
10
-27.033072458204749
20
-55.775671328426299
30
0
0
CIRCLE
5
152
100
AcDbEntity
8
0
100
AcDbCircle
10
-55.507883150275887
20
-40.658640524087424
30
0
40
1.100000000000001
210
0
220
-0
230
1
0
LWPOLYLINE
5
153
100
AcDbEntity
8
0
100
AcDbPolyline
90
4
70
1
43
0.0
10
1.5387712497600914
20
42.180534983836964
10
0.90484318386263862
20
43.539996909448135
42
-0.99999999999999989
10
2.8987203153432777
20
44.469757085277692
10
3.5326483881679884
20
43.110295144810998
42
-0.9999999925494194
0
LWPOLYLINE
5
154
100
AcDbEntity
8
0
100
AcDbPolyline
90
4
70
1
43
0.0
10
-52.626526678495139
20
0.90484269375021409
10
-53.985988618961827
20
1.5387707665749217
42
-0.9999999925494194
10
-53.056228428276768
20
3.5326478911283044
10
-51.696766502665596
20
2.898719825230851
42
-0.99999999999999989
0
LWPOLYLINE
5
155
100
AcDbEntity
8
0
100
AcDbPolyline
90
4
70
1
43
0.0
10
1.5387707596476563
20
-53.985988604106304
10
0.90484270067744943
20
-52.626526693350655
42
-1.0000000074505806
10
2.8987198252308444
20
-51.696766502665596
10
3.5326478911282999
20
-53.056228428276746
42
-0.99999999999999989
0
LWPOLYLINE
5
156
100
AcDbEntity
8
0
100
AcDbPolyline
90
4
70
1
43
0.0
10
5.9027265650784555
20
-46.544490789267755
10
4.5432646543228259
20
-47.178418848237968
42
-1.0000000074505806
10
3.6135044636377467
20
-45.184541723684582
10
4.9729663743933781
20
-44.550613664714376
42
-1.0000000074505806
0
LWPOLYLINE
5
157
100
AcDbEntity
8
0
100
AcDbPolyline
90
4
70
1
43
0.0
10
-43.539996909448142
20
-0.90484318386263141
10
-42.180534998692501
20
-1.5387712428328326
42
-1.0000000074505806
10
-43.110295159666506
20
-3.5326483812407261
10
-44.469757100133222
20
-2.898720308416014
42
-0.9999999925494194
0
LWPOLYLINE
5
158
100
AcDbEntity
8
0
100
AcDbPolyline
90
4
70
1
43
0.0
10
52.626526678495139
20
-0.90484269375021409
10
53.985988618961827
20
-1.5387707665749217
42
-0.9999999925494194
10
53.056228428276768
20
-3.5326478911283044
10
51.696766502665596
20
-2.898719825230851
42
-0.99999999999999989
0
LWPOLYLINE
5
159
100
AcDbEntity
8
0
100
AcDbPolyline
90
4
70
1
43
0.0
10
-1.5387712497600914
20
-42.180534983836964
10
-0.90484318386263862
20
-43.539996909448135
42
-0.99999999999999989
10
-2.8987203153432777
20
-44.469757085277692
10
-3.5326483881679884
20
-43.110295144810998
42
-0.9999999925494194
0
LWPOLYLINE
5
160
100
AcDbEntity
8
0
100
AcDbPolyline
90
4
70
1
43
0.0
10
-3.613504953750164
20
-50.981981864258685
10
-4.9729668793613531
20
-51.615909930156164
42
-0.99999999999999989
10
-5.9027270551908906
20
-49.622032798675519
10
-4.5432651295797024
20
-48.988104732778069
42
-0.99999999999999989
0
LWPOLYLINE
5
161
100
AcDbEntity
8
0
100
AcDbPolyline
90
4
70
1
43
0.0
10
47.178418855165219
20
-4.5432646394672904
10
46.544490789267783
20
-5.9027265650784582
42
-0.99999999999999989
10
44.550613657787139
20
-4.9729663892489144
10
45.184541723684575
20
-3.6135044636377489
42
-0.99999999999999989
0
LWPOLYLINE
5
162
100
AcDbEntity
8
0
100
AcDbPolyline
90
4
70
1
43
0.0
10
-47.178418855165219
20
4.5432646394672904
10
-46.544490789267783
20
5.9027265650784582
42
-0.99999999999999989
10
-44.550613657787139
20
4.9729663892489144
10
-45.184541723684575
20
3.6135044636377489
42
-0.99999999999999989
0
LWPOLYLINE
5
163
100
AcDbEntity
8
0
100
AcDbPolyline
90
4
70
1
43
0.0
10
43.539996909448142
20
0.90484318386263141
10
42.180534998692501
20
1.5387712428328326
42
-1.0000000074505806
10
43.110295159666506
20
3.5326483812407261
10
44.469757100133222
20
2.898720308416014
42
-0.9999999925494194
0
LWPOLYLINE
5
164
100
AcDbEntity
8
0
100
AcDbPolyline
90
4
70
1
43
0.0
10
-51.61590993015615
20
-4.972966879361338
10
-50.981981864258692
20
-3.6135049537501507
42
-0.99999999999999989
10
-48.988104732778062
20
-4.5432651295796989
10
-49.622032798675534
20
-5.9027270551908888
42
-0.99999999999999989
0
LWPOLYLINE
5
165
100
AcDbEntity
8
0
100
AcDbPolyline
90
4
70
1
43
0.0
10
-5.9027265650784555
20
46.544490789267755
10
-4.5432646543228259
20
47.178418848237968
42
-1.0000000074505806
10
-3.6135044636377467
20
45.184541723684582
10
-4.9729663743933781
20
44.550613664714376
42
-1.0000000074505806
0
LWPOLYLINE
5
166
100
AcDbEntity
8
0
100
AcDbPolyline
90
4
70
1
43
0.0
10
51.61590993015615
20
4.972966879361338
10
50.981981864258692
20
3.6135049537501507
42
-0.99999999999999989
10
48.988104732778062
20
4.5432651295796989
10
49.622032798675534
20
5.9027270551908888
42
-0.99999999999999989
0
LWPOLYLINE
5
167
100
AcDbEntity
8
0
100
AcDbPolyline
90
4
70
1
43
0.0
10
-1.5387707596476563
20
53.985988604106304
10
-0.90484270067744943
20
52.626526693350655
42
-1.0000000074505806
10
-2.8987198252308444
20
51.696766502665596
10
-3.5326478911282999
20
53.056228428276746
42
-0.99999999999999989
0
LWPOLYLINE
5
168
100
AcDbEntity
8
0
100
AcDbPolyline
90
4
70
1
43
0.0
10
3.613504953750164
20
50.981981864258685
10
4.9729668793613531
20
51.615909930156164
42
-0.99999999999999989
10
5.9027270551908906
20
49.622032798675519
10
4.5432651295797024
20
48.988104732778069
42
-0.99999999999999989
0
CIRCLE
5
169
100
AcDbEntity
8
0
100
AcDbCircle
10
-15.839191544545139
20
-32.244068396028339
30
0
40
1.100000000000001
210
0
220
-0
230
1
0
CIRCLE
5
170
100
AcDbEntity
8
0
100
AcDbCircle
10
-32.244068396028339
20
-15.839191544545132
30
0
40
1.100000000000001
210
0
220
-0
230
1
0
CIRCLE
5
171
100
AcDbEntity
8
0
100
AcDbCircle
10
8.7681237326796637
20
25.17300058416286
30
0
40
1.100000000000001
210
0
220
-0
230
1
0
CIRCLE
5
172
100
AcDbEntity
8
0
100
AcDbCircle
10
25.17300058416286
20
8.7681237326796602
30
0
40
1.100000000000001
210
0
220
-0
230
1
0
LWPOLYLINE
5
173
100
AcDbEntity
8
0
100
AcDbPolyline
90
6
70
1
43
0.0
10
-21.089992220477129
20
-15.904424149475576
10
-15.963822653182014
20
-14.53087115365385
42
-0.57735026918962318
10
-14.530871153653855
20
-15.96382265318201
10
-15.904424149475584
20
-21.089992220477136
42
-0.57735026918962851
10
-17.861872300222053
20
-21.614488871695443
10
-21.614488871695443
20
-17.861872300222046
42
-0.57735026918962817
0
SPLINE
5
174
100
AcDbEntity
8
0
100
AcDbSpline
70
0
71
3
72
12
73
8
74
0
42
0.000000001
43
0.0000000001
44
0.0000000001
40
-0.15290171987169945
40
-0.15290171987169945
40
-0.15290171987169945
40
-0.15290171987169945
40
-0.10574919543986917
40
-0.10574919543986917
40
-0.058596671008039232
40
-0.058596671008039232
40
0
40
0
40
0
40
0
10
-8.1499503636345985
20
-45.66907200831384
30
0
10
-8.1945915836754395
20
-45.81977425679991
30
0
10
-8.2626433106436554
20
-45.962527839055682
30
0
10
-8.4405782425605143
20
-46.221671013586125
30
0
10
-8.5493608190900225
20
-46.336457658426937
30
0
10
-8.8288236682240466
20
-46.551294515704214
30
0
10
-9.0054480937441266
20
-46.638953359434481
30
0
10
-9.1939021675891155
20
-46.690293774296123
30
0
0
SPLINE
5
175
100
AcDbEntity
8
0
100
AcDbSpline
70
0
71
3
72
8
73
4
74
0
42
0.000000001
43
0.0000000001
44
0.0000000001
40
0.47533362166028298
40
0.47533362166028298
40
0.47533362166028298
40
0.47533362166028298
40
0.65074788571999753
40
0.65074788571999753
40
0.65074788571999753
40
0.65074788571999753
10
-9.1939021675891084
20
-46.690293774296109
30
0
10
-9.5302251866029497
20
-46.781918025082504
30
0
10
-9.9527335339726264
20
-46.844372513996376
30
0
10
-10.515796050100503
20
-46.887685015236976
30
0
0
LINE
5
176
100
AcDbEntity
8
0
100
AcDbLine
10
-10.515796050100503
20
-46.887685015236968
30
0
11
-22.894762072103127
21
-47.839913170775631
31
0
0
SPLINE
5
177
100
AcDbEntity
8
0
100
AcDbSpline
70
0
71
3
72
20
73
16
74
0
42
0.000000001
43
0.0000000001
44
0.0000000001
40
0
40
0
40
0
40
0
40
0.15106749573419348
40
0.15106749573419348
40
0.2246206409728416
40
0.2246206409728416
40
0.2735408800295141
40
0.2735408800295141
40
0.31671543264745039
40
0.31671543264745039
40
0.36582812343628457
40
0.36582812343628457
40
0.44187952699861294
40
0.44187952699861294
40
0.57917832178858331
40
0.57917832178858331
40
0.57917832178858331
40
0.57917832178858331
10
-22.894762072103134
20
-47.839913170775638
30
0
10
-23.396837152887361
20
-47.878534330835961
30
0
10
-23.828393435884916
20
-47.848160662025009
30
0
10
-24.330683060033827
20
-47.703467998228845
30
0
10
-24.494494189049725
20
-47.634008254009075
30
0
10
-24.722830600814053
20
-47.464249001780423
30
0
10
-24.801296117193967
20
-47.382718417288388
30
0
10
-24.911214358768067
20
-47.199325398029828
30
0
10
-24.944039630547003
20
-47.106068427575295
30
0
10
-24.976763511235809
20
-46.894286699657464
30
0
10
-24.970690234513576
20
-46.779507952558703
30
0
10
-24.915941979583106
20
-46.493868984807335
30
0
10
-24.845152495398189
20
-46.323412617246078
30
0
10
-24.608234803150147
20
-45.887060116990952
30
0
10
-24.375114342946134
20
-45.58831862147953
30
0
10
-24.070466992210058
20
-45.283671270743454
30
0
0
LINE
5
178
100
AcDbEntity
8
0
100
AcDbLine
10
-24.070466992210058
20
-45.283671270743454
30
0
11
-17.586853541388081
21
-38.800057819921477
31
0
0
SPLINE
5
179
100
AcDbEntity
8
0
100
AcDbSpline
70
4
71
5
72
16
73
10
74
0
42
0.000000001
43
0.0000000001
44
0.0000000001
40
0
40
0
40
0
40
0
40
0
40
0
40
0.20000000000000001
40
0.40000000000000002
40
0.60000000000000009
40
0.80000000000000004
40
1
40
1
40
1
40
1
40
1
40
1
41
1
41
1
41
1
41
1
41
1
41
1
41
1
41
1
41
1
41
1
10
-17.586853541388081
20
-38.800057819921477
30
0
10
-17.243843350109621
20
-38.457047628643018
30
0
10
-16.482098449924855
20
-37.839695965425229
30
0
10
-15.112542773468506
20
-37.119461319682216
30
0
10
-12.921916524092968
20
-36.489732542521295
30
0
10
-9.9682377359271452
20
-35.897897591205719
30
0
10
-7.7776115362575631
20
-35.268168863750738
30
0
10
-6.408055930252492
20
-34.54793428845889
30
0
10
-5.6463110934241589
20
-33.930582688597553
30
0
10
-5.3033009379244511
20
-33.587572533097848
30
0
0
LINE
5
180
100
AcDbEntity
8
0
100
AcDbLine
10
-5.3033009379244511
20
-33.587572533097855
30
0
11
0.033577885642601668
21
-28.250693709530807
31
0
0
ARC
5
181
100
AcDbEntity
8
0
100
AcDbCircle
10
0.56390797153251349
20
-28.781023795420715
30
0
40
0.75
210
-0
220
0
230
1
100
AcDbArc
50
-12.847704858718107
51
135.00000000000023
0
LINE
5
182
100
AcDbEntity
8
0
100
AcDbLine
10
1.2951313866769345
20
-28.947794047997519
30
0
11
-0.74881385687787239
21
-37.909707808199386
31
0
0
SPLINE
5
183
100
AcDbEntity
8
0
100
AcDbSpline
70
0
71
3
72
8
73
4
74
0
42
0.000000001
43
0.0000000001
44
0.0000000001
40
0
40
0
40
0
40
0
40
0.12497683143332404
40
0.12497683143332404
40
0.12497683143332404
40
0.12497683143332404
10
-0.74881385687787239
20
-37.909707808199386
30
0
10
-0.84144682463069165
20
-38.315867743730948
30
0
10
-0.93155657559250482
20
-38.638085726585331
30
0
10
-1.0285845146533146
20
-38.902084919397652
30
0
0
SPLINE
5
184
100
AcDbEntity
8
0
100
AcDbSpline
70
0
71
3
72
12
73
8
74
0
42
0.000000001
43
0.0000000001
44
0.0000000001
40
-0.14620771803045429
40
-0.14620771803045429
40
-0.14620771803045429
40
-0.14620771803045429
40
-0.10240219451924612
40
-0.10240219451924612
40
-0.058596671008038538
40
-0.058596671008038538
40
0
40
0
40
0
40
0
10
-1.0285845146533168
20
-38.902084919397659
30
0
10
-1.0789564629639359
20
-39.039139811247452
30
0
10
-1.1490720903233731
20
-39.16810794534733
30
0
10
-1.3243472590487171
20
-39.401697588642087
30
0
10
-1.4285712751125645
20
-39.50507232099352
30
0
10
-1.7032643013633453
20
-39.707698034015365
30
0
10
-1.8815935645162551
20
-39.791834438013659
30
0
10
-2.071029393776298
20
-39.839424801948986
30
0
0
ARC
5
185
100
AcDbEntity
8
0
100
AcDbCircle
10
-1.3322676295501878e-14
20
-48.083261120685222
30
0
40
8.4999999999999964
210
0
220
0
230
1
100
AcDbArc
50
104.10209749673643
51
163.49958745152665
0
ARC
5
186
100
AcDbEntity
8
0
100
AcDbCircle
10
48.083261120685222
20
4.4408920985006262e-15
30
0
40
8.5000000000000071
210
0
220
0
230
1
100
AcDbArc
50
106.50041254847345
51
165.89790250326354
0
SPLINE
5
187
100
AcDbEntity
8
0
100
AcDbSpline
70
0
71
3
72
12
73
8
74
0
42
0.000000001
43
0.0000000001
44
0.0000000001
40
-0.1462077180304544
40
-0.1462077180304544
40
-0.1462077180304544
40
-0.1462077180304544
40
-0.10240219451924677
40
-0.10240219451924677
40
-0.058596671008038982
40
-0.058596671008038982
40
0
40
0
40
0
40
0
10
39.839424801948994
20
2.0710293937762891
30
0
10
39.803847340458219
20
1.9294115248810173
30
0
10
39.747780956183334
20
1.7937445010043507
30
0
10
39.598223442184427
20
1.542909782050359
30
0
10
39.50553057064765
20
1.4290809088262124
30
0
10
39.253835578778606
20
1.1985097282410018
30
0
10
39.085417060279617
20
1.0959647956454122
30
0
10
38.902084919397659
20
1.0285845146533101
30
0
0
SPLINE
5
188
100
AcDbEntity
8
0
100
AcDbSpline
70
0
71
3
72
8
73
4
74
0
42
0.000000001
43
0.0000000001
44
0.0000000001
40
0.45275461548402046
40
0.45275461548402046
40
0.45275461548402046
40
0.45275461548402046
40
0.59077368636216232
40
0.59077368636216232
40
0.59077368636216232
40
0.59077368636216232
10
38.902084919397659
20
1.0285845146533079
30
0
10
38.627717546517033
20
0.92774594597230475
30
0
10
38.301146189819434
20
0.83808927724735138
30
0
10
37.909707808199386
20
0.74881385687786794
30
0
0
LINE
5
189
100
AcDbEntity
8
0
100
AcDbLine
10
37.909707808199386
20
0.74881385687786794
30
0
11
28.947794047997519
21
-1.2951313866769398
31
0
0
ARC
5
190
100
AcDbEntity
8
0
100
AcDbCircle
10
28.781023795420715
20
-0.56390797153251793
30
0
40
0.74999999999999978
210
0
220
0
230
1
100
AcDbArc
50
134.9999999999998
51
282.84770485871803
0
LINE
5
191
100
AcDbEntity
8
0
100
AcDbLine
10
28.250693709530807
20
-0.033577885642606525
30
0
11
33.587572533097848
21
5.3033009379244467
31
0
0
SPLINE
5
192
100
AcDbEntity
8
0
100
AcDbSpline
70
4
71
5
72
16
73
10
74
0
42
0.000000001
43
0.0000000001
44
0.0000000001
40
0
40
0
40
0
40
0
40
0
40
0
40
0.20000000000000001
40
0.40000000000000002
40
0.60000000000000009
40
0.80000000000000004
40
1
40
1
40
1
40
1
40
1
40
1
41
1
41
1
41
1
41
1
41
1
41
1
41
1
41
1
41
1
41
1
10
38.800057819921477
20
17.586853541388074
30
0
10
38.457047628643018
20
17.243843350109614
30
0
10
37.839695965425229
20
16.482098449924848
30
0
10
37.119461319682223
20
15.112542773468501
30
0
10
36.489732542521295
20
12.921916524092962
30
0
10
35.897897591205719
20
9.9682377359271399
30
0
10
35.268168863750731
20
7.7776115362575604
30
0
10
34.547934288458897
20
6.4080559302524858
30
0
10
33.930582688597553
20
5.6463110934241545
30
0
10
33.587572533097848
20
5.3033009379244467
30
0
0
LINE
5
193
100
AcDbEntity
8
0
100
AcDbLine
10
38.800057819921477
20
17.586853541388074
30
0
11
45.283671270743454
21
24.070466992210051
31
0
0
SPLINE
5
194
100
AcDbEntity
8
0
100
AcDbSpline
70
0
71
3
72
20
73
16
74
0
42
0.000000001
43
0.0000000001
44
0.0000000001
40
0
40
0
40
0
40
0
40
0.15106749573424602
40
0.15106749573424602
40
0.22462064097295514
40
0.22462064097295514
40
0.27354088002965299
40
0.27354088002965299
40
0.31671543264761504
40
0.31671543264761504
40
0.36582812343648136
40
0.36582812343648136
40
0.44187952699884092
40
0.44187952699884092
40
0.57917832178834094
40
0.57917832178834094
40
0.57917832178834094
40
0.57917832178834094
10
45.283671270743454
20
24.070466992210051
30
0
10
45.639740772911964
20
24.426536494378563
30
0
10
45.987169651712449
20
24.684328191931243
30
0
10
46.462701102547904
20
24.901355086002699
30
0
10
46.632279586134814
20
24.955224186244848
30
0
10
46.91612337124198
20
24.974932720199764
30
0
10
47.028758233671688
20
24.964094766803321
30
0
10
47.231564979192761
20
24.896386249505426
30
0
10
47.317178615401801
20
24.846942682676296
30
0
10
47.479850159454273
20
24.707442426752657
30
0
10
47.54993600247289
20
24.616343469107306
30
0
10
47.694259404584443
20
24.363840504928682
30
0
10
47.751443554898515
20
24.188351196803556
30
0
10
47.855536675793701
20
23.702863689693665
30
0
10
47.872956815409999
20
23.324329452349801
30
0
10
47.839913170775645
20
22.894762072103127
30
0
0
LINE
5
195
100
AcDbEntity
8
0
100
AcDbLine
10
47.839913170775638
20
22.894762072103127
30
0
11
46.887685015236968
21
10.515796050100493
31
0
0
SPLINE
5
196
100
AcDbEntity
8
0
100
AcDbSpline
70
0
71
3
72
8
73
4
74
0
42
0.000000001
43
0.0000000001
44
0.0000000001
40
0
40
0
40
0
40
0
40
0.16884445864134984
40
0.16884445864134984
40
0.16884445864134984
40
0.16884445864134984
10
46.887685015236976
20
10.515796050100496
30
0
10
46.844519085790708
20
9.9546389672990188
30
0
10
46.782243763281024
20
9.5314208662771644
30
0
10
46.690293774296123
20
9.1939021675890942
30
0
0
SPLINE
5
197
100
AcDbEntity
8
0
100
AcDbSpline
70
0
71
3
72
12
73
8
74
0
42
0.000000001
43
0.0000000001
44
0.0000000001
40
-0.15290171987169793
40
-0.15290171987169793
40
-0.15290171987169793
40
-0.15290171987169793
40
-0.10574919543986824
40
-0.10574919543986824
40
-0.058596671008038621
40
-0.058596671008038621
40
0
40
0
40
0
40
0
10
46.690293774296123
20
9.1939021675890942
30
0
10
46.64898033234698
20
9.0422538713909244
30
0
10
46.58408710415037
20
8.8980370494718652
30
0
10
46.4118990307839
20
8.6350402960844779
30
0
10
46.305669266455311
20
8.5178871486196979
30
0
10
46.03100268688209
20
8.2969513449199965
30
0
10
45.85635042407452
20
8.2054262244851017
30
0
10
45.66907200831384
20
8.1499503636345878
30
0
0
ARC
5
198
100
AcDbEntity
8
0
100
AcDbCircle
10
-48.083261120685222
20
-4.4408920985006262e-15
30
0
40
8.5000000000000071
210
-0
220
0
230
1
100
AcDbArc
50
286.50041254847343
51
345.89790250326354
0
SPLINE
5
199
100
AcDbEntity
8
0
100
AcDbSpline
70
0
71
3
72
12
73
8
74
0
42
0.000000001
43
0.0000000001
44
0.0000000001
40
-0.1462077180304534
40
-0.1462077180304534
40
-0.1462077180304534
40
-0.1462077180304534
40
-0.10240219451924622
40
-0.10240219451924622
40
-0.058596671008038892
40
-0.058596671008038892
40
0
40
0
40
0
40
0
10
-39.839424801948986
20
-2.0710293937762958
30
0
10
-39.803847340458219
20
-1.9294115248810195
30
0
10
-39.747780956183334
20
-1.7937445010043573
30
0
10
-39.59822344218442
20
-1.5429097820503657
30
0
10
-39.50553057064765
20
-1.4290809088262235
30
0
10
-39.253835578778592
20
-1.1985097282410129
30
0
10
-39.085417060279617
20
-1.0959647956454166
30
0
10
-38.902084919397666
20
-1.0285845146533168
30
0
0
SPLINE
5
200
100
AcDbEntity
8
0
100
AcDbSpline
70
0
71
3
72
8
73
4
74
0
42
0.000000001
43
0.0000000001
44
0.0000000001
40
0.45275461548409746
40
0.45275461548409746
40
0.45275461548409746
40
0.45275461548409746
40
0.59077368636235073
40
0.59077368636235073
40
0.59077368636235073
40
0.59077368636235073
10
-38.902084919397652
20
-1.0285845146533146
30
0
10
-38.627717546517026
20
-0.92774594597231363
30
0
10
-38.301146189819427
20
-0.83808927724735582
30
0
10
-37.909707808199371
20
-0.74881385687787017
30
0
0
LINE
5
201
100
AcDbEntity
8
0
100
AcDbLine
10
-37.909707808199379
20
-0.74881385687787017
30
0
11
-28.947794047997519
21
1.2951313866769398
31
0
0
ARC
5
202
100
AcDbEntity
8
0
100
AcDbCircle
10
-28.781023795420715
20
0.56390797153251793
30
0
40
0.74999999999999978
210
-0
220
0
230
1
100
AcDbArc
50
-45.000000000000199
51
102.84770485871807
0
LINE
5
203
100
AcDbEntity
8
0
100
AcDbLine
10
-28.250693709530807
20
0.033577885642606525
30
0
11
-33.587572533097848
21
-5.3033009379244467
31
0
0
SPLINE
5
204
100
AcDbEntity
8
0
100
AcDbSpline
70
4
71
5
72
16
73
10
74
0
42
0.000000001
43
0.0000000001
44
0.0000000001
40
0
40
0
40
0
40
0
40
0
40
0
40
0.20000000000000001
40
0.40000000000000002
40
0.60000000000000009
40
0.80000000000000004
40
1
40
1
40
1
40
1
40
1
40
1
41
1
41
1
41
1
41
1
41
1
41
1
41
1
41
1
41
1
41
1
10
-38.800057819921477
20
-17.586853541388074
30
0
10
-38.457047628643018
20
-17.243843350109614
30
0
10
-37.839695965425229
20
-16.482098449924848
30
0
10
-37.119461319682223
20
-15.112542773468501
30
0
10
-36.489732542521295
20
-12.921916524092962
30
0
10
-35.897897591205719
20
-9.9682377359271399
30
0
10
-35.268168863750731
20
-7.7776115362575604
30
0
10
-34.547934288458897
20
-6.4080559302524858
30
0
10
-33.930582688597553
20
-5.6463110934241545
30
0
10
-33.587572533097848
20
-5.3033009379244467
30
0
0
LINE
5
205
100
AcDbEntity
8
0
100
AcDbLine
10
-38.800057819921477
20
-17.586853541388074
30
0
11
-45.283671270743454
21
-24.070466992210051
31
0
0
SPLINE
5
206
100
AcDbEntity
8
0
100
AcDbSpline
70
0
71
3
72
20
73
16
74
0
42
0.000000001
43
0.0000000001
44
0.0000000001
40
0
40
0
40
0
40
0
40
0.15106749573424602
40
0.15106749573424602
40
0.22462064097295514
40
0.22462064097295514
40
0.27354088002965299
40
0.27354088002965299
40
0.31671543264761504
40
0.31671543264761504
40
0.36582812343648136
40
0.36582812343648136
40
0.44187952699884092
40
0.44187952699884092
40
0.57917832178834094
40
0.57917832178834094
40
0.57917832178834094
40
0.57917832178834094
10
-45.283671270743454
20
-24.070466992210051
30
0
10
-45.639740772911964
20
-24.426536494378563
30
0
10
-45.987169651712449
20
-24.684328191931243
30
0
10
-46.462701102547904
20
-24.901355086002699
30
0
10
-46.632279586134814
20
-24.955224186244848
30
0
10
-46.91612337124198
20
-24.974932720199764
30
0
10
-47.028758233671688
20
-24.964094766803321
30
0
10
-47.231564979192761
20
-24.896386249505426
30
0
10
-47.317178615401801
20
-24.846942682676296
30
0
10
-47.479850159454273
20
-24.707442426752657
30
0
10
-47.54993600247289
20
-24.616343469107306
30
0
10
-47.694259404584443
20
-24.363840504928682
30
0
10
-47.751443554898515
20
-24.188351196803556
30
0
10
-47.855536675793701
20
-23.702863689693665
30
0
10
-47.872956815409999
20
-23.324329452349801
30
0
10
-47.839913170775645
20
-22.894762072103127
30
0
0
LINE
5
207
100
AcDbEntity
8
0
100
AcDbLine
10
-47.839913170775638
20
-22.894762072103127
30
0
11
-46.887685015236968
21
-10.515796050100493
31
0
0
SPLINE
5
208
100
AcDbEntity
8
0
100
AcDbSpline
70
0
71
3
72
8
73
4
74
0
42
0.000000001
43
0.0000000001
44
0.0000000001
40
0
40
0
40
0
40
0
40
0.16884445864137126
40
0.16884445864137126
40
0.16884445864137126
40
0.16884445864137126
10
-46.887685015236976
20
-10.515796050100491
30
0
10
-46.844519085790708
20
-9.954638967298937
30
0
10
-46.782243763280995
20
-9.5314208662771076
30
0
10
-46.690293774296123
20
-9.1939021675890906
30
0
0
SPLINE
5
209
100
AcDbEntity
8
0
100
AcDbSpline
70
0
71
3
72
12
73
8
74
0
42
0.000000001
43
0.0000000001
44
0.0000000001
40
-0.15290171987169748
40
-0.15290171987169748
40
-0.15290171987169748
40
-0.15290171987169748
40
-0.10574919543986794
40
-0.10574919543986794
40
-0.058596671008038718
40
-0.058596671008038718
40
0
40
0
40
0
40
0
10
-46.690293774296123
20
-9.1939021675890906
30
0
10
-46.64898033234698
20
-9.0422538713909191
30
0
10
-46.584087104150356
20
-8.8980370494718635
30
0
10
-46.411899030783879
20
-8.6350402960844761
30
0
10
-46.305669266455311
20
-8.5178871486196996
30
0
10
-46.03100268688209
20
-8.2969513449200001
30
0
10
-45.85635042407452
20
-8.2054262244851035
30
0
10
-45.66907200831384
20
-8.1499503636345914
30
0
0
LWPOLYLINE
5
210
100
AcDbEntity
8
0
100
AcDbPolyline
90
9
70
1
43
0.0
10
9.5459416724589357
20
-13.788582422798497
10
9.6141225139463522
20
-13.85676326428591
42
-0.2462470509749744
10
10.444131465373228
20
-16.516280033469485
10
6.8124581468626122
20
-36.43143246562385
42
-0.4142135623730942
10
3.9045200463538969
20
-38.442376523425999
42
-0.33484208283871808
10
2.5521266475280795
20
-35.752352024329738
10
6.1959953295910992
20
-15.77032338861552
42
-0.15241985835359728
10
7.0260042810179746
20
-14.187199470679817
10
7.4246213288992937
20
-13.788582422798495
42
-0.41421356237309459
0
LWPOLYLINE
5
211
100
AcDbEntity
8
0
100
AcDbPolyline
90
9
70
1
43
0.0
10
13.85676326428591
20
-9.614122513946354
10
13.788582422798495
20
-9.5459416724589392
42
-0.41421356237309614
10
13.788582422798495
20
-7.4246213288992973
10
14.187199470679806
20
-7.026004281017979
42
-0.1524198583535975
10
15.770323388615513
20
-6.1959953295911028
10
35.657678238804749
20
-2.5693911029232872
42
-0.41421356237309187
10
38.565616339313451
20
-4.5803351607254381
42
-0.33484208283871802
10
36.526106251148839
20
-6.7951936914674125
10
16.516280033469492
20
-10.444131465373232
42
-0.24624705097497462
0
LWPOLYLINE
5
212
100
AcDbEntity
8
0
100
AcDbPolyline
90
9
70
1
43
0.0
10
-9.5459416724589357
20
13.788582422798497
10
-9.6141225139463522
20
13.85676326428591
42
-0.24624705097497462
10
-10.444131465373228
20
16.516280033469489
10
-6.8124581468626078
20
36.431432465623843
42
-0.41421356237309581
10
-3.9045200463539014
20
38.442376523425999
42
-0.33484208283871786
10
-2.5521266475280808
20
35.752352024329738
10
-6.1959953295910983
20
15.770323388615523
42
-0.15241985835359673
10
-7.0260042810179772
20
14.187199470679815
10
-7.4246213288992902
20
13.788582422798498
42
-0.4142135623730957
0
LWPOLYLINE
5
213
100
AcDbEntity
8
0
100
AcDbPolyline
90
9
70
1
43
0.0
10
-13.85676326428591
20
9.614122513946354
10
-13.788582422798495
20
9.5459416724589392
42
-0.41421356237309614
10
-13.788582422798495
20
7.4246213288992973
10
-14.187199470679806
20
7.0260042810179781
42
-0.15241985835359706
10
-15.770323388615514
20
6.1959953295911019
10
-35.657678238804749
20
2.5693911029232854
42
-0.41421356237309437
10
-38.565616339313443
20
4.5803351607254399
42
-0.33484208283871919
10
-36.526106251148839
20
6.7951936914674143
10
-16.516280033469485
20
10.444131465373232
42
-0.24624705097497462
0
SPLINE
5
214
100
AcDbEntity
8
0
100
AcDbSpline
70
0
71
3
72
12
73
8
74
0
42
0.000000001
43
0.0000000001
44
0.0000000001
40
-0.15290171987169898
40
-0.15290171987169898
40
-0.15290171987169898
40
-0.15290171987169898
40
-0.10574919543986919
40
-0.10574919543986919
40
-0.058596671008039232
40
-0.058596671008039232
40
0
40
0
40
0
40
0
10
8.1499503636345949
20
45.66907200831384
30
0
10
8.1945915836754342
20
45.81977425679991
30
0
10
8.2626433106436536
20
45.962527839055682
30
0
10
8.4405782425605054
20
46.221671013586118
30
0
10
8.5493608190900154
20
46.336457658426937
30
0
10
8.8288236682240377
20
46.551294515704214
30
0
10
9.0054480937441213
20
46.638953359434495
30
0
10
9.1939021675891102
20
46.690293774296123
30
0
0
SPLINE
5
215
100
AcDbEntity
8
0
100
AcDbSpline
70
0
71
3
72
8
73
4
74
0
42
0.000000001
43
0.0000000001
44
0.0000000001
40
0.47533362166035603
40
0.47533362166035603
40
0.47533362166035603
40
0.47533362166035603
40
0.65074788571996711
40
0.65074788571996711
40
0.65074788571996711
40
0.65074788571996711
10
9.193902167589119
20
46.690293774296109
30
0
10
9.530225186602836
20
46.781918025082462
30
0
10
9.9527335339724292
20
46.844372513996362
30
0
10
10.515796050100503
20
46.887685015236976
30
0
0
LINE
5
216
100
AcDbEntity
8
0
100
AcDbLine
10
10.515796050100503
20
46.887685015236968
30
0
11
22.894762072103127
21
47.839913170775631
31
0
0
SPLINE
5
217
100
AcDbEntity
8
0
100
AcDbSpline
70
0
71
3
72
20
73
16
74
0
42
0.000000001
43
0.0000000001
44
0.0000000001
40
0
40
0
40
0
40
0
40
0.15106749573419348
40
0.15106749573419348
40
0.2246206409728416
40
0.2246206409728416
40
0.2735408800295141
40
0.2735408800295141
40
0.31671543264745039
40
0.31671543264745039
40
0.36582812343628457
40
0.36582812343628457
40
0.44187952699861294
40
0.44187952699861294
40
0.57917832178858331
40
0.57917832178858331
40
0.57917832178858331
40
0.57917832178858331
10
22.894762072103134
20
47.839913170775638
30
0
10
23.396837152887361
20
47.878534330835961
30
0
10
23.828393435884916
20
47.848160662025009
30
0
10
24.330683060033827
20
47.703467998228845
30
0
10
24.494494189049725
20
47.634008254009075
30
0
10
24.722830600814053
20
47.464249001780423
30
0
10
24.801296117193967
20
47.382718417288388
30
0
10
24.911214358768067
20
47.199325398029828
30
0
10
24.944039630547003
20
47.106068427575295
30
0
10
24.976763511235809
20
46.894286699657464
30
0
10
24.970690234513576
20
46.779507952558703
30
0
10
24.915941979583106
20
46.493868984807335
30
0
10
24.845152495398189
20
46.323412617246078
30
0
10
24.608234803150147
20
45.887060116990952
30
0
10
24.375114342946134
20
45.58831862147953
30
0
10
24.070466992210058
20
45.283671270743454
30
0
0
LINE
5
218
100
AcDbEntity
8
0
100
AcDbLine
10
24.070466992210058
20
45.283671270743454
30
0
11
17.586853541388081
21
38.800057819921477
31
0
0
SPLINE
5
219
100
AcDbEntity
8
0
100
AcDbSpline
70
4
71
5
72
16
73
10
74
0
42
0.000000001
43
0.0000000001
44
0.0000000001
40
0
40
0
40
0
40
0
40
0
40
0
40
0.20000000000000001
40
0.40000000000000002
40
0.60000000000000009
40
0.80000000000000004
40
1
40
1
40
1
40
1
40
1
40
1
41
1
41
1
41
1
41
1
41
1
41
1
41
1
41
1
41
1
41
1
10
17.586853541388081
20
38.800057819921477
30
0
10
17.243843350109621
20
38.457047628643018
30
0
10
16.482098449924855
20
37.839695965425229
30
0
10
15.112542773468506
20
37.119461319682216
30
0
10
12.921916524092968
20
36.489732542521295
30
0
10
9.9682377359271452
20
35.897897591205719
30
0
10
7.7776115362575631
20
35.268168863750738
30
0
10
6.408055930252492
20
34.54793428845889
30
0
10
5.6463110934241589
20
33.930582688597553
30
0
10
5.3033009379244511
20
33.587572533097848
30
0
0
LINE
5
220
100
AcDbEntity
8
0
100
AcDbLine
10
5.3033009379244511
20
33.587572533097855
30
0
11
-0.033577885642601668
21
28.250693709530807
31
0
0
ARC
5
221
100
AcDbEntity
8
0
100
AcDbCircle
10
-0.56390797153251349
20
28.781023795420715
30
0
40
0.75
210
0
220
0
230
1
100
AcDbArc
50
167.15229514128191
51
315.00000000000017
0
LINE
5
222
100
AcDbEntity
8
0
100
AcDbLine
10
-1.2951313866769345
20
28.947794047997519
30
0
11
0.74881385687787905
21
37.909707808199371
31
0
0
SPLINE
5
223
100
AcDbEntity
8
0
100
AcDbSpline
70
0
71
3
72
8
73
4
74
0
42
0.000000001
43
0.0000000001
44
0.0000000001
40
0
40
0
40
0
40
0
40
0.12497683143333689
40
0.12497683143333689
40
0.12497683143333689
40
0.12497683143333689
10
0.74881385687787461
20
37.909707808199371
30
0
10
0.84144682463069609
20
38.31586774373099
30
0
10
0.9315565755925137
20
38.638085726585338
30
0
10
1.0285845146533146
20
38.902084919397652
30
0
0
SPLINE
5
224
100
AcDbEntity
8
0
100
AcDbSpline
70
0
71
3
72
12
73
8
74
0
42
0.000000001
43
0.0000000001
44
0.0000000001
40
-0.14620771803045418
40
-0.14620771803045418
40
-0.14620771803045418
40
-0.14620771803045418
40
-0.10240219451924656
40
-0.10240219451924656
40
-0.058596671008038989
40
-0.058596671008038989
40
0
40
0
40
0
40
0
10
1.028584514653319
20
38.902084919397659
30
0
10
1.0789564629639359
20
39.039139811247452
30
0
10
1.1490720903233775
20
39.168107945347323
30
0
10
1.3243472590487193
20
39.401697588642079
30
0
10
1.428571275112569
20
39.50507232099352
30
0
10
1.7032643013633475
20
39.707698034015351
30
0
10
1.8815935645162596
20
39.791834438013659
30
0
10
2.0710293937763025
20
39.839424801948986
30
0
0
ARC
5
225
100
AcDbEntity
8
0
100
AcDbCircle
10
1.3322676295501878e-14
20
48.083261120685222
30
0
40
8.4999999999999982
210
-0
220
0
230
1
100
AcDbArc
50
284.10209749673646
51
343.49958745152662
0
CIRCLE
5
226
100
AcDbEntity
8
0
100
AcDbCircle
10
1.1102230246251565e-15
20
14.142135623730949
30
0
40
1.1000000000000001
210
0
220
-0
230
1
0
CIRCLE
5
227
100
AcDbEntity
8
0
100
AcDbCircle
10
-1.1102230246251565e-15
20
-14.142135623730949
30
0
40
1.100000000000001
210
0
220
-0
230
1
0
CIRCLE
5
228
100
AcDbEntity
8
0
100
AcDbCircle
10
-14.142135623730949
20
1.1102230246251565e-15
30
0
40
1.1000000000000001
210
0
220
-0
230
1
0
CIRCLE
5
229
100
AcDbEntity
8
0
100
AcDbCircle
10
14.142135623730949
20
-1.1102230246251565e-15
30
0
40
1.100000000000001
210
0
220
-0
230
1
0
CIRCLE
5
230
100
AcDbEntity
8
0
100
AcDbCircle
10
12.727922251018679
20
12.727922251018672
30
0
40
1.1000000000000001
210
0
220
-0
230
1
0
CIRCLE
5
231
100
AcDbEntity
8
0
100
AcDbCircle
10
-16.970563001358229
20
16.970563001358233
30
0
40
1.0999999999999988
210
0
220
-0
230
1
0
CIRCLE
5
232
100
AcDbEntity
8
0
100
AcDbCircle
10
12.727922251018676
20
-12.727922251018672
30
0
40
1.100000000000001
210
0
220
-0
230
1
0
CIRCLE
5
233
100
AcDbEntity
8
0
100
AcDbCircle
10
-12.727922251018672
20
-12.727922251018676
30
0
40
1.1000000000000001
210
0
220
-0
230
1
0
CIRCLE
5
234
100
AcDbEntity
8
0
100
AcDbCircle
10
16.970563001358229
20
-16.970563001358233
30
0
40
1.0999999999999988
210
0
220
-0
230
1
0
CIRCLE
5
235
100
AcDbEntity
8
0
100
AcDbCircle
10
-12.727922251018672
20
12.727922251018676
30
0
40
1.100000000000001
210
0
220
-0
230
1
0
LWPOLYLINE
5
236
100
AcDbEntity
8
0
100
AcDbPolyline
90
8
70
1
43
0.0
10
5.6568544391532072
20
11.313708688645578
10
7.0710680015263012
20
12.727922251018672
42
-0.41421356237309592
10
7.77817478271285
20
12.727922251018672
10
12.727922251018683
20
7.778174782712842
42
-0.41421356237309692
10
12.727922251018683
20
7.0710680015262914
10
11.313708688645585
20
5.6568544391531983
42
-0.41421356237309365
10
10.606601907459039
20
5.6568544391531974
10
5.6568544391532081
20
10.60660190745903
42
-0.41421356237309592
0
CIRCLE
5
237
100
AcDbEntity
8
0
100
AcDbCircle
10
48.083261120685222
20
4.4408920985006262e-15
30
0
40
2.5
210
0
220
-0
230
1
0
CIRCLE
5
238
100
AcDbEntity
8
0
100
AcDbCircle
10
-1.3322676295501878e-14
20
-48.083261120685222
30
0
40
2.5
210
0
220
-0
230
1
0
CIRCLE
5
239
100
AcDbEntity
8
0
100
AcDbCircle
10
1.3322676295501878e-14
20
48.083261120685222
30
0
40
2.5
210
0
220
-0
230
1
0
CIRCLE
5
240
100
AcDbEntity
8
0
100
AcDbCircle
10
-48.083261120685222
20
-4.4408920985006262e-15
30
0
40
2.5
210
0
220
-0
230
1
0
LWPOLYLINE
5
241
100
AcDbEntity
8
0
100
AcDbPolyline
90
8
70
1
43
0.0
10
1.6215482404745543
20
-12.025612636425812
42
0.41421356237309431
10
1.6215482404745547
20
-13.934800945629494
10
1.975101631067826
20
-14.288354336222763
42
0.41421356237309437
10
3.8842899402715059
20
-14.288354336222763
10
14.288354336222763
20
-3.8842899402715063
42
0.41421356237309476
10
14.288354336222762
20
-1.9751016310678304
10
13.934800945629494
20
-1.6215482404745571
42
0.41421356237309465
10
12.025612636425812
20
-1.6215482404745574
0
LWPOLYLINE
5
242
100
AcDbEntity
8
0
100
AcDbPolyline
90
8
70
1
43
0.0
10
-14.288354467931665
20
3.8842900719804079
42
0.41421356237309437
10
-14.288354467931669
20
1.9751017627767302
10
-13.934800945629494
20
1.6215482404745571
42
0.41421356237309465
10
-12.025612636425812
20
1.6215482404745574
10
-1.6215482404745543
20
12.025612636425812
42
0.41421356237309392
10
-1.6215482404745563
20
13.934800945629489
10
-1.9751017627767276
20
14.288354467931665
42
0.41421356237309437
10
-3.8842900719804074
20
14.288354467931665
0
CIRCLE
5
243
100
AcDbEntity
8
0
100
AcDbCircle
10
26.516504294495533
20
12.727922061357857
30
0
40
1.100000000000001
210
0
220
-0
230
1
0
CIRCLE
5
244
100
AcDbEntity
8
0
100
AcDbCircle
10
-12.727922061357859
20
-26.516504294495533
30
0
40
1.100000000000001
210
0
220
-0
230
1
0
CIRCLE
5
245
100
AcDbEntity
8
0
100
AcDbCircle
10
12.727922061357859
20
26.516504294495533
30
0
40
1.1000000000000001
210
0
220
-0
230
1
0
CIRCLE
5
246
100
AcDbEntity
8
0
100
AcDbCircle
10
-26.516504294495533
20
-12.727922061357857
30
0
40
1.0999999999999988
210
0
220
-0
230
1
0
CIRCLE
5
247
100
AcDbEntity
8
0
100
AcDbCircle
10
38.890873523705864
20
57.275650150657469
30
0
40
1.0999999999999988
210
0
220
-0
230
1
0
CIRCLE
5
248
100
AcDbEntity
8
0
100
AcDbCircle
10
57.275650150657455
20
38.890873523705849
30
0
40
1.100000000000001
210
0
220
-0
230
1
0
CIRCLE
5
249
100
AcDbEntity
8
0
100
AcDbCircle
10
-40.658640524087431
20
-55.50788315027588
30
0
40
1.1000000000000034
210
0
220
-0
230
1
0
CIRCLE
5
250
100
AcDbEntity
8
0
100
AcDbCircle
10
-31.819805627546689
20
-46.669048253735134
30
0
40
1.1000000000000001
210
0
220
-0
230
1
0
CIRCLE
5
251
100
AcDbEntity
8
0
100
AcDbCircle
10
-46.669048253735141
20
-31.819805627546678
30
0
40
1.1000000000000034
210
0
220
-0
230
1
0
LWPOLYLINE
5
252
100
AcDbEntity
8
0
100
AcDbPolyline
90
8
70
1
43
0.0
10
-24.041631297912449
20
-33.941126234524127
10
-33.941126234524113
20
-24.041631297912463
42
-0.41421356237309503
10
-33.941126234524113
20
-22.627417735539371
10
-28.284271985031737
20
-16.970563486046991
42
-0.41421356237309459
10
-26.870058422658637
20
-16.970563486046991
10
-16.97056348604697
20
-26.870058422658648
42
-0.41421356237309415
10
-16.970563486046967
20
-28.284271985031744
10
-22.627417735539357
20
-33.941126234524127
42
-0.41421356237309415
0
LWPOLYLINE
5
253
100
AcDbEntity
8
0
100
AcDbPolyline
90
6
70
1
43
0.0
10
-40.18187531251391
20
-34.996307241512355
10
-35.055705745218788
20
-33.622754245690636
42
-0.57735026918961607
10
-33.622754245690636
20
-35.055705745218781
10
-34.996307241512369
20
-40.181875312513917
42
-0.57735026918963062
10
-36.953755392258842
20
-40.706371963732209
10
-40.706371963732231
20
-36.953755392258827
42
-0.57735026918963384
0
LWPOLYLINE
5
254
100
AcDbEntity
8
0
100
AcDbPolyline
90
6
70
1
43
0.0
10
-32.561030815159661
20
-31.128079094307061
10
-37.687200382454776
20
-32.501632090128787
42
-0.57735026918962218
10
-39.120151881982942
20
-31.068680590600621
10
-37.746598886161209
20
-25.942511023305507
42
-0.57735026918962762
10
-35.789150735414744
20
-25.418014372087192
10
-32.036534163941369
20
-29.170630943560599
42
-0.5773502691896184
0
LWPOLYLINE
5
255
100
AcDbEntity
8
0
100
AcDbPolyline
90
6
70
1
43
0.0
10
-29.170631164885034
20
-32.03653394261692
10
-25.418014593411648
20
-35.789150514090309
42
-0.57735026918961696
10
-25.942511244629955
20
-37.746598664836768
10
-31.068680811925073
20
-39.120151660658507
42
-0.57735026918962062
10
-32.501632311453228
20
-37.687200161130342
10
-31.128079315631496
20
-32.561030593835213
42
-0.57735026918962573
0
CIRCLE
5
256
100
AcDbEntity
8
0
100
AcDbCircle
10
-5.3033009379244493
20
-28.637825064792011
30
0
40
1.100000000000001
210
0
220
-0
230
1
0
CIRCLE
5
257
100
AcDbEntity
8
0
100
AcDbCircle
10
28.637825064792011
20
5.303300937924444
30
0
40
1.100000000000001
210
0
220
0
230
1
0
CIRCLE
5
258
100
AcDbEntity
8
0
100
AcDbCircle
10
5.3033009379244493
20
28.637825064792011
30
0
40
1.100000000000001
210
0
220
-0
230
1
0
CIRCLE
5
259
100
AcDbEntity
8
0
100
AcDbCircle
10
-28.637825064792011
20
-5.303300937924444
30
0
40
1.100000000000001
210
0
220
-0
230
1
0
LWPOLYLINE
5
260
100
AcDbEntity
8
0
100
AcDbPolyline
90
8
70
1
43
0.0
10
47.729707730091974
20
35.001785668734108
10
36.415999231107193
20
23.688077169749342
42
-0.41421356237309503
10
35.001785668734101
20
23.688077169749342
10
23.688077169749352
20
35.001785668734101
42
-0.41421356237309592
10
23.688077169749349
20
36.415999231107193
10
35.001785668734122
20
47.72970773009196
42
-0.41421356237309503
10
36.415999231107214
20
47.72970773009196
10
47.729707730091974
20
36.4159992311072
42
-0.41421356237309503
0
LWPOLYLINE
5
261
100
AcDbEntity
8
0
100
AcDbPolyline
90
4
70
1
43
0.0
10
49.851028626829006
20
34.60889317168543
10
51.265241829783008
20
34.608893161148721
42
1.0000001680927739
10
51.265242199738807
20
36.808893161148724
10
49.851028626829006
20
36.80889317168544
42
0.99999999999999989
0
LWPOLYLINE
5
262
100
AcDbEntity
8
0
100
AcDbPolyline
90
4
70
1
43
0.0
10
34.608892982024614
20
21.566757147559418
10
34.608892971487904
20
20.152543574649609
42
0.99999999999999989
10
36.8088929714879
20
20.152543574649613
10
36.808892982024624
20
21.566757147559418
42
0.99999999999999989
0
LWPOLYLINE
5
263
100
AcDbEntity
8
0
100
AcDbPolyline
90
4
70
1
43
0.0
10
36.808892602702997
20
49.851028816489809
10
36.808892613239706
20
51.265242104561928
42
1.0000001294772944
10
34.608892613239689
20
51.26524238939961
10
34.608892602702987
20
49.851028816489809
42
0.99999999999999989
0
LWPOLYLINE
5
264
100
AcDbEntity
8
0
100
AcDbPolyline
90
4
70
1
43
0.0
10
21.566756957898608
20
36.808892792363807
10
20.152543384988803
20
36.808892802900523
42
0.99999999999999989
10
20.152543384988803
20
34.608892802900513
10
21.566756957898608
20
34.60889279236379
42
0.99999999999999989
0
CIRCLE
5
265
100
AcDbEntity
8
0
100
AcDbCircle
10
22.450640302672884
20
5.4800775541957378
30
0
40
1.6000000000000014
210
0
220
0
230
1
0
CIRCLE
5
266
100
AcDbEntity
8
0
100
AcDbCircle
10
-5.4800775541957458
20
-22.450640302672888
30
0
40
1.6000000000000014
210
0
220
0
230
1
0
CIRCLE
5
267
100
AcDbEntity
8
0
100
AcDbCircle
10
5.4800775541957414
20
22.450640302672884
30
0
40
1.6000000000000014
210
0
220
0
230
1
0
CIRCLE
5
268
100
AcDbEntity
8
0
100
AcDbCircle
10
-22.450640302672888
20
-5.4800775541957423
30
0
40
1.6000000000000014
210
0
220
0
230
1
0
SPLINE
5
269
100
AcDbEntity
8
0
100
AcDbSpline
70
0
71
3
72
10
73
6
74
0
42
0.000000001
43
0.0000000001
44
0.0000000001
40
0
40
0
40
0
40
0
40
0.010465399625137196
40
0.010465399625137196
40
0.02093079925027096
40
0.02093079925027096
40
0.02093079925027096
40
0.02093079925027096
10
-27.033072458204703
20
-55.775671328426277
30
0
10
-26.999352132341173
20
-55.766733794934211
30
0
10
-26.965726264644843
20
-55.757443609478102
30
0
10
-26.898674493635202
20
-55.738160987002736
30
0
10
-26.865250426288885
20
-55.728169077967422
30
0
10
-26.831933667973836
20
-55.717828212595435
30
0
0
ARC
5
270
100
AcDbEntity
8
0
100
AcDbCircle
10
-14.974729078692757
20
-93.920010078660709
30
0
40
39.999999999999936
210
0
220
-0
230
1
100
AcDbArc
50
79.273790328411025
51
107.24331313876918
0
LWPOLYLINE
5
271
100
AcDbEntity
8
0
100
AcDbPolyline
90
4
70
1
43
0.0
10
0.90484318386264695
20
43.539996909448149
10
1.5387707905887882
20
42.180534769721874
42
0.99999999999999989
10
3.5326483812407288
20
43.110295159666514
10
2.8987207745145827
20
44.469757299392789
42
0.99999999999999989
0
LWPOLYLINE
5
272
100
AcDbEntity
8
0
100
AcDbPolyline
90
4
70
1
43
0.0
10
-53.985988818221401
20
1.5387703004763598
10
-52.626526678495125
20
0.9048426937502162
42
1.0000000074505806
10
-51.696766502665589
20
2.8987198252308528
10
-53.056228428276775
20
3.5326478911283132
42
0.99999999999999989
0
LWPOLYLINE
5
273
100
AcDbEntity
8
0
100
AcDbPolyline
90
4
70
1
43
0.0
10
0.90484269375020965
20
-52.626526678495139
10
1.5387703004763507
20
-53.985988818221401
42
0.99999999999999989
10
3.5326478911282946
20
-53.056228428276768
10
2.898720284402152
20
-51.696766288550499
42
0.99999999999999989
0
LWPOLYLINE
5
274
100
AcDbEntity
8
0
100
AcDbPolyline
90
4
70
1
43
0.0
10
4.5432646394672815
20
-47.178418855165212
10
5.90272677919355
20
-46.544491248439073
42
0.99999999999999989
10
4.9729663892489073
20
-44.550613657787139
10
3.6135042495226477
20
-45.184541264513278
42
0.99999999999999989
0
LWPOLYLINE
5
275
100
AcDbEntity
8
0
100
AcDbPolyline
90
4
70
1
43
0.0
10
-42.180534769721874
20
-1.5387707905887793
10
-43.539996909448142
20
-0.90484318386263785
42
1.0000000074505806
10
-44.469757085277692
20
-2.8987203153432697
10
-43.110295159666514
20
-3.5326483812407194
42
0.99999999999999989
0
LWPOLYLINE
5
276
100
AcDbEntity
8
0
100
AcDbPolyline
90
4
70
1
43
0.0
10
53.985988818221401
20
-1.5387703004763609
10
52.626526678495125
20
-0.90484269375021842
42
0.99999999999999989
10
51.696766502665589
20
-2.8987198252308528
10
53.056228428276775
20
-3.532647891128311
42
0.99999999999999989
0
LWPOLYLINE
5
277
100
AcDbEntity
8
0
100
AcDbPolyline
90
4
70
1
43
0.0
10
-0.90484318386264639
20
-43.539996909448142
10
-1.5387707905887877
20
-42.180534769721874
42
0.99999999999999989
10
-3.5326483812407288
20
-43.110295159666514
10
-2.8987207745145795
20
-44.469757299392789
42
0.99999999999999989
0
LWPOLYLINE
5
278
100
AcDbEntity
8
0
100
AcDbPolyline
90
4
70
1
43
0.0
10
-4.9729668793613513
20
-51.61590993015615
10
-3.6135047396350695
20
-50.981982323430003
42
0.99999999999999989
10
-4.543265129579706
20
-48.988104732778062
10
-5.9027272693059878
20
-49.622032339504202
42
0.99999999999999989
0
LWPOLYLINE
5
279
100
AcDbEntity
8
0
100
AcDbPolyline
90
4
70
1
43
0.0
10
46.544491248439073
20
-5.9027267791935589
10
47.178418855165212
20
-4.5432646394672886
42
0.99999999999999989
10
45.184541723684575
20
-3.6135044636377511
10
44.550613657787139
20
-4.9729663892489127
42
0.99999999999999989
0
LWPOLYLINE
5
280
100
AcDbEntity
8
0
100
AcDbPolyline
90
4
70
1
43
0.0
10
-46.544491248439073
20
5.9027267791935598
10
-47.178418855165212
20
4.5432646394672913
42
0.99999999999999989
10
-45.184541723684575
20
3.6135044636377511
10
-44.550613657787139
20
4.9729663892489109
42
0.99999999999999989
0
LWPOLYLINE
5
281
100
AcDbEntity
8
0
100
AcDbPolyline
90
4
70
1
43
0.0
10
42.180534769721874
20
1.5387707905887811
10
43.539996909448142
20
0.90484318386263973
42
0.99999999999999989
10
44.469757085277692
20
2.8987203153432697
10
43.110295159666506
20
3.5326483812407172
42
0.99999999999999989
0
LWPOLYLINE
5
282
100
AcDbEntity
8
0
100
AcDbPolyline
90
4
70
1
43
0.0
10
-50.98198232343001
20
-3.6135047396350597
10
-51.61590993015615
20
-4.9729668793613406
42
0.99999999999999989
10
-49.622032798675519
20
-5.9027270551908835
10
-48.988104732778062
20
-4.5432651295796944
42
0.99999999999999989
0
LWPOLYLINE
5
283
100
AcDbEntity
8
0
100
AcDbPolyline
90
4
70
1
43
0.0
10
-4.5432646394672851
20
47.178418855165212
10
-5.9027267791935536
20
46.544491248439073
42
0.9999999925494194
10
-4.9729663892489073
20
44.550613657787139
10
-3.6135042495226468
20
45.184541264513257
42
0.99999999999999989
0
LWPOLYLINE
5
284
100
AcDbEntity
8
0
100
AcDbPolyline
90
4
70
1
43
0.0
10
50.981982323430003
20
3.6135047396350606
10
51.61590993015615
20
4.9729668793613406
42
0.99999999999999989
10
49.622032798675519
20
5.9027270551908835
10
48.988104732778069
20
4.5432651295796962
42
0.99999999999999989
0
LWPOLYLINE
5
285
100
AcDbEntity
8
0
100
AcDbPolyline
90
4
70
1
43
0.0
10
-0.90484269375020743
20
52.626526678495139
10
-1.5387703004763507
20
53.985988818221401
42
0.99999999999999989
10
-3.5326478911282946
20
53.056228428276768
10
-2.8987202844021565
20
51.696766288550499
42
0.99999999999999989
0
LWPOLYLINE
5
286
100
AcDbEntity
8
0
100
AcDbPolyline
90
4
70
1
43
0.0
10
4.9729668793613495
20
51.61590993015615
10
3.6135047396350672
20
50.981982323430003
42
0.99999999999999989
10
4.543265129579706
20
48.988104732778062
10
5.9027272693059851
20
49.622032339504216
42
0.99999999999999989
0
CIRCLE
5
287
100
AcDbEntity
8
0
100
AcDbCircle
10
-15.839191544545139
20
-32.244068396028339
30
0
40
1.100000000000001
210
0
220
0
230
1
0
CIRCLE
5
288
100
AcDbEntity
8
0
100
AcDbCircle
10
-32.244068396028339
20
-15.839191544545132
30
0
40
1.100000000000001
210
0
220
0
230
1
0
CIRCLE
5
289
100
AcDbEntity
8
0
100
AcDbCircle
10
8.7681237326796637
20
25.17300058416286
30
0
40
1.100000000000001
210
0
220
0
230
1
0
CIRCLE
5
290
100
AcDbEntity
8
0
100
AcDbCircle
10
25.17300058416286
20
8.7681237326796602
30
0
40
1.100000000000001
210
0
220
0
230
1
0
LWPOLYLINE
5
291
100
AcDbEntity
8
0
100
AcDbPolyline
90
6
70
1
43
0.0
10
-15.963822653182014
20
-14.530871153653848
10
-21.089992220477129
20
-15.90442414947557
42
0.57735026918962851
10
-21.614488871695443
20
-17.86187230022205
10
-17.861872300222053
20
-21.614488871695446
42
0.57735026918962551
10
-15.904424149475583
20
-21.089992220477136
10
-14.530871153653855
20
-15.96382265318201
42
0.57735026918962373
0
CIRCLE
5
292
100
AcDbEntity
8
0
100
AcDbCircle
10
57.275650150657455
20
38.890873523705856
30
0
40
1.100000000000001
210
0
220
0
230
1
0
CIRCLE
5
293
100
AcDbEntity
8
0
100
AcDbCircle
10
38.890873523705864
20
57.275650150657455
30
0
40
1.0999999999999988
210
0
220
0
230
1
0
ARC
5
294
100
AcDbEntity
8
0
100
AcDbCircle
10
7.7715611723760958e-15
20
-48.083261120685243
30
0
40
8.500000000000032
210
0
220
0
230
1
100
AcDbArc
50
104.10209749673653
51
163.49958745152648
0
SPLINE
5
295
100
AcDbEntity
8
0
100
AcDbSpline
70
0
71
3
72
12
73
8
74
0
42
0.000000001
43
0.0000000001
44
0.0000000001
40
0
40
0
40
0
40
0
40
0.058596671008038913
40
0.058596671008038913
40
0.10240219451924627
40
0.10240219451924627
40
0.14620771803045371
40
0.14620771803045371
40
0.14620771803045371
40
0.14620771803045371
10
-1.0285845146533168
20
-38.902084919397666
30
0
10
-1.0959647956454166
20
-39.085417060279617
30
0
10
-1.1985097282410084
20
-39.253835578778606
30
0
10
-1.4290809088262235
20
-39.50553057064765
30
0
10
-1.5429097820503657
20
-39.59822344218442
30
0
10
-1.7937445010043573
20
-39.747780956183334
30
0
10
-1.9294115248810217
20
-39.803847340458212
30
0
10
-2.071029393776298
20
-39.839424801948986
30
0
0
SPLINE
5
296
100
AcDbEntity
8
0
100
AcDbSpline
70
0
71
3
72
8
73
4
74
0
42
0.000000001
43
0.0000000001
44
0.0000000001
40
0
40
0
40
0
40
0
40
0.12497683143332464
40
0.12497683143332464
40
0.12497683143332464
40
0.12497683143332464
10
-0.74881385687787239
20
-37.909707808199386
30
0
10
-0.84144682463068943
20
-38.315867743730955
30
0
10
-0.93155657559250704
20
-38.638085726585338
30
0
10
-1.0285845146533212
20
-38.902084919397666
30
0
0
LINE
5
297
100
AcDbEntity
8
0
100
AcDbLine
10
-0.74881385687787239
20
-37.909707808199386
30
0
11
1.2951313866769387
21
-28.947794047997505
31
0
0
ARC
5
298
100
AcDbEntity
8
0
100
AcDbCircle
10
0.56390797153251326
20
-28.781023795420722
30
0
40
0.75000000000000044
210
0
220
0
230
1
100
AcDbArc
50
-12.847704858716426
51
134.99999999999969
0
LINE
5
299
100
AcDbEntity
8
0
100
AcDbLine
10
0.033577885642604291
20
-28.250693709530807
30
0
11
-5.3033009379244511
21
-33.587572533097848
31
0
0
SPLINE
5
300
100
AcDbEntity
8
0
100
AcDbSpline
70
4
71
5
72
16
73
10
74
0
42
0.000000001
43
0.0000000001
44
0.0000000001
40
-1
40
-1
40
-1
40
-1
40
-1
40
-1
40
-0.80000000000000004
40
-0.60000000000000009
40
-0.40000000000000002
40
-0.20000000000000001
40
0
40
0
40
0
40
0
40
0
40
0
41
1
41
1
41
1
41
1
41
1
41
1
41
1
41
1
41
1
41
1
10
-5.3033009379244511
20
-33.587572533097848
30
0
10
-5.6463110934241589
20
-33.930582688597553
30
0
10
-6.408055930252492
20
-34.54793428845889
30
0
10
-7.7776115362575631
20
-35.268168863750738
30
0
10
-9.9682377359271452
20
-35.897897591205719
30
0
10
-12.921916524092968
20
-36.489732542521295
30
0
10
-15.112542773468506
20
-37.119461319682216
30
0
10
-16.482098449924855
20
-37.839695965425229
30
0
10
-17.243843350109621
20
-38.457047628643018
30
0
10
-17.586853541388081
20
-38.800057819921477
30
0
0
LINE
5
301
100
AcDbEntity
8
0
100
AcDbLine
10
-17.586853541388084
20
-38.800057819921477
30
0
11
-24.070466992210058
21
-45.283671270743454
31
0
0
SPLINE
5
302
100
AcDbEntity
8
0
100
AcDbSpline
70
0
71
3
72
20
73
16
74
0
42
0.000000001
43
0.0000000001
44
0.0000000001
40
0
40
0
40
0
40
0
40
0.15106749573419348
40
0.15106749573419348
40
0.2246206409728416
40
0.2246206409728416
40
0.2735408800295141
40
0.2735408800295141
40
0.31671543264745039
40
0.31671543264745039
40
0.36582812343628457
40
0.36582812343628457
40
0.44187952699861294
40
0.44187952699861294
40
0.57917832178858331
40
0.57917832178858331
40
0.57917832178858331
40
0.57917832178858331
10
-22.894762072103134
20
-47.839913170775638
30
0
10
-23.396837152887361
20
-47.878534330835961
30
0
10
-23.828393435884916
20
-47.848160662025009
30
0
10
-24.330683060033827
20
-47.703467998228845
30
0
10
-24.494494189049725
20
-47.634008254009075
30
0
10
-24.722830600814053
20
-47.464249001780423
30
0
10
-24.801296117193967
20
-47.382718417288388
30
0
10
-24.911214358768067
20
-47.199325398029828
30
0
10
-24.944039630547003
20
-47.106068427575295
30
0
10
-24.976763511235809
20
-46.894286699657464
30
0
10
-24.970690234513576
20
-46.779507952558703
30
0
10
-24.915941979583106
20
-46.493868984807335
30
0
10
-24.845152495398189
20
-46.323412617246078
30
0
10
-24.608234803150147
20
-45.887060116990952
30
0
10
-24.375114342946134
20
-45.58831862147953
30
0
10
-24.070466992210058
20
-45.283671270743454
30
0
0
LINE
5
303
100
AcDbEntity
8
0
100
AcDbLine
10
-10.51579605010051
20
-46.887685015236976
30
0
11
-22.894762072103134
21
-47.839913170775638
31
0
0
SPLINE
5
304
100
AcDbEntity
8
0
100
AcDbSpline
70
0
71
3
72
8
73
4
74
0
42
0.000000001
43
0.0000000001
44
0.0000000001
40
0.47533362166028403
40
0.47533362166028403
40
0.47533362166028403
40
0.47533362166028403
40
0.65074788571999753
40
0.65074788571999753
40
0.65074788571999753
40
0.65074788571999753
10
-9.1939021675891102
20
-46.690293774296109
30
0
10
-9.530225186602955
20
-46.78191802508249
30
0
10
-9.9527335339726264
20
-46.844372513996376
30
0
10
-10.515796050100503
20
-46.887685015236976
30
0
0
SPLINE
5
305
100
AcDbEntity
8
0
100
AcDbSpline
70
0
71
3
72
12
73
8
74
0
42
0.000000001
43
0.0000000001
44
0.0000000001
40
0
40
0
40
0
40
0
40
0.058596671008039725
40
0.058596671008039725
40
0.10574919543986984
40
0.10574919543986984
40
0.15290171987169848
40
0.15290171987169848
40
0.15290171987169848
40
0.15290171987169848
10
-8.1499503636345949
20
-45.669072008313833
30
0
10
-8.2054262244851088
20
-45.85635042407452
30
0
10
-8.2969513449200036
20
-46.03100268688209
30
0
10
-8.517887148619705
20
-46.305669266455311
30
0
10
-8.6350402960844939
20
-46.4118990307839
30
0
10
-8.8980370494718848
20
-46.584087104150377
30
0
10
-9.0422538713909404
20
-46.64898033234698
30
0
10
-9.1939021675891048
20
-46.690293774296123
30
0
0
ARC
5
306
100
AcDbEntity
8
0
100
AcDbCircle
10
2.1094237467877974e-14
20
48.083261120685208
30
0
40
8.4999999999999893
210
0
220
0
230
1
100
AcDbArc
50
284.10209749673635
51
343.49958745152662
0
SPLINE
5
307
100
AcDbEntity
8
0
100
AcDbSpline
70
0
71
3
72
12
73
8
74
0
42
0.000000001
43
0.0000000001
44
0.0000000001
40
0
40
0
40
0
40
0
40
0.058596671008039405
40
0.058596671008039405
40
0.10240219451924622
40
0.10240219451924622
40
0.14620771803045315
40
0.14620771803045315
40
0.14620771803045315
40
0.14620771803045315
10
1.0285845146533146
20
38.902084919397659
30
0
10
1.0959647956454166
20
39.085417060279617
30
0
10
1.1985097282410084
20
39.253835578778606
30
0
10
1.4290809088262235
20
39.50553057064765
30
0
10
1.5429097820503657
20
39.59822344218442
30
0
10
1.7937445010043573
20
39.747780956183327
30
0
10
1.9294115248810173
20
39.803847340458212
30
0
10
2.0710293937762891
20
39.839424801948979
30
0
0
SPLINE
5
308
100
AcDbEntity
8
0
100
AcDbSpline
70
0
71
3
72
8
73
4
74
0
42
0.000000001
43
0.0000000001
44
0.0000000001
40
0
40
0
40
0
40
0
40
0.12497683143333822
40
0.12497683143333822
40
0.12497683143333822
40
0.12497683143333822
10
0.74881385687787461
20
37.909707808199371
30
0
10
0.84144682463069609
20
38.315867743730998
30
0
10
0.93155657559252258
20
38.638085726585366
30
0
10
1.0285845146533235
20
38.902084919397673
30
0
0
LINE
5
309
100
AcDbEntity
8
0
100
AcDbLine
10
0.74881385687787461
20
37.909707808199371
30
0
11
-1.2951313866769387
21
28.947794047997505
31
0
0
ARC
5
310
100
AcDbEntity
8
0
100
AcDbCircle
10
-0.56390797153251326
20
28.781023795420722
30
0
40
0.75000000000000044
210
0
220
0
230
1
100
AcDbArc
50
167.15229514128362
51
314.99999999999972
0
LINE
5
311
100
AcDbEntity
8
0
100
AcDbLine
10
-0.033577885642604291
20
28.250693709530807
30
0
11
5.3033009379244511
21
33.587572533097848
31
0
0
SPLINE
5
312
100
AcDbEntity
8
0
100
AcDbSpline
70
4
71
5
72
16
73
10
74
0
42
0.000000001
43
0.0000000001
44
0.0000000001
40
-1
40
-1
40
-1
40
-1
40
-1
40
-1
40
-0.80000000000000004
40
-0.60000000000000009
40
-0.40000000000000002
40
-0.20000000000000001
40
0
40
0
40
0
40
0
40
0
40
0
41
1
41
1
41
1
41
1
41
1
41
1
41
1
41
1
41
1
41
1
10
5.3033009379244511
20
33.587572533097848
30
0
10
5.6463110934241589
20
33.930582688597553
30
0
10
6.408055930252492
20
34.54793428845889
30
0
10
7.7776115362575631
20
35.268168863750738
30
0
10
9.9682377359271452
20
35.897897591205719
30
0
10
12.921916524092968
20
36.489732542521295
30
0
10
15.112542773468506
20
37.119461319682216
30
0
10
16.482098449924855
20
37.839695965425229
30
0
10
17.243843350109621
20
38.457047628643018
30
0
10
17.586853541388081
20
38.800057819921477
30
0
0
LINE
5
313
100
AcDbEntity
8
0
100
AcDbLine
10
17.586853541388084
20
38.800057819921477
30
0
11
24.070466992210058
21
45.283671270743454
31
0
0
SPLINE
5
314
100
AcDbEntity
8
0
100
AcDbSpline
70
0
71
3
72
20
73
16
74
0
42
0.000000001
43
0.0000000001
44
0.0000000001
40
0
40
0
40
0
40
0
40
0.15106749573419348
40
0.15106749573419348
40
0.2246206409728416
40
0.2246206409728416
40
0.2735408800295141
40
0.2735408800295141
40
0.31671543264745039
40
0.31671543264745039
40
0.36582812343628457
40
0.36582812343628457
40
0.44187952699861294
40
0.44187952699861294
40
0.57917832178858331
40
0.57917832178858331
40
0.57917832178858331
40
0.57917832178858331
10
22.894762072103134
20
47.839913170775638
30
0
10
23.396837152887361
20
47.878534330835961
30
0
10
23.828393435884916
20
47.848160662025009
30
0
10
24.330683060033827
20
47.703467998228845
30
0
10
24.494494189049725
20
47.634008254009075
30
0
10
24.722830600814053
20
47.464249001780423
30
0
10
24.801296117193967
20
47.382718417288388
30
0
10
24.911214358768067
20
47.199325398029828
30
0
10
24.944039630547003
20
47.106068427575295
30
0
10
24.976763511235809
20
46.894286699657464
30
0
10
24.970690234513576
20
46.779507952558703
30
0
10
24.915941979583106
20
46.493868984807335
30
0
10
24.845152495398189
20
46.323412617246078
30
0
10
24.608234803150147
20
45.887060116990952
30
0
10
24.375114342946134
20
45.58831862147953
30
0
10
24.070466992210058
20
45.283671270743454
30
0
0
LINE
5
315
100
AcDbEntity
8
0
100
AcDbLine
10
10.51579605010051
20
46.887685015236976
30
0
11
22.894762072103134
21
47.839913170775638
31
0
0
SPLINE
5
316
100
AcDbEntity
8
0
100
AcDbSpline
70
0
71
3
72
8
73
4
74
0
42
0.000000001
43
0.0000000001
44
0.0000000001
40
0.47533362166035675
40
0.47533362166035675
40
0.47533362166035675
40
0.47533362166035675
40
0.65074788571996711
40
0.65074788571996711
40
0.65074788571996711
40
0.65074788571996711
10
9.1939021675891048
20
46.690293774296123
30
0
10
9.5302251866028147
20
46.781918025082462
30
0
10
9.9527335339724328
20
46.844372513996362
30
0
10
10.515796050100503
20
46.887685015236976
30
0
0
SPLINE
5
317
100
AcDbEntity
8
0
100
AcDbSpline
70
0
71
3
72
12
73
8
74
0
42
0.000000001
43
0.0000000001
44
0.0000000001
40
0
40
0
40
0
40
0
40
0.058596671008038281
40
0.058596671008038281
40
0.10574919543986838
40
0.10574919543986838
40
0.15290171987169934
40
0.15290171987169934
40
0.15290171987169934
40
0.15290171987169934
10
8.1499503636346038
20
45.66907200831384
30
0
10
8.2054262244851195
20
45.856350424074527
30
0
10
8.2969513449200072
20
46.031002686882097
30
0
10
8.517887148619705
20
46.305669266455311
30
0
10
8.6350402960844939
20
46.4118990307839
30
0
10
8.8980370494718848
20
46.584087104150377
30
0
10
9.0422538713909439
20
46.648980332346987
30
0
10
9.1939021675891208
20
46.69029377429613
30
0
0
LWPOLYLINE
5
318
100
AcDbEntity
8
0
100
AcDbPolyline
90
9
70
1
43
0.0
10
9.614122513946354
20
-13.85676326428591
10
9.5459416724589374
20
-13.788582422798495
42
0.41421356237309581
10
7.4246213288992911
20
-13.788582422798497
10
7.0260042810179755
20
-14.187199470679811
42
0.15241985835359845
10
6.1959953295910992
20
-15.770323388615529
10
2.5521266475280773
20
-35.752352024329738
42
0.33484208283871858
10
3.9045200463538969
20
-38.442376523425999
42
0.41421356237309703
10
6.8124581468626104
20
-36.431432465623843
10
10.444131465373228
20
-16.516280033469489
42
0.24624705097497401
0
LWPOLYLINE
5
319
100
AcDbEntity
8
0
100
AcDbPolyline
90
9
70
1
43
0.0
10
13.788582422798491
20
-9.5459416724589392
10
13.85676326428591
20
-9.6141225139463558
42
0.24624705097497496
10
16.516280033469492
20
-10.444131465373232
10
36.526106251148846
20
-6.7951936914674169
42
0.33484208283871741
10
38.565616339313451
20
-4.5803351607254399
42
0.41421356237309243
10
35.657678238804749
20
-2.5693911029232872
10
15.770323388615511
20
-6.1959953295911046
42
0.1524198583535962
10
14.187199470679804
20
-7.0260042810179781
10
13.788582422798495
20
-7.4246213288992955
42
0.41421356237309426
0
LWPOLYLINE
5
320
100
AcDbEntity
8
0
100
AcDbPolyline
90
9
70
1
43
0.0
10
-9.6141225139463504
20
13.856763264285911
10
-9.5459416724589357
20
13.788582422798495
42
0.41421356237309553
10
-7.4246213288992911
20
13.788582422798497
10
-7.0260042810179755
20
14.187199470679811
42
0.15241985835359845
10
-6.1959953295910992
20
15.770323388615529
10
-2.5521266475280848
20
35.752352024329738
42
0.33484208283871919
10
-3.9045200463539027
20
38.442376523425999
42
0.41421356237309426
10
-6.8124581468626104
20
36.431432465623857
10
-10.444131465373228
20
16.516280033469492
42
0.24624705097497435
0
LWPOLYLINE
5
321
100
AcDbEntity
8
0
100
AcDbPolyline
90
9
70
1
43
0.0
10
-13.788582422798495
20
9.5459416724589374
10
-13.856763264285911
20
9.6141225139463522
42
0.24624705097497496
10
-16.516280033469492
20
10.444131465373232
10
-36.526106251148846
20
6.7951936914674125
42
0.33484208283871703
10
-38.565616339313451
20
4.5803351607254381
42
0.41421356237309404
10
-35.657678238804749
20
2.5693911029232872
10
-15.770323388615516
20
6.1959953295911046
42
0.15241985835359681
10
-14.187199470679806
20
7.026004281017979
10
-13.788582422798491
20
7.4246213288992955
42
0.41421356237309398
0
SPLINE
5
322
100
AcDbEntity
8
0
100
AcDbSpline
70
0
71
3
72
12
73
8
74
0
42
0.000000001
43
0.0000000001
44
0.0000000001
40
0
40
0
40
0
40
0
40
0.058596671008039065
40
0.058596671008039065
40
0.10574919543986858
40
0.10574919543986858
40
0.15290171987169793
40
0.15290171987169793
40
0.15290171987169793
40
0.15290171987169793
10
46.690293774296123
20
9.1939021675890942
30
0
10
46.638953359434481
20
9.0054480937441035
30
0
10
46.551294515704214
20
8.8288236682240253
30
0
10
46.33645765842693
20
8.5493608190900012
30
0
10
46.221671013586118
20
8.4405782425604947
30
0
10
45.962527839055682
20
8.2626433106436465
30
0
10
45.81977425679991
20
8.1945915836754324
30
0
10
45.66907200831384
20
8.1499503636345878
30
0
0
SPLINE
5
323
100
AcDbEntity
8
0
100
AcDbSpline
70
0
71
3
72
8
73
4
74
0
42
0.000000001
43
0.0000000001
44
0.0000000001
40
0
40
0
40
0
40
0
40
0.1688444586413507
40
0.1688444586413507
40
0.1688444586413507
40
0.1688444586413507
10
46.887685015236976
20
10.515796050100496
30
0
10
46.844519085790708
20
9.954638967299017
30
0
10
46.782243763281016
20
9.5314208662771716
30
0
10
46.690293774296109
20
9.1939021675890924
30
0
0
LINE
5
324
100
AcDbEntity
8
0
100
AcDbLine
10
46.887685015236976
20
10.515796050100496
30
0
11
47.839913170775638
21
22.894762072103131
31
0
0
SPLINE
5
325
100
AcDbEntity
8
0
100
AcDbSpline
70
0
71
3
72
20
73
16
74
0
42
0.000000001
43
0.0000000001
44
0.0000000001
40
0
40
0
40
0
40
0
40
0.15106749573424602
40
0.15106749573424602
40
0.22462064097295514
40
0.22462064097295514
40
0.27354088002965299
40
0.27354088002965299
40
0.31671543264761504
40
0.31671543264761504
40
0.36582812343648136
40
0.36582812343648136
40
0.44187952699884092
40
0.44187952699884092
40
0.57917832178834094
40
0.57917832178834094
40
0.57917832178834094
40
0.57917832178834094
10
45.283671270743454
20
24.070466992210051
30
0
10
45.639740772911964
20
24.426536494378563
30
0
10
45.987169651712449
20
24.684328191931243
30
0
10
46.462701102547904
20
24.901355086002699
30
0
10
46.632279586134814
20
24.955224186244848
30
0
10
46.91612337124198
20
24.974932720199764
30
0
10
47.028758233671688
20
24.964094766803321
30
0
10
47.231564979192761
20
24.896386249505426
30
0
10
47.317178615401801
20
24.846942682676296
30
0
10
47.479850159454273
20
24.707442426752657
30
0
10
47.54993600247289
20
24.616343469107306
30
0
10
47.694259404584443
20
24.363840504928682
30
0
10
47.751443554898515
20
24.188351196803556
30
0
10
47.855536675793701
20
23.702863689693665
30
0
10
47.872956815409999
20
23.324329452349801
30
0
10
47.839913170775645
20
22.894762072103127
30
0
0
LINE
5
326
100
AcDbEntity
8
0
100
AcDbLine
10
45.283671270743454
20
24.070466992210051
30
0
11
38.800057819921477
21
17.586853541388077
31
0
0
SPLINE
5
327
100
AcDbEntity
8
0
100
AcDbSpline
70
4
71
5
72
16
73
10
74
0
42
0.000000001
43
0.0000000001
44
0.0000000001
40
-1
40
-1
40
-1
40
-1
40
-1
40
-1
40
-0.80000000000000004
40
-0.60000000000000009
40
-0.40000000000000002
40
-0.20000000000000001
40
0
40
0
40
0
40
0
40
0
40
0
41
1
41
1
41
1
41
1
41
1
41
1
41
1
41
1
41
1
41
1
10
33.587572533097848
20
5.3033009379244467
30
0
10
33.930582688597553
20
5.6463110934241545
30
0
10
34.547934288458897
20
6.4080559302524858
30
0
10
35.268168863750731
20
7.7776115362575604
30
0
10
35.897897591205719
20
9.9682377359271399
30
0
10
36.489732542521295
20
12.921916524092962
30
0
10
37.119461319682223
20
15.112542773468501
30
0
10
37.839695965425229
20
16.482098449924848
30
0
10
38.457047628643018
20
17.243843350109614
30
0
10
38.800057819921477
20
17.586853541388074
30
0
0
LINE
5
328
100
AcDbEntity
8
0
100
AcDbLine
10
28.250693709530804
20
-0.033577885642601668
30
0
11
33.587572533097848
21
5.3033009379244467
31
0
0
ARC
5
329
100
AcDbEntity
8
0
100
AcDbCircle
10
28.781023795420722
20
-0.56390797153251759
30
0
40
0.75000000000000933
210
0
220
0
230
1
100
AcDbArc
50
135.00000000000017
51
282.84770485871752
0
LINE
5
330
100
AcDbEntity
8
0
100
AcDbLine
10
37.909707808199371
20
0.74881385687786739
30
0
11
28.947794047997519
21
-1.2951313866769434
31
0
0
SPLINE
5
331
100
AcDbEntity
8
0
100
AcDbSpline
70
0
71
3
72
8
73
4
74
0
42
0.000000001
43
0.0000000001
44
0.0000000001
40
0.45275461548402079
40
0.45275461548402079
40
0.45275461548402079
40
0.45275461548402079
40
0.59077368636216232
40
0.59077368636216232
40
0.59077368636216232
40
0.59077368636216232
10
38.902084919397637
20
1.0285845146533057
30
0
10
38.627717546517019
20
0.92774594597230475
30
0
10
38.301146189819434
20
0.83808927724735804
30
0
10
37.909707808199386
20
0.74881385687786794
30
0
0
SPLINE
5
332
100
AcDbEntity
8
0
100
AcDbSpline
70
0
71
3
72
12
73
8
74
0
42
0.000000001
43
0.0000000001
44
0.0000000001
40
0
40
0
40
0
40
0
40
0.058596671008037504
40
0.058596671008037504
40
0.10240219451924558
40
0.10240219451924558
40
0.14620771803045482
40
0.14620771803045482
40
0.14620771803045482
40
0.14620771803045482
10
39.839424801948986
20
2.0710293937762825
30
0
10
39.791834438013666
20
1.8815935645162463
30
0
10
39.707698034015365
20
1.7032643013633386
30
0
10
39.505072320993534
20
1.4285712751125601
30
0
10
39.401697588642087
20
1.3243472590487082
30
0
10
39.168107945347323
20
1.1490720903233664
30
0
10
39.039139811247452
20
1.0789564629639203
30
0
10
38.902084919397652
20
1.0285845146533057
30
0
0
ARC
5
333
100
AcDbEntity
8
0
100
AcDbCircle
10
48.083261120685222
20
4.4408920985006262e-15
30
0
40
8.5
210
0
220
0
230
1
100
AcDbArc
50
106.50041254847339
51
165.89790250326362
0
SPLINE
5
334
100
AcDbEntity
8
0
100
AcDbSpline
70
0
71
3
72
12
73
8
74
0
42
0.000000001
43
0.0000000001
44
0.0000000001
40
0
40
0
40
0
40
0
40
0.058596671008039079
40
0.058596671008039079
40
0.10574919543986869
40
0.10574919543986869
40
0.15290171987169762
40
0.15290171987169762
40
0.15290171987169762
40
0.15290171987169762
10
-46.690293774296123
20
-9.1939021675890906
30
0
10
-46.638953359434481
20
-9.0054480937441035
30
0
10
-46.551294515704207
20
-8.8288236682240218
30
0
10
-46.33645765842693
20
-8.5493608190900012
30
0
10
-46.221671013586104
20
-8.4405782425604929
30
0
10
-45.962527839055667
20
-8.2626433106436448
30
0
10
-45.819774256799903
20
-8.1945915836754342
30
0
10
-45.66907200831384
20
-8.1499503636345914
30
0
0
SPLINE
5
335
100
AcDbEntity
8
0
100
AcDbSpline
70
0
71
3
72
8
73
4
74
0
42
0.000000001
43
0.0000000001
44
0.0000000001
40
0
40
0
40
0
40
0
40
0.16884445864137132
40
0.16884445864137132
40
0.16884445864137132
40
0.16884445864137132
10
-46.887685015236976
20
-10.515796050100491
30
0
10
-46.844519085790708
20
-9.954638967298937
30
0
10
-46.782243763281002
20
-9.5314208662771076
30
0
10
-46.690293774296123
20
-9.1939021675890942
30
0
0
LINE
5
336
100
AcDbEntity
8
0
100
AcDbLine
10
-46.887685015236976
20
-10.515796050100491
30
0
11
-47.839913170775638
21
-22.894762072103131
31
0
0
SPLINE
5
337
100
AcDbEntity
8
0
100
AcDbSpline
70
0
71
3
72
20
73
16
74
0
42
0.000000001
43
0.0000000001
44
0.0000000001
40
0
40
0
40
0
40
0
40
0.15106749573424602
40
0.15106749573424602
40
0.22462064097295514
40
0.22462064097295514
40
0.27354088002965299
40
0.27354088002965299
40
0.31671543264761504
40
0.31671543264761504
40
0.36582812343648136
40
0.36582812343648136
40
0.44187952699884092
40
0.44187952699884092
40
0.57917832178834094
40
0.57917832178834094
40
0.57917832178834094
40
0.57917832178834094
10
-45.283671270743454
20
-24.070466992210051
30
0
10
-45.639740772911964
20
-24.426536494378563
30
0
10
-45.987169651712449
20
-24.684328191931243
30
0
10
-46.462701102547904
20
-24.901355086002699
30
0
10
-46.632279586134814
20
-24.955224186244848
30
0
10
-46.91612337124198
20
-24.974932720199764
30
0
10
-47.028758233671688
20
-24.964094766803321
30
0
10
-47.231564979192761
20
-24.896386249505426
30
0
10
-47.317178615401801
20
-24.846942682676296
30
0
10
-47.479850159454273
20
-24.707442426752657
30
0
10
-47.54993600247289
20
-24.616343469107306
30
0
10
-47.694259404584443
20
-24.363840504928682
30
0
10
-47.751443554898515
20
-24.188351196803556
30
0
10
-47.855536675793701
20
-23.702863689693665
30
0
10
-47.872956815409999
20
-23.324329452349801
30
0
10
-47.839913170775645
20
-22.894762072103127
30
0
0
LINE
5
338
100
AcDbEntity
8
0
100
AcDbLine
10
-45.283671270743454
20
-24.070466992210051
30
0
11
-38.800057819921477
21
-17.586853541388077
31
0
0
SPLINE
5
339
100
AcDbEntity
8
0
100
AcDbSpline
70
4
71
5
72
16
73
10
74
0
42
0.000000001
43
0.0000000001
44
0.0000000001
40
-1
40
-1
40
-1
40
-1
40
-1
40
-1
40
-0.80000000000000004
40
-0.60000000000000009
40
-0.40000000000000002
40
-0.20000000000000001
40
0
40
0
40
0
40
0
40
0
40
0
41
1
41
1
41
1
41
1
41
1
41
1
41
1
41
1
41
1
41
1
10
-33.587572533097848
20
-5.3033009379244467
30
0
10
-33.930582688597553
20
-5.6463110934241545
30
0
10
-34.547934288458897
20
-6.4080559302524858
30
0
10
-35.268168863750731
20
-7.7776115362575604
30
0
10
-35.897897591205719
20
-9.9682377359271399
30
0
10
-36.489732542521295
20
-12.921916524092962
30
0
10
-37.119461319682223
20
-15.112542773468501
30
0
10
-37.839695965425229
20
-16.482098449924848
30
0
10
-38.457047628643018
20
-17.243843350109614
30
0
10
-38.800057819921477
20
-17.586853541388074
30
0
0
LINE
5
340
100
AcDbEntity
8
0
100
AcDbLine
10
-28.250693709530804
20
0.033577885642601668
30
0
11
-33.587572533097848
21
-5.3033009379244467
31
0
0
ARC
5
341
100
AcDbEntity
8
0
100
AcDbCircle
10
-28.781023795420722
20
0.56390797153251759
30
0
40
0.75000000000000933
210
-0
220
0
230
1
100
AcDbArc
50
-44.999999999999851
51
102.84770485871749
0
LINE
5
342
100
AcDbEntity
8
0
100
AcDbLine
10
-37.909707808199364
20
-0.74881385687786628
30
0
11
-28.947794047997519
21
1.2951313866769434
31
0
0
SPLINE
5
343
100
AcDbEntity
8
0
100
AcDbSpline
70
0
71
3
72
8
73
4
74
0
42
0.000000001
43
0.0000000001
44
0.0000000001
40
0.4527546154840944
40
0.4527546154840944
40
0.4527546154840944
40
0.4527546154840944
40
0.59077368636235339
40
0.59077368636235339
40
0.59077368636235339
40
0.59077368636235339
10
-38.90208491939768
20
-1.0285845146533212
30
0
10
-38.627717546517047
20
-0.92774594597230919
30
0
10
-38.301146189819434
20
-0.83808927724735582
30
0
10
-37.909707808199371
20
-0.74881385687787017
30
0
0
SPLINE
5
344
100
AcDbEntity
8
0
100
AcDbSpline
70
0
71
3
72
12
73
8
74
0
42
0.000000001
43
0.0000000001
44
0.0000000001
40
0
40
0
40
0
40
0
40
0.058596671008038857
40
0.058596671008038857
40
0.10240219451924601
40
0.10240219451924601
40
0.14620771803045349
40
0.14620771803045349
40
0.14620771803045349
40
0.14620771803045349
10
-39.839424801948994
20
-2.0710293937762958
30
0
10
-39.791834438013666
20
-1.8815935645162529
30
0
10
-39.707698034015358
20
-1.7032643013633453
30
0
10
-39.505072320993527
20
-1.4285712751125645
30
0
10
-39.401697588642079
20
-1.3243472590487171
30
0
10
-39.168107945347337
20
-1.149072090323382
30
0
10
-39.039139811247459
20
-1.0789564629639337
30
0
10
-38.902084919397666
20
-1.0285845146533168
30
0
0
ARC
5
345
100
AcDbEntity
8
0
100
AcDbCircle
10
-48.083261120685222
20
-4.4408920985006262e-15
30
0
40
8.5000000000000018
210
0
220
0
230
1
100
AcDbArc
50
286.50041254847338
51
345.89790250326348
0
CIRCLE
5
346
100
AcDbEntity
8
0
100
AcDbCircle
10
1.1102230246251565e-15
20
14.142135623730949
30
0
40
1.1000000000000001
210
0
220
0
230
1
0
CIRCLE
5
347
100
AcDbEntity
8
0
100
AcDbCircle
10
-1.1102230246251565e-15
20
-14.142135623730949
30
0
40
1.100000000000001
210
0
220
0
230
1
0
CIRCLE
5
348
100
AcDbEntity
8
0
100
AcDbCircle
10
-14.142135623730949
20
1.1102230246251565e-15
30
0
40
1.1000000000000001
210
0
220
0
230
1
0
CIRCLE
5
349
100
AcDbEntity
8
0
100
AcDbCircle
10
14.142135623730949
20
-1.1102230246251565e-15
30
0
40
1.100000000000001
210
0
220
0
230
1
0
CIRCLE
5
350
100
AcDbEntity
8
0
100
AcDbCircle
10
12.727922251018679
20
12.727922251018672
30
0
40
1.1000000000000001
210
0
220
0
230
1
0
CIRCLE
5
351
100
AcDbEntity
8
0
100
AcDbCircle
10
-16.970563001358229
20
16.970563001358233
30
0
40
1.0999999999999988
210
0
220
0
230
1
0
CIRCLE
5
352
100
AcDbEntity
8
0
100
AcDbCircle
10
12.727922251018676
20
-12.727922251018672
30
0
40
1.100000000000001
210
0
220
0
230
1
0
CIRCLE
5
353
100
AcDbEntity
8
0
100
AcDbCircle
10
-12.727922251018672
20
-12.727922251018676
30
0
40
1.1000000000000001
210
0
220
0
230
1
0
CIRCLE
5
354
100
AcDbEntity
8
0
100
AcDbCircle
10
16.970563001358229
20
-16.970563001358233
30
0
40
1.0999999999999988
210
0
220
0
230
1
0
CIRCLE
5
355
100
AcDbEntity
8
0
100
AcDbCircle
10
-12.727922251018672
20
12.727922251018676
30
0
40
1.100000000000001
210
0
220
0
230
1
0
LWPOLYLINE
5
356
100
AcDbEntity
8
0
100
AcDbPolyline
90
8
70
1
43
0.0
10
7.0710680015263012
20
12.727922251018672
10
5.6568544391532072
20
11.313708688645578
42
0.41421356237309548
10
5.6568544391532081
20
10.606601907459034
10
10.606601907459037
20
5.6568544391531983
42
0.41421356237309875
10
11.313708688645585
20
5.6568544391532001
10
12.727922251018683
20
7.0710680015262923
42
0.41421356237309592
10
12.727922251018683
20
7.7781747827128411
10
7.7781747827128491
20
12.727922251018672
42
0.41421356237309548
0
CIRCLE
5
357
100
AcDbEntity
8
0
100
AcDbCircle
10
48.083261120685222
20
4.4408920985006262e-15
30
0
40
2.5
210
0
220
0
230
1
0
CIRCLE
5
358
100
AcDbEntity
8
0
100
AcDbCircle
10
7.7715611723760958e-15
20
-48.083261120685243
30
0
40
2.5
210
0
220
0
230
1
0
CIRCLE
5
359
100
AcDbEntity
8
0
100
AcDbCircle
10
2.1094237467877974e-14
20
48.083261120685208
30
0
40
2.5
210
0
220
0
230
1
0
CIRCLE
5
360
100
AcDbEntity
8
0
100
AcDbCircle
10
-48.083261120685222
20
-4.4408920985006262e-15
30
0
40
2.5
210
0
220
0
230
1
0
LWPOLYLINE
5
361
100
AcDbEntity
8
0
100
AcDbPolyline
90
8
70
1
43
0.0
10
1.6215482404745551
20
-12.025612636425812
42
0.41421356237309492
10
1.621548240474554
20
-13.93480094562949
10
1.9751016310678264
20
-14.288354336222762
42
0.41421356237309515
10
3.884289940271505
20
-14.288354336222763
10
14.288354336222762
20
-3.8842899402715059
42
0.41421356237309492
10
14.288354336222763
20
-1.9751016310678293
10
13.934800945629489
20
-1.6215482404745569
42
0.41421356237309415
10
12.025612636425816
20
-1.6215482404745565
0
LWPOLYLINE
5
362
100
AcDbEntity
8
0
100
AcDbPolyline
90
8
70
1
43
0.0
10
-14.288354467931663
20
3.8842900719804101
42
0.41421356237309531
10
-14.288354467931665
20
1.9751017627767309
10
-13.93480094562949
20
1.6215482404745596
42
0.41421356237309498
10
-12.025612636425816
20
1.6215482404745565
10
-1.6215482404745529
20
12.025612636425812
42
0.41421356237309459
10
-1.621548240474554
20
13.93480094562949
10
-1.9751017627767276
20
14.288354467931663
42
0.41421356237309515
10
-3.8842900719804057
20
14.288354467931665
0
CIRCLE
5
363
100
AcDbEntity
8
0
100
AcDbCircle
10
26.516504294495533
20
12.727922061357857
30
0
40
1.100000000000001
210
0
220
0
230
1
0
CIRCLE
5
364
100
AcDbEntity
8
0
100
AcDbCircle
10
-12.727922061357859
20
-26.516504294495533
30
0
40
1.100000000000001
210
0
220
0
230
1
0
CIRCLE
5
365
100
AcDbEntity
8
0
100
AcDbCircle
10
12.727922061357859
20
26.516504294495533
30
0
40
1.1000000000000001
210
0
220
0
230
1
0
CIRCLE
5
366
100
AcDbEntity
8
0
100
AcDbCircle
10
-26.516504294495533
20
-12.727922061357857
30
0
40
1.0999999999999988
210
0
220
0
230
1
0
CIRCLE
5
367
100
AcDbEntity
8
0
100
AcDbCircle
10
-55.507883150275887
20
-40.658640524087424
30
0
40
1.100000000000001
210
0
220
0
230
1
0
CIRCLE
5
368
100
AcDbEntity
8
0
100
AcDbCircle
10
-40.658640524087431
20
-55.50788315027588
30
0
40
1.1000000000000034
210
0
220
0
230
1
0
CIRCLE
5
369
100
AcDbEntity
8
0
100
AcDbCircle
10
-31.819805627546689
20
-46.669048253735134
30
0
40
1.1000000000000001
210
0
220
0
230
1
0
CIRCLE
5
370
100
AcDbEntity
8
0
100
AcDbCircle
10
-46.669048253735141
20
-31.819805627546678
30
0
40
1.1000000000000034
210
0
220
0
230
1
0
LWPOLYLINE
5
371
100
AcDbEntity
8
0
100
AcDbPolyline
90
8
70
1
43
0.0
10
-33.941126234524113
20
-24.04163129791246
10
-24.041631297912449
20
-33.941126234524127
42
0.4142135623730932
10
-22.627417735539357
20
-33.941126234524134
10
-16.97056348604697
20
-28.284271985031747
42
0.4142135623730982
10
-16.970563486046974
20
-26.870058422658651
10
-26.870058422658637
20
-16.970563486046988
42
0.41421356237309415
10
-28.284271985031737
20
-16.970563486046988
10
-33.941126234524113
20
-22.627417735539371
42
0.41421356237309415
0
LWPOLYLINE
5
372
100
AcDbEntity
8
0
100
AcDbPolyline
90
6
70
1
43
0.0
10
-35.055705745218795
20
-33.622754245690622
10
-40.18187531251391
20
-34.996307241512348
42
0.57735026918963261
10
-40.706371963732231
20
-36.953755392258827
10
-36.953755392258842
20
-40.706371963732231
42
0.57735026918962262
10
-34.996307241512369
20
-40.181875312513917
10
-33.622754245690636
20
-35.055705745218788
42
0.57735026918962096
0
LWPOLYLINE
5
373
100
AcDbEntity
8
0
100
AcDbPolyline
90
6
70
1
43
0.0
10
-37.687200382454783
20
-32.501632090128787
10
-32.561030815159661
20
-31.128079094307061
42
0.5773502691896214
10
-32.036534163941361
20
-29.170630943560603
10
-35.789150735414744
20
-25.418014372087189
42
0.57735026918962484
10
-37.746598886161216
20
-25.942511023305507
10
-39.120151881982942
20
-31.068680590600621
42
0.57735026918962284
0
LWPOLYLINE
5
374
100
AcDbEntity
8
0
100
AcDbPolyline
90
6
70
1
43
0.0
10
-25.418014593411648
20
-35.789150514090309
10
-29.170631164885034
20
-32.03653394261692
42
0.57735026918962451
10
-31.128079315631503
20
-32.56103059383522
10
-32.501632311453228
20
-37.687200161130335
42
0.57735026918962318
10
-31.068680811925073
20
-39.1201516606585
10
-25.942511244629948
20
-37.746598664836768
42
0.57735026918961574
0
CIRCLE
5
375
100
AcDbEntity
8
0
100
AcDbCircle
10
-5.3033009379244493
20
-28.637825064792011
30
0
40
1.100000000000001
210
0
220
0
230
1
0
CIRCLE
5
376
100
AcDbEntity
8
0
100
AcDbCircle
10
28.637825064792011
20
5.303300937924444
30
0
40
1.100000000000001
210
-0
220
0
230
1
0
CIRCLE
5
377
100
AcDbEntity
8
0
100
AcDbCircle
10
5.3033009379244493
20
28.637825064792011
30
0
40
1.100000000000001
210
0
220
0
230
1
0
CIRCLE
5
378
100
AcDbEntity
8
0
100
AcDbCircle
10
-28.637825064792011
20
-5.303300937924444
30
0
40
1.100000000000001
210
-0
220
0
230
1
0
LWPOLYLINE
5
379
100
AcDbEntity
8
0
100
AcDbPolyline
90
8
70
1
43
0.0
10
36.415999231107193
20
23.688077169749334
10
47.729707730091974
20
35.001785668734101
42
0.41421356237308959
10
47.729707730091974
20
36.415999231107207
10
36.415999231107214
20
47.729707730091974
42
0.41421356237309048
10
35.001785668734115
20
47.72970773009196
10
23.688077169749345
20
36.415999231107193
42
0.41421356237309964
10
23.688077169749352
20
35.001785668734101
10
35.001785668734101
20
23.688077169749342
42
0.41421356237309415
0
SPLINE
5
380
100
AcDbEntity
8
0
100
AcDbSpline
70
4
71
5
72
16
73
10
74
0
42
0.000000001
43
0.0000000001
44
0.0000000001
40
-0.31947534363758201
40
-0.31947534363758201
40
-0.31947534363758201
40
-0.31947534363758201
40
-0.31947534363758201
40
-0.31947534363758201
40
-0.26666666666666666
40
-0.20000000000000001
40
-0.13333333333333333
40
-0.066666666666666666
40
0
40
0
40
0
40
0
40
0
40
0
41
1
41
1
41
1
41
1
41
1
41
1
41
1
41
1
41
1
41
1
10
-27.033072458204714
20
-55.775671328426277
30
0
10
-27.427305668184211
20
-55.880162386197654
30
0
10
-28.396096985191541
20
-56.128580373670431
30
0
10
-30.183781900234564
20
-56.551338153689784
30
0
10
-33.097636165929678
20
-57.141980168140627
30
0
10
-37.052046715286515
20
-57.701405056338288
30
0
10
-39.83016174356802
20
-57.768475729382651
30
0
10
-41.25410388586122
20
-57.487038384872577
30
0
10
-41.857544791209911
20
-57.137406050046444
30
0
10
-42.072854107533956
20
-56.922096733722398
30
0
0
LINE
5
381
100
AcDbEntity
8
0
100
AcDbLine
10
-42.072854107533956
20
-56.922096733722398
30
0
11
-44.901281342915631
21
-54.093669498340731
31
0
0
ARC
5
382
100
AcDbEntity
8
0
100
AcDbCircle
10
-44.194174561729078
20
-53.386562717154185
30
0
40
0.999999999999998
210
0
220
0
230
1
100
AcDbArc
50
135
51
224.99999999999972
0
LINE
5
383
100
AcDbEntity
8
0
100
AcDbLine
10
-44.901281342915624
20
-52.679455935967638
30
0
11
-40.658640655796347
21
-48.436815248848355
31
0
0
ARC
5
384
100
AcDbEntity
8
0
100
AcDbCircle
10
-41.3657474369829
20
-47.729708467661794
30
0
40
1.0000000000000107
210
-0
220
0
230
1
100
AcDbArc
50
-45.000000000000306
51
45.000000000000291
0
LINE
5
385
100
AcDbEntity
8
0
100
AcDbLine
10
-40.658640655796354
20
-47.022601686475241
30
0
11
-47.022601686475269
21
-40.658640655796326
31
0
0
ARC
5
386
100
AcDbEntity
8
0
100
AcDbCircle
10
-47.729708467661816
20
-41.365747436982886
30
0
40
1.0000000000000042
210
0
220
-0
230
1
100
AcDbArc
50
45.000000000000568
51
134.99999999999943
0
LINE
5
387
100
AcDbEntity
8
0
100
AcDbLine
10
-48.436815248848362
20
-40.658640655796326
30
0
11
-52.679455935967646
21
-44.90128134291561
31
0
0
ARC
5
388
100
AcDbEntity
8
0
100
AcDbCircle
10
-53.386562717154192
20
-44.194174561729071
30
0
40
0.999999999999998
210
0
220
0
230
1
100
AcDbArc
50
224.99999999999972
51
315.00000000000028
0
LINE
5
389
100
AcDbEntity
8
0
100
AcDbLine
10
-54.093669498340738
20
-44.90128134291561
30
0
11
-56.922096733722405
21
-42.072854107533942
31
0
0
SPLINE
5
390
100
AcDbEntity
8
0
100
AcDbSpline
70
4
71
5
72
16
73
10
74
0
42
0.000000001
43
0.0000000001
44
0.0000000001
40
0
40
0
40
0
40
0
40
0
40
0
40
0.066666666666666666
40
0.13333333333333333
40
0.20000000000000001
40
0.26666666666666666
40
0.31947534363757085
40
0.31947534363757085
40
0.31947534363757085
40
0.31947534363757085
40
0.31947534363757085
40
0.31947534363757085
41
1
41
1
41
1
41
1
41
1
41
1
41
1
41
1
41
1
41
1
10
-56.922096733722405
20
-42.072854107533942
30
0
10
-57.137406050046451
20
-41.857544791209904
30
0
10
-57.487038384872577
20
-41.254103885861198
30
0
10
-57.768475729382658
20
-39.830161743568013
30
0
10
-57.701405056338295
20
-37.052046715286508
30
0
10
-57.141980168140662
20
-33.097636165929821
30
0
10
-56.551338153689834
20
-30.183781900234806
30
0
10
-56.128580373670502
20
-28.396096985191861
30
0
10
-55.880162386197739
20
-27.427305668184569
30
0
10
-55.775671328426398
20
-27.033072458205105
30
0
0
SPLINE
5
391
100
AcDbEntity
8
0
100
AcDbSpline
70
0
71
3
72
10
73
6
74
0
42
0.000000001
43
0.0000000001
44
0.0000000001
40
0
40
0
40
0
40
0
40
0.010465399625144339
40
0.010465399625144339
40
0.020930799250288699
40
0.020930799250288699
40
0.020930799250288699
40
0.020930799250288699
10
-55.717828212595521
20
-26.83193366797407
30
0
10
-55.7281690779675
20
-26.865250426289144
30
0
10
-55.738160987002814
20
-26.898674493635482
30
0
10
-55.757443609478216
20
-26.965726264645184
30
0
10
-55.766733794934325
20
-26.999352132341553
30
0
10
-55.775671328426398
20
-27.033072458205105
30
0
0
ARC
5
392
100
AcDbEntity
8
0
100
AcDbCircle
10
-93.920010078660695
20
-14.974729078692713
30
0
40
39.999999999999922
210
0
220
0
230
1
100
AcDbArc
50
-17.243313138769576
51
10.726209671588913
0
ARC
5
393
100
AcDbEntity
8
0
100
AcDbCircle
10
-152.87167576575729
20
-26.141694317703497
30
0
40
99.999999999437222
210
0
220
-0
230
1
100
AcDbArc
50
10.726209671586794
51
11.52485052339043
0
ARC
5
394
100
AcDbEntity
8
0
100
AcDbCircle
10
-64.686242994892339
20
-8.1603304396796705
30
0
40
10.000000000000334
210
0
220
-0
230
1
100
AcDbArc
50
11.524850523380879
51
26.174019042229485
0
ARC
5
395
100
AcDbEntity
8
0
100
AcDbCircle
10
-48.083261120685222
20
-4.4408920985006262e-15
30
0
40
8.5000000000000071
210
0
220
-0
230
1
100
AcDbArc
50
75.798147278228114
51
206.17401904222982
0
ARC
5
396
100
AcDbEntity
8
0
100
AcDbCircle
10
-43.544494544876109
20
17.934592216449179
30
0
40
10.000000000000036
210
0
220
0
230
1
100
AcDbArc
50
255.7981472782283
51
273.24373557928971
0
ARC
5
397
100
AcDbEntity
8
0
100
AcDbCircle
10
-45.015668880778598
20
43.892936656597641
30
0
40
36.000000000000135
210
0
220
0
230
1
100
AcDbArc
50
273.24373557928982
51
314.99999999999994
0
LINE
5
398
100
AcDbEntity
8
0
100
AcDbLine
10
-19.559824758062824
20
18.437092533881795
30
0
11
-18.437092533881792
21
19.559824758062835
31
0
0
ARC
5
399
100
AcDbEntity
8
0
100
AcDbCircle
10
-43.89293665659757
20
45.015668880778577
30
0
40
36.000000000000071
210
0
220
0
230
1
100
AcDbArc
50
315.00000000000006
51
356.75626442071047
0
ARC
5
400
100
AcDbEntity
8
0
100
AcDbCircle
10
-17.934592216449104
20
43.544494544876109
30
0
40
9.9999999999999787
210
0
220
0
230
1
100
AcDbArc
50
-3.2437355792895759
51
14.201852721771862
0
ARC
5
401
100
AcDbEntity
8
0
100
AcDbCircle
10
2.1094237467877974e-14
20
48.083261120685208
30
0
40
8.5000000000000178
210
0
220
-0
230
1
100
AcDbArc
50
63.825980957770277
51
194.20185272177167
0
ARC
5
402
100
AcDbEntity
8
0
100
AcDbCircle
10
8.1603304396796776
20
64.686242994892325
30
0
40
10.000000000000311
210
0
220
0
230
1
100
AcDbArc
50
243.82598095777047
51
258.47514947661102
0
ARC
5
403
100
AcDbEntity
8
0
100
AcDbCircle
10
26.141694317811854
20
152.87167576630978
30
0
40
100.00000000000023
210
0
220
0
230
1
100
AcDbArc
50
258.47514947661119
51
262.72901117201752
0
ARC
5
404
100
AcDbEntity
8
0
100
AcDbCircle
10
18.5479529557389
20
93.354156562919201
30
0
40
40.000000000000043
210
0
220
0
230
1
100
AcDbArc
50
262.72901117201752
51
291.56129512235128
0
ARC
5
405
100
AcDbEntity
8
0
100
AcDbCircle
10
27.735362433362425
20
70.103532762889898
30
0
40
14.999999999999737
210
0
220
0
230
1
100
AcDbArc
50
291.56129512235117
51
311.01119924067427
0
ARC
5
406
100
AcDbEntity
8
0
100
AcDbCircle
10
38.890873523705864
20
57.275650150657455
30
0
40
1.9999999999999993
210
0
220
-0
230
1
100
AcDbArc
50
44.999999999999858
51
131.0111992406739
0
LINE
5
407
100
AcDbEntity
8
0
100
AcDbLine
10
40.305087086078963
20
58.689863713030547
30
0
11
58.68986373410398
21
40.305087107152374
31
0
0
ARC
5
408
100
AcDbEntity
8
0
100
AcDbCircle
10
57.275650150657455
20
38.890873523705856
30
0
40
2.0000000000000124
210
-0
220
0
230
1
100
AcDbArc
50
-41.011196156467605
51
44.999999999999858
0
ARC
5
409
100
AcDbEntity
8
0
100
AcDbCircle
10
70.103533363386319
20
27.735363123881541
30
0
40
14.999999999999973
210
0
220
0
230
1
100
AcDbArc
50
138.98880384353234
51
158.43870163147096
0
ARC
5
410
100
AcDbEntity
8
0
100
AcDbCircle
10
93.354156642889052
20
18.547952328959376
30
0
40
40.000000000000114
210
0
220
0
230
1
100
AcDbArc
50
158.43870163147093
51
187.27098943136471
0
ARC
5
411
100
AcDbEntity
8
0
100
AcDbCircle
10
152.87167576629454
20
26.141694317809396
30
0
40
99.999999999984809
210
0
220
0
230
1
100
AcDbArc
50
187.27098943136446
51
191.52485052338912
0
ARC
5
412
100
AcDbEntity
8
0
100
AcDbCircle
10
64.686242994892339
20
8.1603304396796705
30
0
40
10.000000000000334
210
0
220
0
230
1
100
AcDbArc
50
191.52485052338804
51
206.17401904222947
0
ARC
5
413
100
AcDbEntity
8
0
100
AcDbCircle
10
48.083261120685222
20
4.4408920985006262e-15
30
0
40
8.5000000000000053
210
0
220
0
230
1
100
AcDbArc
50
-104.2018527217719
51
26.174019042229816
0
ARC
5
414
100
AcDbEntity
8
0
100
AcDbCircle
10
43.544494544876102
20
-17.934592216449087
30
0
40
9.9999999999999503
210
0
220
-0
230
1
100
AcDbArc
50
75.798147278228114
51
93.243735579289705
0
ARC
5
415
100
AcDbEntity
8
0
100
AcDbCircle
10
45.01566888077852
20
-43.892936656597499
30
0
40
35.999999999999986
210
0
220
0
230
1
100
AcDbArc
50
93.243735579289677
51
134.99999999999997
0
LINE
5
416
100
AcDbEntity
8
0
100
AcDbLine
10
19.559824758062817
20
-18.437092533881774
30
0
11
18.437092533881792
21
-19.55982475806281
31
0
0
ARC
5
417
100
AcDbEntity
8
0
100
AcDbCircle
10
43.892936656597556
20
-45.015668880778541
30
0
40
36.00000000000005
210
0
220
0
230
1
100
AcDbArc
50
135.00000000000006
51
176.75626442071029
0
ARC
5
418
100
AcDbEntity
8
0
100
AcDbCircle
10
17.934592216449175
20
-43.544494544876102
30
0
40
10.000000000000052
210
0
220
0
230
1
100
AcDbArc
50
176.75626442071029
51
194.20185272177176
0
ARC
5
419
100
AcDbEntity
8
0
100
AcDbCircle
10
7.7715611723760958e-15
20
-48.083261120685243
30
0
40
8.5
210
0
220
0
230
1
100
AcDbArc
50
-116.17401904222992
51
14.201852721772044
0
ARC
5
420
100
AcDbEntity
8
0
100
AcDbCircle
10
-8.1603304396797114
20
-64.686242994892581
30
0
40
10.000000000000565
210
0
220
-0
230
1
100
AcDbArc
50
63.825980957770845
51
78.47514947661081
0
ARC
5
421
100
AcDbEntity
8
0
100
AcDbCircle
10
-26.141694317682436
20
-152.87167576564923
30
0
40
99.99999999932713
210
0
220
-0
230
1
100
AcDbArc
50
78.475149476608181
51
79.273790328413511
0
ENDSEC
0
SECTION
2
OBJECTS
0
DICTIONARY
5
C
100
AcDbDictionary
3
ACAD_GROUP
350
D
3
ACAD_MLINESTYLE
350
17
0
DICTIONARY
5
D
100
AcDbDictionary
0
DICTIONARY
5
1A
330
C
100
AcDbDictionary
0
DICTIONARY
5
17
100
AcDbDictionary
0
ENDSEC
0
EOF
