0
SECTION
2
HEADER
9
$INSUNITS
70
4
9
$ACADVER
1
AC1014
9
$HANDSEED
5
FFFF
0
ENDSEC
0
SECTION
2
TABLES
0
TABLE
2
VPORT
5
8
100
AcDbSymbolTable
0
ENDTAB
0
TABLE
2
LTYPE
5
5
100
AcDbSymbolTable
0
LTYPE
5
14
100
AcDbSymbolTableRecord
100
AcDbLinetypeTableRecord
2
BYBLOCK
70
0
0
LTYPE
5
15
100
AcDbSymbolTableRecord
100
AcDbLinetypeTableRecord
2
BYLAYER
70
0
0
ENDTAB
0
TABLE
2
LAYER
5
2
100
AcDbSymbolTable
70
2
0
LAYER
5
50
100
AcDbSymbolTableRecord
100
AcDbLayerTableRecord
2
0
70
0
6
CONTINUOUS
0
ENDTAB
0
TABLE
2
STYLE
5
3
100
AcDbSymbolTable
70
1
0
STYLE
5
11
100
AcDbSymbolTableRecord
100
AcDbTextStyleTableRecord
2
STANDARD
70
0
0
ENDTAB
0
TABLE
2
VIEW
5
6
100
AcDbSymbolTable
70
0
0
ENDTAB
0
TABLE
2
UCS
5
7
100
AcDbSymbolTable
70
0
0
ENDTAB
0
TABLE
2
APPID
5
9
100
AcDbSymbolTable
70
2
0
APPID
5
12
100
AcDbSymbolTableRecord
100
AcDbRegAppTableRecord
2
ACAD
70
0
0
ENDTAB
0
TABLE
2
DIMSTYLE
5
A
100
AcDbSymbolTable
70
1
0
ENDTAB
0
TABLE
2
BLOCK_RECORD
5
1
100
AcDbSymbolTable
70
1
0
BLOCK_RECORD
5
1F
100
AcDbSymbolTableRecord
100
AcDbBlockTableRecord
2
*MODEL_SPACE
0
BLOCK_RECORD
5
1B
100
AcDbSymbolTableRecord
100
AcDbBlockTableRecord
2
*PAPER_SPACE
0
ENDTAB
0
ENDSEC
0
SECTION
2
BLOCKS
0
BLOCK
5
20
100
AcDbEntity
100
AcDbBlockBegin
2
*MODEL_SPACE
0
ENDBLK
5
21
100
AcDbEntity
100
AcDbBlockEnd
0
BLOCK
5
1C
100
AcDbEntity
100
AcDbBlockBegin
2
*PAPER_SPACE
0
ENDBLK
5
1D
100
AcDbEntity
100
AcDbBlockEnd
0
ENDSEC
0
SECTION
2
ENTITIES
0
CIRCLE
5
100
100
AcDbEntity
8
0
100
AcDbCircle
10
-15.250000000000002
20
-3.7250000000000001
30
0
40
1.5999999999999992
210
0
220
-0
230
1
0
CIRCLE
5
101
100
AcDbEntity
8
0
100
AcDbCircle
10
15.250000000000002
20
-3.7250000000000001
30
0
40
1.5999999999999992
210
0
220
-0
230
1
0
LWPOLYLINE
5
102
100
AcDbEntity
8
0
100
AcDbPolyline
90
6
70
1
43
0.0
10
10.110208303137522
20
-63.500000918063655
10
2.4181908629500439
20
-63.500000803443662
42
-0.40819149555141543
10
1.4184031388187559
20
-62.520603640150874
10
1.1781290938191049
20
-50.860896406039657
42
-0.7464122183161862
10
3.0047216292053216
20
-50.277804610572872
10
10.937013114392455
20
-61.937511959304096
42
-0.60221604344102841
0
LWPOLYLINE
5
103
100
AcDbEntity
8
0
100
AcDbPolyline
90
6
70
1
43
0.0
10
-2.418190862950059
20
-63.500000803443662
10
-10.11020830313754
20
-63.500000918063655
42
-0.6022160434410293
10
-10.937013114392469
20
-61.937511959304103
10
-3.0047216292053305
20
-50.277804610572872
42
-0.74641221831618088
10
-1.1781290938191074
20
-50.860896406039643
10
-1.4184031388187648
20
-62.520603640150874
42
-0.40819149555141537
0
CIRCLE
5
104
100
AcDbEntity
8
0
100
AcDbCircle
10
45.500000715255737
20
6.8833827526759706e-14
30
0
40
1.1000000000000032
210
0
220
0
230
1
0
CIRCLE
5
105
100
AcDbEntity
8
0
100
AcDbCircle
10
-45.500000715255737
20
6.8516831654430377e-14
30
0
40
1.1000000000000032
210
0
220
0
230
1
0
CIRCLE
5
106
100
AcDbEntity
8
0
100
AcDbCircle
10
-10.500000156462193
20
-68.000001013278961
30
0
40
1.0999999999999985
210
0
220
-0
230
1
0
CIRCLE
5
107
100
AcDbEntity
8
0
100
AcDbCircle
10
10.500000156462193
20
-68.000001013278961
30
0
40
1.0999999999999985
210
0
220
-0
230
1
0
LINE
5
108
100
AcDbEntity
8
0
100
AcDbLine
10
-34.00000000000005
20
-70.000001013278961
30
0
11
33.999999996645599
21
-70.000001013278961
31
0
0
ARC
5
109
100
AcDbEntity
8
0
100
AcDbCircle
10
33.999999999999957
20
-33.999999999999979
30
0
40
36
210
0
220
0
230
1
100
AcDbArc
50
269.99999999466132
51
360
0
SPLINE
5
110
100
AcDbEntity
8
0
100
AcDbSpline
70
0
71
3
72
23
73
19
74
0
42
0.000000001
43
0.0000000001
44
0.0000000001
40
0
40
0
40
0
40
0
40
0.1477761389887853
40
0.1477761389887853
40
0.1477761389887853
40
0.33377521528287923
40
0.33377521528287923
40
0.33377521528287923
40
0.48591006148832094
40
0.48591006148832094
40
0.48591006148832094
40
0.63830770449351282
40
0.63830770449351282
40
0.63830770449351282
40
0.85107693932468376
40
0.85107693932468376
40
0.85107693932468376
40
1
40
1
40
1
40
1
10
70.000001028180122
20
-34.00000049546361
30
0
10
70.000001035982777
20
-29.810984246193897
30
0
10
69.340134191983168
20
-25.852692514059093
30
0
10
68.3115194683119
20
-22.188298914917905
30
0
10
67.016849098829056
20
-17.576094067219348
30
0
10
65.199114392844223
20
-13.419135775929371
30
0
10
63.892364155436084
20
-9.6020005786544225
30
0
10
62.823529565727299
20
-6.4798384273510816
30
0
10
62.119103827550262
20
-3.6021656092818293
30
0
10
62.014534075965315
20
-0.78279080281157754
30
0
10
61.90978369123318
20
2.041454174398099
30
0
10
62.403659649363838
20
4.8569099361952821
30
0
10
63.339670556540568
20
7.9052729953695771
30
0
10
64.646477673674511
20
12.161230389448338
30
0
10
66.799150056069621
20
16.833283284140766
30
0
10
68.287510019173538
20
22.103029326361089
30
0
10
69.329254241583854
20
25.791470045771486
30
0
10
70.000001036043344
20
29.778472452844156
30
0
10
70.000001028180122
20
34.000000525265939
30
0
0
ARC
5
111
100
AcDbEntity
8
0
100
AcDbCircle
10
33.999999999999957
20
34.000000000000028
30
0
40
36.000000000000014
210
0
220
-0
230
1
100
AcDbArc
50
8.5377364625159387e-07
51
90
0
LINE
5
112
100
AcDbEntity
8
0
100
AcDbLine
10
33.999999999999957
20
70.000001013278961
30
0
11
-33.999999974257634
21
70.000001013278961
31
0
0
ARC
5
113
100
AcDbEntity
8
0
100
AcDbCircle
10
-34.00000000000005
20
34.000000000000028
30
0
40
36.000000000000007
210
0
220
-0
230
1
100
AcDbArc
50
89.999999959029665
51
180
0
SPLINE
5
114
100
AcDbEntity
8
0
100
AcDbSpline
70
0
71
3
72
23
73
19
74
0
42
0.000000001
43
0.0000000001
44
0.0000000001
40
0
40
0
40
0
40
0
40
0.1477761389887853
40
0.1477761389887853
40
0.1477761389887853
40
0.33377521528287923
40
0.33377521528287923
40
0.33377521528287923
40
0.48591006148832094
40
0.48591006148832094
40
0.48591006148832094
40
0.63830770449351282
40
0.63830770449351282
40
0.63830770449351282
40
0.85107693932468376
40
0.85107693932468376
40
0.85107693932468376
40
1
40
1
40
1
40
1
10
-70.000001028180122
20
-34.00000049546361
30
0
10
-70.000001035982777
20
-29.810984246193897
30
0
10
-69.340134191983168
20
-25.852692514059093
30
0
10
-68.3115194683119
20
-22.188298914917905
30
0
10
-67.016849098829056
20
-17.576094067219348
30
0
10
-65.199114392844223
20
-13.419135775929371
30
0
10
-63.892364155436084
20
-9.6020005786544225
30
0
10
-62.823529565727299
20
-6.4798384273510816
30
0
10
-62.119103827550262
20
-3.6021656092818293
30
0
10
-62.014534075965315
20
-0.78279080281157754
30
0
10
-61.90978369123318
20
2.041454174398099
30
0
10
-62.403659649363838
20
4.8569099361952821
30
0
10
-63.339670556540568
20
7.9052729953695771
30
0
10
-64.646477673674511
20
12.161230389448338
30
0
10
-66.799150056069621
20
16.833283284140766
30
0
10
-68.287510019173538
20
22.103029326361089
30
0
10
-69.329254241583854
20
25.791470045771486
30
0
10
-70.000001036043344
20
29.778472452844156
30
0
10
-70.000001028180122
20
34.000000525265939
30
0
0
ARC
5
115
100
AcDbEntity
8
0
100
AcDbCircle
10
-34.00000000000005
20
-33.999999999999979
30
0
40
36.000000000000007
210
0
220
0
230
1
100
AcDbArc
50
180
51
270
0
CIRCLE
5
116
100
AcDbEntity
8
0
100
AcDbCircle
10
24.000000357627869
20
0
30
0
40
1.1000000000000032
210
0
220
-0
230
1
0
CIRCLE
5
117
100
AcDbEntity
8
0
100
AcDbCircle
10
-18.024999597109854
20
0
30
0
40
1.100000000000001
210
0
220
-0
230
1
0
CIRCLE
5
118
100
AcDbEntity
8
0
100
AcDbCircle
10
0
20
-18.024999597109854
30
0
40
1.0999999999999994
210
0
220
-0
230
1
0
CIRCLE
5
119
100
AcDbEntity
8
0
100
AcDbCircle
10
-24.000000357627869
20
0
30
0
40
1.0999999999999985
210
0
220
-0
230
1
0
CIRCLE
5
120
100
AcDbEntity
8
0
100
AcDbCircle
10
0
20
18.024999597109854
30
0
40
1.1000000000000008
210
0
220
-0
230
1
0
CIRCLE
5
121
100
AcDbEntity
8
0
100
AcDbCircle
10
18.024999597109854
20
0
30
0
40
1.100000000000001
210
0
220
-0
230
1
0
LWPOLYLINE
5
122
100
AcDbEntity
8
0
100
AcDbPolyline
90
12
70
1
43
0.0
10
7.0686292842119709
20
7.0000001043081284
10
-7.0686292842119736
20
7.0000001043081292
42
-0.66817863791929888
10
-7.6343147091612131
20
8.365685529257366
10
-4.4999999701976705
20
11.500000268220907
42
0.12701664988304795
10
-3.9999999999999947
20
13.436491887460122
10
-3.9999999999999956
20
14.000000268220907
42
-0.41421356237309503
10
-3.4999999999999956
20
14.500000268220907
10
3.5000000000000044
20
14.500000268220907
42
-0.41421356237309503
10
4.0000000000000044
20
14.000000268220907
10
4.0000000000000044
20
13.436491887460111
42
0.1270166498830462
10
4.4999999701976723
20
11.500000268220907
10
7.6343147091612096
20
8.3656855292573677
42
-0.66817863791929888
0
ARC
5
123
100
AcDbEntity
8
0
100
AcDbCircle
10
-34.00000000000005
20
34.000000000000028
30
0
40
34.000000000000007
210
0
220
0
230
1
100
AcDbArc
50
220.48777447941978
51
241.28066318531904
0
ARC
5
124
100
AcDbEntity
8
0
100
AcDbCircle
10
-52.500000715255752
20
0.23611435963659666
30
0
40
4.5000000000000018
210
-0
220
0
230
1
100
AcDbArc
50
0
51
61.280663185319455
0
LINE
5
125
100
AcDbEntity
8
0
100
AcDbLine
10
-48.000000715255744
20
0.23611435963659555
30
0
11
-48.000000715255737
21
-0.23611435963655225
31
0
0
ARC
5
126
100
AcDbEntity
8
0
100
AcDbCircle
10
-52.500000715255752
20
-0.23611435963655225
30
0
40
4.5000000000000018
210
-0
220
0
230
1
100
AcDbArc
50
-61.280663185319121
51
0
0
ARC
5
127
100
AcDbEntity
8
0
100
AcDbCircle
10
-34.00000000000005
20
-33.999999999999979
30
0
40
34.000000000000014
210
0
220
0
230
1
100
AcDbArc
50
118.71933681468091
51
139.51222556191888
0
SPLINE
5
128
100
AcDbEntity
8
0
100
AcDbSpline
70
0
71
3
72
22
73
18
74
0
42
0.000000001
43
0.0000000001
44
0.0000000001
40
0
40
0
40
0
40
0
40
0.023438668403215041
40
0.023438668403215041
40
0.046877336806430643
40
0.046877336806430643
40
0.070316005209646121
40
0.070316005209646121
40
0.093754673612861952
40
0.093754673612861952
40
0.11719334201607806
40
0.11719334201607806
40
0.14063201041929377
40
0.14063201041929377
40
0.15391269782787703
40
0.15391269782787703
40
0.16719338523645877
40
0.16719338523645877
40
0.16719338523645877
40
0.16719338523645877
10
-60.879728539146917
20
-11.332470586506837
30
0
10
-60.906063366680556
20
-11.406027374380447
30
0
10
-60.917779142577899
20
-11.484024696687252
30
0
10
-60.910653699310764
20
-11.640119939383132
30
0
10
-60.891880603267559
20
-11.716725504173562
30
0
10
-60.826027024929459
20
-11.858428725569929
30
0
10
-60.779576138736445
20
-11.922171622145095
30
0
10
-60.664855334497439
20
-12.02826419402831
30
0
10
-60.597682209867642
20
-12.069599566524239
30
0
10
-60.45127246311133
20
-12.124195196283342
30
0
10
-60.373435597963294
20
-12.136933489569108
30
0
10
-60.217260291606884
20
-12.131857032288325
30
0
10
-60.14041497144941
20
-12.114090815420269
30
0
10
-60.028750464383066
20
-12.063968243572134
30
0
10
-59.990493625727922
20
-12.04142570675976
30
0
10
-59.919638357046814
20
-11.988336221172853
30
0
10
-59.887257058914685
20
-11.957951962072107
30
0
10
-59.858513853930162
20
-11.924283448410879
30
0
0
SPLINE
5
129
100
AcDbEntity
8
0
100
AcDbSpline
70
4
71
5
72
15
73
9
74
0
42
0.000000001
43
0.0000000001
44
0.0000000001
40
0.31675593461751256
40
0.31675593461751256
40
0.31675593461751256
40
0.31675593461751256
40
0.31675593461751256
40
0.31675593461751256
40
0.40000000000000002
40
0.5
40
0.59999999999999998
40
0.68324406465180398
40
0.68324406465180398
40
0.68324406465180398
40
0.68324406465180398
40
0.68324406465180398
40
0.68324406465180398
41
1
41
1
41
1
41
1
41
1
41
1
41
1
41
1
41
1
10
-60.879728539144011
20
-11.332470586498733
30
0
10
-60.498907772489581
20
-10.268785915889293
30
0
10
-59.7080824855
20
-7.9525517490190634
30
0
10
-58.711224454078533
20
-4.4459911613584797
30
0
10
-58.12839312870652
20
-4.1197443720331073e-09
30
0
10
-58.711224452281797
20
4.4459911574668904
30
0
10
-59.708082478499193
20
7.9525517427079926
30
0
10
-60.498907760626899
20
10.268785904941641
30
0
10
-60.879728523182791
20
11.332470568203776
30
0
0
SPLINE
5
130
100
AcDbEntity
8
0
100
AcDbSpline
70
0
71
3
72
22
73
18
74
0
42
0.000000001
43
0.0000000001
44
0.0000000001
40
0
40
0
40
0
40
0
40
0.023438668403215401
40
0.023438668403215401
40
0.046877336806431372
40
0.046877336806431372
40
0.070316005209647661
40
0.070316005209647661
40
0.093754673612862674
40
0.093754673612862674
40
0.11719334201607907
40
0.11719334201607907
40
0.14063201041929452
40
0.14063201041929452
40
0.15391269776935471
40
0.15391269776935471
40
0.16719338511941498
40
0.16719338511941498
40
0.16719338511941498
40
0.16719338511941498
10
-59.858513838002608
20
11.924283429754105
30
0
10
-59.90924181843922
20
11.983703932817724
30
0
10
-59.971090957297797
20
12.03264804088356
30
0
10
-60.110068946724425
20
12.104073632858492
30
0
10
-60.185869091964712
20
12.125872249178354
30
0
10
-60.341558557732469
20
12.139187164987034
30
0
10
-60.419959402109882
20
12.130576166623527
30
0
10
-60.569047416972978
20
12.083786631915192
30
0
10
-60.638309224777309
20
12.046055429024438
30
0
10
-60.758471362182021
20
11.946167704711732
30
0
10
-60.808222876255385
20
11.884966164377227
30
0
10
-60.88146606805676
20
11.74693742972828
30
0
10
-60.904257500950514
20
11.671429865348561
30
0
10
-60.916286606333784
20
11.549624549688847
30
0
10
-60.915748337331735
20
11.505223401969207
30
0
10
-60.904913540855709
20
11.417350939297492
30
0
10
-60.894650215991803
20
11.374148904448685
30
0
10
-60.87972852318569
20
11.332470568211887
30
0
0
LWPOLYLINE
5
131
100
AcDbEntity
8
0
100
AcDbPolyline
90
6
70
1
43
0.0
10
-10.110208303137531
20
63.500000918063655
10
-2.4181908629500515
20
63.500000803443655
42
-0.40819149555142087
10
-1.4184031388187648
20
62.520603640150874
10
-1.1781290938191078
20
50.860896406039657
42
-0.74641221831619009
10
-3.0047216292053269
20
50.277804610572886
10
-10.937013114392462
20
61.937511959304096
42
-0.60221604344102653
0
LWPOLYLINE
5
132
100
AcDbEntity
8
0
100
AcDbPolyline
90
6
70
1
43
0.0
10
2.4181908629500515
20
63.500000803443662
10
10.110208303137531
20
63.500000918063648
42
-0.60221604344102631
10
10.937013114392462
20
61.937511959304103
10
3.004721629205322
20
50.277804610572872
42
-0.74641221831618032
10
1.1781290938191074
20
50.860896406039643
10
1.4184031388187552
20
62.520603640150874
42
-0.40819149555141593
0
ARC
5
133
100
AcDbEntity
8
0
100
AcDbCircle
10
33.999999999999957
20
-33.999999999999979
30
0
40
34.000000000000007
210
0
220
-0
230
1
100
AcDbArc
50
40.487774438080663
51
61.280663185318964
0
ARC
5
134
100
AcDbEntity
8
0
100
AcDbCircle
10
52.50000071525573
20
-0.2361143596366011
30
0
40
4.5000000000000018
210
0
220
0
230
1
100
AcDbArc
50
180
51
241.28066318531893
0
LINE
5
135
100
AcDbEntity
8
0
100
AcDbLine
10
48.00000071525573
20
-0.23611435963660027
30
0
11
48.000000715255737
21
0.23611435963664551
31
0
0
ARC
5
136
100
AcDbEntity
8
0
100
AcDbCircle
10
52.50000071525573
20
0.23611435963664551
30
0
40
4.5000000000000018
210
0
220
0
230
1
100
AcDbArc
50
118.7193368146811
51
180
0
ARC
5
137
100
AcDbEntity
8
0
100
AcDbCircle
10
33.999999999999957
20
34.000000000000028
30
0
40
34.000000000000007
210
-0
220
0
230
1
100
AcDbArc
50
298.71933681468101
51
319.51222552058061
0
SPLINE
5
138
100
AcDbEntity
8
0
100
AcDbSpline
70
0
71
3
72
22
73
18
74
0
42
0.000000001
43
0.0000000001
44
0.0000000001
40
0
40
0
40
0
40
0
40
0.023438668403214975
40
0.023438668403214975
40
0.046877336806430178
40
0.046877336806430178
40
0.070316005209646232
40
0.070316005209646232
40
0.093754673612861383
40
0.093754673612861383
40
0.1171933420160766
40
0.1171933420160766
40
0.14063201041929174
40
0.14063201041929174
40
0.15391269776935207
40
0.15391269776935207
40
0.16719338511941034
40
0.16719338511941034
40
0.16719338511941034
40
0.16719338511941034
10
60.879728523185761
20
11.332470568212074
30
0
10
60.90606335062941
20
11.4060273561179
30
0
10
60.917779126431348
20
11.484024678439033
30
0
10
60.910653682973255
20
11.640119921126198
30
0
10
60.891880586836336
20
11.716725485893662
30
0
10
60.826027008324886
20
11.858428707209466
30
0
10
60.779576122053889
20
11.922171603727802
30
0
10
60.664855317685095
20
12.028264175470673
30
0
10
60.597682193004729
20
12.069599547884426
30
0
10
60.451272446181633
20
12.12419517746442
30
0
10
60.373435581018015
20
12.136933470654963
30
0
10
60.217260274667822
20
12.131857013183122
30
0
10
60.140414954532076
20
12.114090796221058
30
0
10
60.028750447705036
20
12.063968224316206
30
0
10
59.990493609236111
20
12.041425687575577
30
0
10
59.919638340880553
20
11.988336202204836
30
0
10
59.887257042884841
20
11.957951943246419
30
0
10
59.858513838002693
20
11.924283429754293
30
0
0
SPLINE
5
139
100
AcDbEntity
8
0
100
AcDbSpline
70
4
71
5
72
15
73
9
74
0
42
0.000000001
43
0.0000000001
44
0.0000000001
40
0.31675593461750906
40
0.31675593461750906
40
0.31675593461750906
40
0.31675593461750906
40
0.31675593461750906
40
0.31675593461750906
40
0.40000000000000002
40
0.5
40
0.59999999999999998
40
0.68324406465180687
40
0.68324406465180687
40
0.68324406465180687
40
0.68324406465180687
40
0.68324406465180687
40
0.68324406465180687
41
1
41
1
41
1
41
1
41
1
41
1
41
1
41
1
41
1
10
60.879728539144082
20
-11.332470586498955
30
0
10
60.498907772489623
20
-10.26878591588947
30
0
10
59.708082485500015
20
-7.9525517490191948
30
0
10
58.711224454078554
20
-4.445991161358565
30
0
10
58.128393128706513
20
-4.1197520048164016e-09
30
0
10
58.711224452281805
20
4.4459911574669615
30
0
10
59.708082478499222
20
7.9525517427080992
30
0
10
60.498907760626949
20
10.268785904941788
30
0
10
60.879728523182862
20
11.332470568203961
30
0
0
SPLINE
5
140
100
AcDbEntity
8
0
100
AcDbSpline
70
0
71
3
72
22
73
18
74
0
42
0.000000001
43
0.0000000001
44
0.0000000001
40
0
40
0
40
0
40
0
40
0.023438668403215315
40
0.023438668403215315
40
0.046877336806431066
40
0.046877336806431066
40
0.070316005209646121
40
0.070316005209646121
40
0.093754673612862369
40
0.093754673612862369
40
0.11719334201607784
40
0.11719334201607784
40
0.14063201041929319
40
0.14063201041929319
40
0.15391269782787703
40
0.15391269782787703
40
0.16719338523646096
40
0.16719338523646096
40
0.16719338523646096
40
0.16719338523646096
10
59.858513853930248
20
-11.924283448411085
30
0
10
59.909241834323979
20
-11.983703951511304
30
0
10
59.971090973147241
20
-12.032648059621764
30
0
10
60.110068962522341
20
-12.10407365169697
30
0
10
60.185869107746896
20
-12.125872268071522
30
0
10
60.34155857350504
20
-12.139187183992529
30
0
10
60.419959417888663
20
-12.130576185685593
30
0
10
60.569047432785517
20
-12.083786651084825
30
0
10
60.638309240617083
20
-12.046055448244047
30
0
10
60.758471378093866
20
-11.946167724018038
30
0
10
60.808222892211383
20
-11.884966183719426
30
0
10
60.881466084112333
20
-11.74693744912333
30
0
10
60.904257517060572
20
-11.671429884760053
30
0
10
60.916286622550892
20
-11.549624568914883
30
0
10
60.915748353556907
20
-11.505223420998263
30
0
10
60.904913557011085
20
-11.417350957942043
30
0
10
60.894650232069829
20
-11.374148922909262
30
0
10
60.879728539146981
20
-11.332470586507057
30
0
0
CIRCLE
5
141
100
AcDbEntity
8
0
100
AcDbCircle
10
33.999999999999957
20
-33.999999999999979
30
0
40
32.499999999999993
210
0
220
0
230
1
0
CIRCLE
5
142
100
AcDbEntity
8
0
100
AcDbCircle
10
33.999999999999957
20
34.000000000000028
30
0
40
32.499999999999993
210
-0
220
0
230
1
0
CIRCLE
5
143
100
AcDbEntity
8
0
100
AcDbCircle
10
-34.00000000000005
20
34.000000000000028
30
0
40
32.499999999999993
210
0
220
-0
230
1
0
CIRCLE
5
144
100
AcDbEntity
8
0
100
AcDbCircle
10
-34.00000000000005
20
-33.999999999999979
30
0
40
32.499999999999993
210
0
220
-0
230
1
0
LWPOLYLINE
5
145
100
AcDbEntity
8
0
100
AcDbPolyline
90
6
70
1
43
0.0
10
7.634314709161214
20
-8.3656855292573695
10
0.70710678118654768
20
-15.292893457232035
42
-0.41421356237309498
10
-0.70710678118654791
20
-15.292893457232035
10
-7.6343147091612096
20
-8.3656855292573677
42
-0.66817863791929921
10
-7.0686292842119709
20
-7.0000001043081284
10
7.0686292842119736
20
-7.0000001043081275
42
-0.66817863791929855
0
CIRCLE
5
146
100
AcDbEntity
8
0
100
AcDbCircle
10
-13.000000223517414
20
68.000001013278961
30
0
40
1.0999999999999985
210
0
220
0
230
1
0
CIRCLE
5
147
100
AcDbEntity
8
0
100
AcDbCircle
10
13.000000223517414
20
68.000001013278961
30
0
40
1.100000000000001
210
0
220
0
230
1
0
CIRCLE
5
148
100
AcDbEntity
8
0
100
AcDbCircle
10
-15.250000000000002
20
-3.7250000000000001
30
0
40
1.5999999999999992
210
0
220
0
230
1
0
CIRCLE
5
149
100
AcDbEntity
8
0
100
AcDbCircle
10
15.250000000000002
20
-3.7250000000000001
30
0
40
1.5999999999999992
210
0
220
0
230
1
0
LWPOLYLINE
5
150
100
AcDbEntity
8
0
100
AcDbPolyline
90
6
70
1
43
0.0
10
2.4181908629500435
20
-63.500000803443655
10
10.110208303137522
20
-63.500000918063648
42
0.60221604344102442
10
10.937013114392457
20
-61.937511959304103
10
3.0047216292053216
20
-50.277804610572886
42
0.7464122183161902
10
1.1781290938191011
20
-50.860896406039657
10
1.4184031388187559
20
-62.520603640150874
42
0.40819149555141859
0
LWPOLYLINE
5
151
100
AcDbEntity
8
0
100
AcDbPolyline
90
6
70
1
43
0.0
10
-10.11020830313754
20
-63.500000918063648
10
-2.4181908629500604
20
-63.500000803443662
42
0.40819149555141609
10
-1.4184031388187672
20
-62.520603640150874
10
-1.1781290938191069
20
-50.860896406039643
42
0.74641221831617721
10
-3.0047216292053323
20
-50.277804610572865
10
-10.937013114392467
20
-61.937511959304103
42
0.60221604344102608
0
CIRCLE
5
152
100
AcDbEntity
8
0
100
AcDbCircle
10
45.500000715255737
20
6.8833827526759706e-14
30
0
40
1.1000000000000032
210
0
220
0
230
1
0
CIRCLE
5
153
100
AcDbEntity
8
0
100
AcDbCircle
10
-45.500000715255737
20
6.8516831654430377e-14
30
0
40
1.1000000000000032
210
0
220
0
230
1
0
CIRCLE
5
154
100
AcDbEntity
8
0
100
AcDbCircle
10
-10.500000156462193
20
-68.000001013278961
30
0
40
1.0999999999999988
210
0
220
0
230
1
0
CIRCLE
5
155
100
AcDbEntity
8
0
100
AcDbCircle
10
10.500000156462193
20
-68.000001013278961
30
0
40
1.0999999999999988
210
0
220
0
230
1
0
LINE
5
156
100
AcDbEntity
8
0
100
AcDbLine
10
33.999999996448281
20
-70.000001013278961
30
0
11
-34.00000000000005
21
-70.000001013278961
31
0
0
ARC
5
157
100
AcDbEntity
8
0
100
AcDbCircle
10
-34.000000000000064
20
-33.999999999999993
30
0
40
35.999999999999993
210
0
220
0
230
1
100
AcDbArc
50
180.00000085377366
51
270
0
SPLINE
5
158
100
AcDbEntity
8
0
100
AcDbSpline
70
0
71
3
72
23
73
19
74
0
42
0.000000001
43
0.0000000001
44
0.0000000001
40
-1
40
-1
40
-1
40
-1
40
-0.85107693932468376
40
-0.85107693932468376
40
-0.85107693932468376
40
-0.63830770449351282
40
-0.63830770449351282
40
-0.63830770449351282
40
-0.48591006148832094
40
-0.48591006148832094
40
-0.48591006148832094
40
-0.33377521528287923
40
-0.33377521528287923
40
-0.33377521528287923
40
-0.1477761389887853
40
-0.1477761389887853
40
-0.1477761389887853
40
0
40
0
40
0
40
0
10
-70.000001028180122
20
34.000000525265939
30
0
10
-70.000001036043344
20
29.778472452844156
30
0
10
-69.329254241583854
20
25.791470045771486
30
0
10
-68.287510019173538
20
22.103029326361089
30
0
10
-66.799150056069621
20
16.833283284140766
30
0
10
-64.646477673674511
20
12.161230389448338
30
0
10
-63.339670556540568
20
7.9052729953695771
30
0
10
-62.403659649363838
20
4.8569099361952821
30
0
10
-61.90978369123318
20
2.041454174398099
30
0
10
-62.014534075965315
20
-0.78279080281157754
30
0
10
-62.119103827550262
20
-3.6021656092818293
30
0
10
-62.823529565727299
20
-6.4798384273510816
30
0
10
-63.892364155436084
20
-9.6020005786544225
30
0
10
-65.199114392844223
20
-13.419135775929371
30
0
10
-67.016849098829056
20
-17.576094067219348
30
0
10
-68.3115194683119
20
-22.188298914917905
30
0
10
-69.340134191983168
20
-25.852692514059093
30
0
10
-70.000001035982777
20
-29.810984246193897
30
0
10
-70.000001028180122
20
-34.00000049546361
30
0
0
ARC
5
159
100
AcDbEntity
8
0
100
AcDbCircle
10
-34.000000000000043
20
34.000000000000021
30
0
40
36.000000000000014
210
0
220
-0
230
1
100
AcDbArc
50
89.999999956619661
51
180
0
LINE
5
160
100
AcDbEntity
8
0
100
AcDbLine
10
33.999999999999957
20
70.000001013278961
30
0
11
-33.999999972743375
21
70.000000000000028
31
0
0
ARC
5
161
100
AcDbEntity
8
0
100
AcDbCircle
10
33.999999999999929
20
33.999999999999993
30
0
40
36.000000000000036
210
0
220
-0
230
1
100
AcDbArc
50
8.5377364625159387e-07
51
89.999999999999972
0
SPLINE
5
162
100
AcDbEntity
8
0
100
AcDbSpline
70
0
71
3
72
23
73
19
74
0
42
0.000000001
43
0.0000000001
44
0.0000000001
40
-1
40
-1
40
-1
40
-1
40
-0.85107693932468376
40
-0.85107693932468376
40
-0.85107693932468376
40
-0.63830770449351282
40
-0.63830770449351282
40
-0.63830770449351282
40
-0.48591006148832094
40
-0.48591006148832094
40
-0.48591006148832094
40
-0.33377521528287923
40
-0.33377521528287923
40
-0.33377521528287923
40
-0.1477761389887853
40
-0.1477761389887853
40
-0.1477761389887853
40
0
40
0
40
0
40
0
10
70.000001028180122
20
34.000000525265939
30
0
10
70.000001036043344
20
29.778472452844156
30
0
10
69.329254241583854
20
25.791470045771486
30
0
10
68.287510019173538
20
22.103029326361089
30
0
10
66.799150056069621
20
16.833283284140766
30
0
10
64.646477673674511
20
12.161230389448338
30
0
10
63.339670556540568
20
7.9052729953695771
30
0
10
62.403659649363838
20
4.8569099361952821
30
0
10
61.90978369123318
20
2.041454174398099
30
0
10
62.014534075965315
20
-0.78279080281157754
30
0
10
62.119103827550262
20
-3.6021656092818293
30
0
10
62.823529565727299
20
-6.4798384273510816
30
0
10
63.892364155436084
20
-9.6020005786544225
30
0
10
65.199114392844223
20
-13.419135775929371
30
0
10
67.016849098829056
20
-17.576094067219348
30
0
10
68.3115194683119
20
-22.188298914917905
30
0
10
69.340134191983168
20
-25.852692514059093
30
0
10
70.000001035982777
20
-29.810984246193897
30
0
10
70.000001028180122
20
-34.00000049546361
30
0
0
ARC
5
163
100
AcDbEntity
8
0
100
AcDbCircle
10
33.999999999999957
20
-33.999999999999986
30
0
40
36.000001013278968
210
0
220
0
230
1
100
AcDbArc
50
269.99999999434732
51
360
0
CIRCLE
5
164
100
AcDbEntity
8
0
100
AcDbCircle
10
13.000000223517414
20
68.000001013278961
30
0
40
1.100000000000001
210
0
220
0
230
1
0
CIRCLE
5
165
100
AcDbEntity
8
0
100
AcDbCircle
10
-13.000000223517414
20
68.000001013278961
30
0
40
1.0999999999999988
210
0
220
0
230
1
0
LWPOLYLINE
5
166
100
AcDbEntity
8
0
100
AcDbPolyline
90
12
70
1
43
0.0
10
7.6343147091612149
20
8.3656855292573731
10
4.4999999701976714
20
11.500000268220907
42
-0.12701664988304659
10
4.0000000000000044
20
13.436491887460114
10
4.0000000000000044
20
14.000000268220907
42
0.41421356237309309
10
3.5000000000000036
20
14.500000268220907
10
-3.4999999999999956
20
14.500000268220907
42
0.41421356237309243
10
-3.9999999999999956
20
14.000000268220907
10
-3.9999999999999947
20
13.436491887460125
42
-0.12701664988304739
10
-4.4999999701976705
20
11.500000268220907
10
-7.6343147091612114
20
8.3656855292573677
42
0.66817863791930021
10
-7.0686292842119736
20
7.0000001043081275
10
7.0686292842119709
20
7.0000001043081284
42
0.66817863791930021
0
LWPOLYLINE
5
167
100
AcDbEntity
8
0
100
AcDbPolyline
90
6
70
1
43
0.0
10
-7.6343147091612105
20
-8.3656855292573677
10
-0.70710678118654502
20
-15.292893457232033
42
0.41421356237309614
10
0.70710678118654602
20
-15.292893457232035
10
7.6343147091612114
20
-8.3656855292573695
42
0.66817863791930021
10
7.0686292842119736
20
-7.0000001043081319
10
-7.0686292842119709
20
-7.0000001043081284
42
0.66817863791930021
0
CIRCLE
5
168
100
AcDbEntity
8
0
100
AcDbCircle
10
24.000000357627869
20
0
30
0
40
1.1000000000000032
210
0
220
0
230
1
0
CIRCLE
5
169
100
AcDbEntity
8
0
100
AcDbCircle
10
-18.024999597109854
20
0
30
0
40
1.100000000000001
210
0
220
0
230
1
0
CIRCLE
5
170
100
AcDbEntity
8
0
100
AcDbCircle
10
0
20
-18.024999597109854
30
0
40
1.0999999999999994
210
0
220
0
230
1
0
CIRCLE
5
171
100
AcDbEntity
8
0
100
AcDbCircle
10
-24.000000357627869
20
0
30
0
40
1.0999999999999988
210
0
220
0
230
1
0
CIRCLE
5
172
100
AcDbEntity
8
0
100
AcDbCircle
10
0
20
18.024999597109854
30
0
40
1.1000000000000008
210
0
220
0
230
1
0
CIRCLE
5
173
100
AcDbEntity
8
0
100
AcDbCircle
10
18.024999597109854
20
0
30
0
40
1.100000000000001
210
0
220
0
230
1
0
CIRCLE
5
174
100
AcDbEntity
8
0
100
AcDbCircle
10
-34.000000000000064
20
-33.999999999999993
30
0
40
32.499999999999993
210
0
220
0
230
1
0
CIRCLE
5
175
100
AcDbEntity
8
0
100
AcDbCircle
10
-34.000000000000043
20
34.000000000000021
30
0
40
32.499999999999993
210
0
220
0
230
1
0
CIRCLE
5
176
100
AcDbEntity
8
0
100
AcDbCircle
10
33.999999999999929
20
33.999999999999993
30
0
40
32.499999999999993
210
0
220
0
230
1
0
CIRCLE
5
177
100
AcDbEntity
8
0
100
AcDbCircle
10
33.999999999999957
20
-33.999999999999986
30
0
40
32.499999999999993
210
0
220
0
230
1
0
ARC
5
178
100
AcDbEntity
8
0
100
AcDbCircle
10
-34.000000000000064
20
-33.999999999999993
30
0
40
34.000000000000014
210
0
220
0
230
1
100
AcDbArc
50
118.7193368146809
51
139.5122255619188
0
ARC
5
179
100
AcDbEntity
8
0
100
AcDbCircle
10
-52.50000071525573
20
-0.23611435963655794
30
0
40
4.4999999999999893
210
0
220
0
230
1
100
AcDbArc
50
-61.280663185319327
51
0
0
LINE
5
180
100
AcDbEntity
8
0
100
AcDbLine
10
-48.000000715255737
20
-0.23611435963654975
30
0
11
-48.000000715255737
21
0.23611435963659666
31
0
0
ARC
5
181
100
AcDbEntity
8
0
100
AcDbCircle
10
-52.500000715255737
20
0.23611435963660166
30
0
40
4.5000000000000018
210
0
220
0
230
1
100
AcDbArc
50
0
51
61.280663185319334
0
ARC
5
182
100
AcDbEntity
8
0
100
AcDbCircle
10
-34.000000000000043
20
34.000000000000021
30
0
40
34.000000000000014
210
0
220
0
230
1
100
AcDbArc
50
220.48777447941984
51
241.28066318531904
0
SPLINE
5
183
100
AcDbEntity
8
0
100
AcDbSpline
70
0
71
3
72
22
73
18
74
0
42
0.000000001
43
0.0000000001
44
0.0000000001
40
0
40
0
40
0
40
0
40
0.023438668403216439
40
0.023438668403216439
40
0.046877336806432135
40
0.046877336806432135
40
0.070316005209647703
40
0.070316005209647703
40
0.093754673612863854
40
0.093754673612863854
40
0.11719334201607901
40
0.11719334201607901
40
0.14063201041929521
40
0.14063201041929521
40
0.15391269776935554
40
0.15391269776935554
40
0.16719338511941559
40
0.16719338511941559
40
0.16719338511941559
40
0.16719338511941559
10
-60.87972852318569
20
11.332470568211884
30
0
10
-60.906063350629353
20
11.406027356117715
30
0
10
-60.917779126431299
20
11.484024678438846
30
0
10
-60.910653682973205
20
11.640119921126018
30
0
10
-60.89188058683628
20
11.71672548589348
30
0
10
-60.826027008324822
20
11.858428707209285
30
0
10
-60.77957612205384
20
11.922171603727625
30
0
10
-60.664855317685038
20
12.028264175470497
30
0
10
-60.597682193004665
20
12.069599547884248
30
0
10
-60.451272446181569
20
12.124195177464244
30
0
10
-60.373435581017951
20
12.136933470654787
30
0
10
-60.217260274667758
20
12.131857013182948
30
0
10
-60.140414954532005
20
12.114090796220882
30
0
10
-60.028750447704965
20
12.063968224316028
30
0
10
-59.99049360923604
20
12.041425687575398
30
0
10
-59.919638340880475
20
11.988336202204653
30
0
10
-59.887257042884769
20
11.957951943246229
30
0
10
-59.858513838002608
20
11.924283429754102
30
0
0
SPLINE
5
184
100
AcDbEntity
8
0
100
AcDbSpline
70
4
71
5
72
15
73
9
74
0
42
0.000000001
43
0.0000000001
44
0.0000000001
40
0.3167559346175125
40
0.3167559346175125
40
0.3167559346175125
40
0.3167559346175125
40
0.3167559346175125
40
0.3167559346175125
40
0.40000000000000002
40
0.5
40
0.59999999999999998
40
0.68324406465180398
40
0.68324406465180398
40
0.68324406465180398
40
0.68324406465180398
40
0.68324406465180398
40
0.68324406465180398
41
1
41
1
41
1
41
1
41
1
41
1
41
1
41
1
41
1
10
-60.879728539144004
20
-11.332470586498737
30
0
10
-60.498907772489581
20
-10.268785915889298
30
0
10
-59.708082485499993
20
-7.9525517490190669
30
0
10
-58.711224454078547
20
-4.4459911613584815
30
0
10
-58.12839312870652
20
-4.1197451006169672e-09
30
0
10
-58.711224452281797
20
4.4459911574668904
30
0
10
-59.708082478499193
20
7.9525517427079926
30
0
10
-60.498907760626899
20
10.268785904941641
30
0
10
-60.879728523182791
20
11.332470568203776
30
0
0
SPLINE
5
185
100
AcDbEntity
8
0
100
AcDbSpline
70
0
71
3
72
22
73
18
74
0
42
0.000000001
43
0.0000000001
44
0.0000000001
40
0
40
0
40
0
40
0
40
0.023438668403216192
40
0.023438668403216192
40
0.046877336806431864
40
0.046877336806431864
40
0.070316005209646912
40
0.070316005209646912
40
0.093754673612862299
40
0.093754673612862299
40
0.11719334201607803
40
0.11719334201607803
40
0.14063201041929393
40
0.14063201041929393
40
0.15391269782787731
40
0.15391269782787731
40
0.1671933852364608
40
0.1671933852364608
40
0.1671933852364608
40
0.1671933852364608
10
-59.858513853930155
20
-11.92428344841087
30
0
10
-59.909241834323893
20
-11.983703951511091
30
0
10
-59.971090973147163
20
-12.032648059621547
30
0
10
-60.110068962522263
20
-12.104073651696751
30
0
10
-60.185869107746811
20
-12.125872268071305
30
0
10
-60.341558573504955
20
-12.139187183992313
30
0
10
-60.419959417888585
20
-12.130576185685374
30
0
10
-60.569047432785439
20
-12.083786651084605
30
0
10
-60.638309240616991
20
-12.046055448243823
30
0
10
-60.758471378093773
20
-11.946167724017815
30
0
10
-60.80822289221129
20
-11.884966183719204
30
0
10
-60.881466084112247
20
-11.746937449123102
30
0
10
-60.904257517060493
20
-11.67142988475983
30
0
10
-60.916286622550814
20
-11.549624568914659
30
0
10
-60.915748353556822
20
-11.505223420998041
30
0
10
-60.904913557011
20
-11.417350957941821
30
0
10
-60.89465023206975
20
-11.374148922909042
30
0
10
-60.879728539146896
20
-11.332470586506837
30
0
0
LWPOLYLINE
5
186
100
AcDbEntity
8
0
100
AcDbPolyline
90
6
70
1
43
0.0
10
10.110208303137531
20
63.500000918063648
10
2.4181908629500515
20
63.500000803443655
42
0.40819149555141998
10
1.4184031388187597
20
62.520603640150874
10
1.1781290938191074
20
50.860896406039643
42
0.74641221831618643
10
3.0047216292053265
20
50.277804610572872
10
10.937013114392462
20
61.937511959304103
42
0.60221604344102397
0
LWPOLYLINE
5
187
100
AcDbEntity
8
0
100
AcDbPolyline
90
6
70
1
43
0.0
10
-2.4181908629500519
20
63.500000803443655
10
-10.110208303137531
20
63.500000918063648
42
0.60221604344102653
10
-10.937013114392462
20
61.937511959304096
10
-3.0047216292053269
20
50.277804610572886
42
0.74641221831619009
10
-1.1781290938191074
20
50.860896406039657
10
-1.4184031388187646
20
62.520603640150874
42
0.40819149555142009
0
ARC
5
188
100
AcDbEntity
8
0
100
AcDbCircle
10
33.999999999999929
20
33.999999999999993
30
0
40
33.999999999999986
210
0
220
0
230
1
100
AcDbArc
50
298.71933681468118
51
319.51222552058067
0
ARC
5
189
100
AcDbEntity
8
0
100
AcDbCircle
10
52.500000715255709
20
0.23611435963665106
30
0
40
4.4999999999999876
210
0
220
0
230
1
100
AcDbArc
50
118.71933681468052
51
180
0
LINE
5
190
100
AcDbEntity
8
0
100
AcDbLine
10
48.000000715255737
20
-0.2361143596366011
30
0
11
48.00000071525573
21
0.23611435963664329
31
0
0
ARC
5
191
100
AcDbEntity
8
0
100
AcDbCircle
10
52.500000715255723
20
-0.23611435963659888
30
0
40
4.499999999999984
210
0
220
0
230
1
100
AcDbArc
50
180
51
241.28066318531904
0
ARC
5
192
100
AcDbEntity
8
0
100
AcDbCircle
10
33.999999999999957
20
-33.999999999999986
30
0
40
34.000000000000007
210
0
220
-0
230
1
100
AcDbArc
50
40.487774438080692
51
61.280663185318957
0
SPLINE
5
193
100
AcDbEntity
8
0
100
AcDbSpline
70
0
71
3
72
22
73
18
74
0
42
0.000000001
43
0.0000000001
44
0.0000000001
40
0
40
0
40
0
40
0
40
0.023438668403215655
40
0.023438668403215655
40
0.046877336806431233
40
0.046877336806431233
40
0.070316005209646745
40
0.070316005209646745
40
0.093754673612862646
40
0.093754673612862646
40
0.11719334201607777
40
0.11719334201607777
40
0.14063201041929341
40
0.14063201041929341
40
0.15391269782787681
40
0.15391269782787681
40
0.16719338523646124
40
0.16719338523646124
40
0.16719338523646124
40
0.16719338523646124
10
60.879728539146981
20
-11.332470586507055
30
0
10
60.906063366680613
20
-11.406027374380667
30
0
10
60.917779142577984
20
-11.484024696687467
30
0
10
60.910653699310856
20
-11.640119939383348
30
0
10
60.891880603267651
20
-11.71672550417378
30
0
10
60.826027024929552
20
-11.858428725570146
30
0
10
60.779576138736537
20
-11.92217162214531
30
0
10
60.664855334497538
20
-12.028264194028528
30
0
10
60.597682209867727
20
-12.069599566524454
30
0
10
60.451272463111422
20
-12.12419519628356
30
0
10
60.373435597963379
20
-12.136933489569326
30
0
10
60.217260291606976
20
-12.131857032288547
30
0
10
60.140414971449509
20
-12.114090815420491
30
0
10
60.028750464383165
20
-12.063968243572358
30
0
10
59.990493625728021
20
-12.041425706759981
30
0
10
59.919638357046907
20
-11.988336221173068
30
0
10
59.88725705891477
20
-11.95795196207232
30
0
10
59.858513853930248
20
-11.924283448411083
30
0
0
SPLINE
5
194
100
AcDbEntity
8
0
100
AcDbSpline
70
4
71
5
72
15
73
9
74
0
42
0.000000001
43
0.0000000001
44
0.0000000001
40
0.31675593461750906
40
0.31675593461750906
40
0.31675593461750906
40
0.31675593461750906
40
0.31675593461750906
40
0.31675593461750906
40
0.40000000000000002
40
0.5
40
0.59999999999999998
40
0.68324406465180676
40
0.68324406465180676
40
0.68324406465180676
40
0.68324406465180676
40
0.68324406465180676
40
0.68324406465180676
41
1
41
1
41
1
41
1
41
1
41
1
41
1
41
1
41
1
10
60.879728539144082
20
-11.332470586498955
30
0
10
60.498907772489623
20
-10.26878591588947
30
0
10
59.708082485500015
20
-7.9525517490191948
30
0
10
58.711224454078554
20
-4.445991161358565
30
0
10
58.128393128706513
20
-4.1197535313730604e-09
30
0
10
58.711224452281812
20
4.4459911574669579
30
0
10
59.708082478499207
20
7.9525517427080974
30
0
10
60.498907760626949
20
10.268785904941788
30
0
10
60.879728523182848
20
11.332470568203959
30
0
0
SPLINE
5
195
100
AcDbEntity
8
0
100
AcDbSpline
70
0
71
3
72
22
73
18
74
0
42
0.000000001
43
0.0000000001
44
0.0000000001
40
0
40
0
40
0
40
0
40
0.02343866840321511
40
0.02343866840321511
40
0.046877336806431059
40
0.046877336806431059
40
0.070316005209646315
40
0.070316005209646315
40
0.09375467361286248
40
0.09375467361286248
40
0.11719334201607755
40
0.11719334201607755
40
0.14063201041929313
40
0.14063201041929313
40
0.15391269776935315
40
0.15391269776935315
40
0.16719338511941298
40
0.16719338511941298
40
0.16719338511941298
40
0.16719338511941298
10
59.858513838002679
20
11.92428342975429
30
0
10
59.909241818439291
20
11.983703932817907
30
0
10
59.971090957297868
20
12.032648040883743
30
0
10
60.110068946724496
20
12.104073632858672
30
0
10
60.185869091964783
20
12.125872249178533
30
0
10
60.341558557732533
20
12.139187164987209
30
0
10
60.419959402109953
20
12.130576166623703
30
0
10
60.569047416973035
20
12.083786631915366
30
0
10
60.63830922477738
20
12.046055429024614
30
0
10
60.758471362182092
20
11.946167704711907
30
0
10
60.808222876255449
20
11.884966164377397
30
0
10
60.88146606805681
20
11.746937429728455
30
0
10
60.904257500950578
20
11.671429865348736
30
0
10
60.916286606333841
20
11.549624549689021
30
0
10
60.915748337331792
20
11.505223401969385
30
0
10
60.904913540855759
20
11.41735093929767
30
0
10
60.894650215991859
20
11.374148904448862
30
0
10
60.879728523185754
20
11.332470568212067
30
0
0
ENDSEC
0
SECTION
2
OBJECTS
0
DICTIONARY
5
C
100
AcDbDictionary
3
ACAD_GROUP
350
D
3
ACAD_MLINESTYLE
350
17
0
DICTIONARY
5
D
100
AcDbDictionary
0
DICTIONARY
5
1A
330
C
100
AcDbDictionary
0
DICTIONARY
5
17
100
AcDbDictionary
0
ENDSEC
0
EOF
