0
SECTION
2
HEADER
9
$INSUNITS
70
4
9
$ACADVER
1
AC1014
9
$HANDSEED
5
FFFF
0
ENDSEC
0
SECTION
2
TABLES
0
TABLE
2
VPORT
5
8
100
AcDbSymbolTable
0
ENDTAB
0
TABLE
2
LTYPE
5
5
100
AcDbSymbolTable
0
LTYPE
5
14
100
AcDbSymbolTableRecord
100
AcDbLinetypeTableRecord
2
BYBLOCK
70
0
0
LTYPE
5
15
100
AcDbSymbolTableRecord
100
AcDbLinetypeTableRecord
2
BYLAYER
70
0
0
LTYPE
5
16
100
AcDbSymbolTableRecord
100
AcDbLinetypeTableRecord
2
DASHED
70
0
3
Dashed __ __ __ __ __ __ __ __ __ __ __ __ __ _
72
65
73
2
40
0.75
49
0.5
74
0
49
-0.25
74
0
0
ENDTAB
0
TABLE
2
LAYER
5
2
100
AcDbSymbolTable
70
3
0
LAYER
5
50
100
AcDbSymbolTableRecord
100
AcDbLayerTableRecord
2
1
70
0
62
7
6
DASHED
0
LAYER
5
51
100
AcDbSymbolTableRecord
100
AcDbLayerTableRecord
2
0
70
0
62
7
6
CONTINUOUS
0
ENDTAB
0
TABLE
2
STYLE
5
3
100
AcDbSymbolTable
70
1
0
STYLE
5
11
100
AcDbSymbolTableRecord
100
AcDbTextStyleTableRecord
2
STANDARD
70
0
0
ENDTAB
0
TABLE
2
VIEW
5
6
100
AcDbSymbolTable
70
0
0
ENDTAB
0
TABLE
2
UCS
5
7
100
AcDbSymbolTable
70
0
0
ENDTAB
0
TABLE
2
APPID
5
9
100
AcDbSymbolTable
70
2
0
APPID
5
12
100
AcDbSymbolTableRecord
100
AcDbRegAppTableRecord
2
ACAD
70
0
0
ENDTAB
0
TABLE
2
DIMSTYLE
5
A
100
AcDbSymbolTable
70
1
0
ENDTAB
0
TABLE
2
BLOCK_RECORD
5
1
100
AcDbSymbolTable
70
1
0
BLOCK_RECORD
5
1F
100
AcDbSymbolTableRecord
100
AcDbBlockTableRecord
2
*MODEL_SPACE
0
BLOCK_RECORD
5
1B
100
AcDbSymbolTableRecord
100
AcDbBlockTableRecord
2
*PAPER_SPACE
0
ENDTAB
0
ENDSEC
0
SECTION
2
BLOCKS
0
BLOCK
5
20
100
AcDbEntity
100
AcDbBlockBegin
2
*MODEL_SPACE
0
ENDBLK
5
21
100
AcDbEntity
100
AcDbBlockEnd
0
BLOCK
5
1C
100
AcDbEntity
100
AcDbBlockBegin
2
*PAPER_SPACE
0
ENDBLK
5
1D
100
AcDbEntity
100
AcDbBlockEnd
0
ENDSEC
0
SECTION
2
ENTITIES
0
LWPOLYLINE
5
100
100
AcDbEntity
8
0
100
AcDbPolyline
90
4
70
1
43
0.0
10
69.149999999969594
20
-5.4499803971907923
10
69.149999999976103
20
-6.4500000000000313
42
-0.99999999999999989
10
66.0500000000239
20
-6.4500000000000313
10
66.050000000070369
20
-5.4500006941037302
42
-0.99999390043617209
0
LWPOLYLINE
5
101
100
AcDbEntity
8
0
100
AcDbPolyline
90
4
70
1
43
0.0
10
-66.0500000000239
20
-5.4500006941060111
42
0.99999390043617209
10
-69.150000000016064
20
-5.4499803972026095
10
-69.149999999976103
20
-6.4499999999899496
42
0.99999999999999989
10
-66.0500000000239
20
-6.4500000000101041
0
LWPOLYLINE
5
102
100
AcDbEntity
8
0
100
AcDbPolyline
90
4
70
1
43
0.0
10
75.699999704748848
20
4.1999997046663573
10
76.699999704715594
20
4.1999997046804172
42
-0.99999999999999989
10
76.699999704715637
20
1.0999997047024657
10
75.699999704700232
20
1.099999704730843
42
-0.99999999999999989
0
LWPOLYLINE
5
103
100
AcDbEntity
8
0
100
AcDbPolyline
90
4
70
1
43
0.0
10
-76.699999704738616
20
4.1999997046510309
42
0.99999999999999989
10
-76.699999704692615
20
1.0999997047318537
10
-75.699999704724561
20
1.0999997046935266
42
0.99999999999999989
10
-75.699999704724505
20
4.199999704703683
0
LINE
5
104
100
AcDbEntity
8
0
100
AcDbLine
10
50.600000000081877
20
-4.0000000000000338
30
0
11
-50.600000000081877
21
-4.0000000000000338
31
0
0
SPLINE
5
105
100
AcDbEntity
8
0
100
AcDbSpline
70
4
71
5
72
16
73
10
74
0
42
0.000000001
43
0.0000000001
44
0.0000000001
40
0
40
0
40
0
40
0
40
0
40
0
40
0.20000000000000001
40
0.40000000000000002
40
0.60000000000000009
40
0.80000000000000004
40
1
40
1
40
1
40
1
40
1
40
1
41
1
41
1
41
1
41
1
41
1
41
1
41
1
41
1
41
1
41
1
10
-50.600000000081877
20
-4.0000000000000338
30
0
10
-51.617245786666061
20
-4.0000000000000338
30
0
10
-53.622327839156654
20
-3.8985275813274556
30
0
10
-56.541790289760598
20
-3.4421624886390809
30
0
10
-60.272511504888939
20
-2.2979763340961745
30
0
10
-64.686262398422286
20
-0.19344776616143075
30
0
10
-67.991734054618462
20
1.9387254997478069
30
0
10
-70.308465975110977
20
3.7954212520900716
30
0
10
-71.771520544873056
20
5.1561922536627982
30
0
10
-72.48267229132567
20
5.8673440001229853
30
0
0
ARC
5
106
100
AcDbEntity
8
0
100
AcDbCircle
10
-75.699999704724533
20
2.649999704698609
30
0
40
4.5500000000338066
210
0
220
-0
230
1
100
AcDbArc
50
45.000150321392482
51
90.069520325694427
0
LINE
5
107
100
AcDbEntity
8
0
100
AcDbLine
10
-75.705520484910863
20
7.1999963553889934
30
0
11
-76.699999704714571
21
7.1999997046914537
31
0
0
ARC
5
108
100
AcDbEntity
8
0
100
AcDbCircle
10
-76.699999704715623
20
2.6499997046914423
30
0
40
4.5500000000000105
210
0
220
-0
230
1
100
AcDbArc
50
89.999999999986755
51
225.00000000000199
0
LINE
5
109
100
AcDbEntity
8
0
100
AcDbLine
10
-79.917335559114306
20
-0.5673361497074636
30
0
11
-70.817335854406338
21
-9.6673358544063692
31
0
0
ARC
5
110
100
AcDbEntity
8
0
100
AcDbCircle
10
-67.599999999999994
20
-6.4500000000000268
30
0
40
4.5500000000106757
210
0
220
0
230
1
100
AcDbArc
50
224.99999999999997
51
269.99992475926439
0
LINE
5
111
100
AcDbEntity
8
0
100
AcDbLine
10
-67.600005975053477
20
-11.000000000006786
30
0
11
67.600005975053477
21
-11.000000000000201
31
0
0
ARC
5
112
100
AcDbEntity
8
0
100
AcDbCircle
10
67.599999999999994
20
-6.4500000000000313
30
0
40
4.5500000000040934
210
-0
220
0
230
1
100
AcDbArc
50
270.00007524073561
51
315.00000000000244
0
LINE
5
113
100
AcDbEntity
8
0
100
AcDbLine
10
70.817335854401819
20
-9.6673358544015819
30
0
11
79.917335559114051
21
-0.56733614970720048
31
0
0
ARC
5
114
100
AcDbEntity
8
0
100
AcDbCircle
10
76.699999704715623
20
2.6499997046914414
30
0
40
4.549999999999641
210
-0
220
0
230
1
100
AcDbArc
50
-45.000000000001883
51
90.00000000001306
0
LINE
5
115
100
AcDbEntity
8
0
100
AcDbLine
10
76.699999704714585
20
7.1999997046910904
30
0
11
75.705520484910821
21
7.1999963553532176
31
0
0
ARC
5
116
100
AcDbEntity
8
0
100
AcDbCircle
10
75.699999704724533
20
2.6499997046986001
30
0
40
4.5499999999980334
210
0
220
-0
230
1
100
AcDbArc
50
89.930479674305559
51
134.99984967860729
0
SPLINE
5
117
100
AcDbEntity
8
0
100
AcDbSpline
70
4
71
5
72
16
73
10
74
0
42
0.000000001
43
0.0000000001
44
0.0000000001
40
-1
40
-1
40
-1
40
-1
40
-1
40
-1
40
-0.80000000000000004
40
-0.60000000000000009
40
-0.40000000000000002
40
-0.20000000000000001
40
0
40
0
40
0
40
0
40
0
40
0
41
1
41
1
41
1
41
1
41
1
41
1
41
1
41
1
41
1
41
1
10
72.48267229132567
20
5.8673440001229853
30
0
10
71.771520544873056
20
5.1561922536627982
30
0
10
70.308465975110977
20
3.7954212520900716
30
0
10
67.991734054618462
20
1.9387254997478069
30
0
10
64.686262398422286
20
-0.19344776616143075
30
0
10
60.272511504888939
20
-2.2979763340961745
30
0
10
56.541790289760598
20
-3.4421624886390809
30
0
10
53.622327839156654
20
-3.8985275813274556
30
0
10
51.617245786666061
20
-4.0000000000000338
30
0
10
50.600000000081877
20
-4.0000000000000338
30
0
0
LINE
5
118
100
AcDbEntity
8
0
100
AcDbLine
10
-67.600005975053492
20
-11.000000000006784
30
0
11
67.600005975053477
21
-11.000000000000201
31
0
0
ARC
5
119
100
AcDbEntity
8
0
100
AcDbCircle
10
67.599999999999994
20
-6.4500000000000313
30
0
40
4.5500000000040934
210
-0
220
0
230
1
100
AcDbArc
50
270.00007524073561
51
315.00000000000244
0
LINE
5
120
100
AcDbEntity
8
0
100
AcDbLine
10
70.817335854401819
20
-9.6673358544015819
30
0
11
79.917335559114051
21
-0.56733614970720048
31
0
0
ARC
5
121
100
AcDbEntity
8
0
100
AcDbCircle
10
76.699999704715623
20
2.6499997046914459
30
0
40
4.5499999999996446
210
-0
220
0
230
1
100
AcDbArc
50
-45.00000000000194
51
90.00000000001306
0
LWPOLYLINE
5
122
100
AcDbEntity
8
0
100
AcDbPolyline
90
4
70
1
43
0.0
10
75.699999704748848
20
4.1999997046663573
42
0.99999999999999989
10
75.699999704700232
20
1.099999704730843
10
76.699999704715637
20
1.0999997047024657
42
0.99999999999999989
10
76.699999704715594
20
4.1999997046804172
0
ARC
5
123
100
AcDbEntity
8
0
100
AcDbCircle
10
75.699999704724533
20
2.6499997046986046
30
0
40
4.549999999998029
210
0
220
-0
230
1
100
AcDbArc
50
89.930479674305559
51
134.99984967860732
0
SPLINE
5
124
100
AcDbEntity
8
0
100
AcDbSpline
70
4
71
5
72
16
73
10
74
0
42
0.000000001
43
0.0000000001
44
0.0000000001
40
-1
40
-1
40
-1
40
-1
40
-1
40
-1
40
-0.80000000000000004
40
-0.60000000000000009
40
-0.40000000000000002
40
-0.20000000000000001
40
0
40
0
40
0
40
0
40
0
40
0
41
1
41
1
41
1
41
1
41
1
41
1
41
1
41
1
41
1
41
1
10
72.48267229132567
20
5.8673440001229853
30
0
10
71.771520544873056
20
5.1561922536627982
30
0
10
70.308465975110977
20
3.7954212520900716
30
0
10
67.991734054618462
20
1.9387254997478069
30
0
10
64.686262398422286
20
-0.19344776616143075
30
0
10
60.272511504888939
20
-2.2979763340961745
30
0
10
56.541790289760598
20
-3.4421624886390809
30
0
10
53.622327839156654
20
-3.8985275813274556
30
0
10
51.617245786666061
20
-4.0000000000000338
30
0
10
50.600000000081877
20
-4.0000000000000338
30
0
0
LWPOLYLINE
5
125
100
AcDbEntity
8
0
100
AcDbPolyline
90
4
70
1
43
0.0
10
69.149999999969594
20
-5.4499803971907923
42
0.99999390043617209
10
66.050000000070369
20
-5.4500006941037302
10
66.0500000000239
20
-6.4500000000000313
42
0.99999999999999989
10
69.149999999976103
20
-6.4500000000000313
0
LINE
5
126
100
AcDbEntity
8
0
100
AcDbLine
10
50.600000000081877
20
-4.0000000000000338
30
0
11
-50.600000000081877
21
-4.0000000000000338
31
0
0
SPLINE
5
127
100
AcDbEntity
8
0
100
AcDbSpline
70
4
71
5
72
16
73
10
74
0
42
0.000000001
43
0.0000000001
44
0.0000000001
40
0
40
0
40
0
40
0
40
0
40
0
40
0.20000000000000001
40
0.40000000000000002
40
0.60000000000000009
40
0.80000000000000004
40
1
40
1
40
1
40
1
40
1
40
1
41
1
41
1
41
1
41
1
41
1
41
1
41
1
41
1
41
1
41
1
10
-50.600000000081877
20
-4.0000000000000338
30
0
10
-51.617245786666061
20
-4.0000000000000338
30
0
10
-53.622327839156654
20
-3.8985275813274556
30
0
10
-56.541790289760598
20
-3.4421624886390809
30
0
10
-60.272511504888939
20
-2.2979763340961745
30
0
10
-64.686262398422286
20
-0.19344776616143075
30
0
10
-67.991734054618462
20
1.9387254997478069
30
0
10
-70.308465975110977
20
3.7954212520900716
30
0
10
-71.771520544873056
20
5.1561922536627982
30
0
10
-72.48267229132567
20
5.8673440001229853
30
0
0
ARC
5
128
100
AcDbEntity
8
0
100
AcDbCircle
10
-76.699999704715623
20
2.6499997046914423
30
0
40
4.5500000000000105
210
0
220
-0
230
1
100
AcDbArc
50
89.99999999998694
51
225.00000000000199
0
ARC
5
129
100
AcDbEntity
8
0
100
AcDbCircle
10
-75.699999704724533
20
2.6499997046986046
30
0
40
4.5500000000338101
210
0
220
-0
230
1
100
AcDbArc
50
45.000150321392525
51
90.069520325694427
0
LINE
5
130
100
AcDbEntity
8
0
100
AcDbLine
10
-79.917335559114306
20
-0.5673361497074636
30
0
11
-70.817335854406338
21
-9.6673358544063692
31
0
0
ARC
5
131
100
AcDbEntity
8
0
100
AcDbCircle
10
-67.599999999999994
20
-6.4500000000000268
30
0
40
4.5500000000106757
210
0
220
0
230
1
100
AcDbArc
50
224.99999999999997
51
269.99992475926422
0
LINE
5
132
100
AcDbEntity
8
0
100
AcDbLine
10
-75.705520484910863
20
7.1999963553889934
30
0
11
-76.699999704714585
21
7.1999997046914537
31
0
0
LWPOLYLINE
5
133
100
AcDbEntity
8
0
100
AcDbPolyline
90
4
70
1
43
0.0
10
-76.699999704738616
20
4.1999997046510309
42
0.99999999999999989
10
-76.699999704692615
20
1.0999997047318537
10
-75.699999704724561
20
1.0999997046935266
42
0.99999999999999989
10
-75.699999704724505
20
4.199999704703683
0
LWPOLYLINE
5
134
100
AcDbEntity
8
0
100
AcDbPolyline
90
4
70
1
43
0.0
10
-66.0500000000239
20
-5.4500006941060111
42
0.99999390043617209
10
-69.150000000016064
20
-5.4499803972026095
10
-69.149999999976103
20
-6.4499999999899496
42
0.99999999999999989
10
-66.0500000000239
20
-6.4500000000101041
0
LINE
5
135
100
AcDbEntity
8
0
100
AcDbLine
10
76.699999704714585
20
7.1999997046910904
30
0
11
75.705520484910821
21
7.1999963553532176
31
0
0
ENDSEC
0
SECTION
2
OBJECTS
0
DICTIONARY
5
C
100
AcDbDictionary
3
ACAD_GROUP
350
D
3
ACAD_MLINESTYLE
350
17
0
DICTIONARY
5
D
100
AcDbDictionary
0
DICTIONARY
5
1A
330
C
100
AcDbDictionary
0
DICTIONARY
5
17
100
AcDbDictionary
0
ENDSEC
0
EOF
