0
SECTION
2
HEADER
9
$INSUNITS
70
4
9
$ACADVER
1
AC1014
9
$HANDSEED
5
FFFF
0
ENDSEC
0
SECTION
2
TABLES
0
TABLE
2
VPORT
5
8
100
AcDbSymbolTable
0
ENDTAB
0
TABLE
2
LTYPE
5
5
100
AcDbSymbolTable
0
LTYPE
5
14
100
AcDbSymbolTableRecord
100
AcDbLinetypeTableRecord
2
BYBLOCK
70
0
0
LTYPE
5
15
100
AcDbSymbolTableRecord
100
AcDbLinetypeTableRecord
2
BYLAYER
70
0
0
LTYPE
5
16
100
AcDbSymbolTableRecord
100
AcDbLinetypeTableRecord
2
DASHED
70
0
3
Dashed __ __ __ __ __ __ __ __ __ __ __ __ __ _
72
65
73
2
40
0.75
49
0.5
74
0
49
-0.25
74
0
0
ENDTAB
0
TABLE
2
LAYER
5
2
100
AcDbSymbolTable
70
2
0
LAYER
5
50
100
AcDbSymbolTableRecord
100
AcDbLayerTableRecord
2
0
70
0
62
7
6
CONTINUOUS
0
ENDTAB
0
TABLE
2
STYLE
5
3
100
AcDbSymbolTable
70
1
0
STYLE
5
11
100
AcDbSymbolTableRecord
100
AcDbTextStyleTableRecord
2
STANDARD
70
0
0
ENDTAB
0
TABLE
2
VIEW
5
6
100
AcDbSymbolTable
70
0
0
ENDTAB
0
TABLE
2
UCS
5
7
100
AcDbSymbolTable
70
0
0
ENDTAB
0
TABLE
2
APPID
5
9
100
AcDbSymbolTable
70
2
0
APPID
5
12
100
AcDbSymbolTableRecord
100
AcDbRegAppTableRecord
2
ACAD
70
0
0
ENDTAB
0
TABLE
2
DIMSTYLE
5
A
100
AcDbSymbolTable
70
1
0
ENDTAB
0
TABLE
2
BLOCK_RECORD
5
1
100
AcDbSymbolTable
70
1
0
BLOCK_RECORD
5
1F
100
AcDbSymbolTableRecord
100
AcDbBlockTableRecord
2
*MODEL_SPACE
0
BLOCK_RECORD
5
1B
100
AcDbSymbolTableRecord
100
AcDbBlockTableRecord
2
*PAPER_SPACE
0
ENDTAB
0
ENDSEC
0
SECTION
2
BLOCKS
0
BLOCK
5
20
100
AcDbEntity
100
AcDbBlockBegin
2
*MODEL_SPACE
0
ENDBLK
5
21
100
AcDbEntity
100
AcDbBlockEnd
0
BLOCK
5
1C
100
AcDbEntity
100
AcDbBlockBegin
2
*PAPER_SPACE
0
ENDBLK
5
1D
100
AcDbEntity
100
AcDbBlockEnd
0
ENDSEC
0
SECTION
2
ENTITIES
0
LWPOLYLINE
5
100
100
AcDbEntity
8
0
100
AcDbPolyline
90
8
70
1
43
0.0
10
4.408116793939163
20
8.4497487217175866
10
8.449748534606087
20
4.4081185418786317
10
8.4497502369636059
20
-4.4081152763755682
10
4.4081208569427481
20
-8.4497462172189532
10
-4.4081173078723186
20
-8.4497470683967357
10
-8.4497474683045155
20
-4.4081169079645353
10
-8.4497474683017177
20
4.4081169102898272
10
-4.4081165080461346
20
8.4497478705402784
0
LINE
5
101
100
AcDbEntity
8
0
100
AcDbLine
10
8.5502508866435729
20
18.449749121626581
30
0
11
18.449747734786399
21
8.5502560965464482
31
0
0
LINE
5
102
100
AcDbEntity
8
0
100
AcDbLine
10
-18.449747468300401
20
8.5502525340258124
30
0
11
-8.5502525316824514
21
18.449747470631195
31
0
0
LINE
5
103
100
AcDbEntity
8
0
100
AcDbLine
10
8.5502580116965099
20
-18.449745817309761
30
0
11
18.449751036782921
21
-8.5502489691732144
31
0
0
CIRCLE
5
104
100
AcDbEntity
8
0
100
AcDbCircle
10
-10
20
10
30
0
40
1.6500000000000004
210
0
220
-0
230
1
0
CIRCLE
5
105
100
AcDbEntity
8
0
100
AcDbCircle
10
10
20
10
30
0
40
1.6500000000000004
210
0
220
-0
230
1
0
CIRCLE
5
106
100
AcDbEntity
8
0
100
AcDbCircle
10
10
20
-10
30
0
40
1.6500000000000004
210
0
220
-0
230
1
0
CIRCLE
5
107
100
AcDbEntity
8
0
100
AcDbCircle
10
-10
20
-10
30
0
40
1.6500000000000004
210
0
220
-0
230
1
0
LINE
5
108
100
AcDbEntity
8
0
100
AcDbLine
10
-18.449747468305834
20
-8.55025253169417
30
0
11
-8.55025253169417
21
-18.449747468305837
31
0
0
LINE
5
109
100
AcDbEntity
8
0
100
AcDbLine
10
-8.55025253169417
20
-18.449747468305837
30
0
11
-8.550252338600977
21
-20.44974746830583
31
0
0
LINE
5
110
100
AcDbEntity
8
0
100
AcDbLine
10
8.5502580116965099
20
-18.449745817309761
30
0
11
8.5502582047897011
21
-20.449745817309754
31
0
0
LINE
5
111
100
AcDbEntity
8
0
100
AcDbLine
10
-8.550252338600977
20
-20.44974746830583
30
0
11
8.5502582047897011
21
-20.449745817309754
31
0
0
LINE
5
112
100
AcDbEntity
8
0
100
AcDbLine
10
-18.449747468305834
20
-8.55025253169417
30
0
11
-20.449747468305834
21
-8.5502525316935341
31
0
0
LINE
5
113
100
AcDbEntity
8
0
100
AcDbLine
10
-18.449747468300401
20
8.5502525340258124
30
0
11
-20.449747468300401
21
8.5502525340264484
31
0
0
LINE
5
114
100
AcDbEntity
8
0
100
AcDbLine
10
-20.449747468300401
20
8.5502525340264484
30
0
11
-20.449747468305834
21
-8.5502525316935341
31
0
0
LINE
5
115
100
AcDbEntity
8
0
100
AcDbLine
10
8.5502508866435729
20
18.449749121626581
30
0
11
8.5502506935503835
21
20.449749121626574
31
0
0
LINE
5
116
100
AcDbEntity
8
0
100
AcDbLine
10
-8.5502525316824514
20
18.449747470631195
30
0
11
-8.5502527247756426
21
20.449747470631188
31
0
0
LINE
5
117
100
AcDbEntity
8
0
100
AcDbLine
10
-8.5502527247756426
20
20.449747470631188
30
0
11
8.5502506935503835
21
20.449749121626574
31
0
0
LINE
5
118
100
AcDbEntity
8
0
100
AcDbLine
10
18.449747734786399
20
8.5502560965464482
30
0
11
20.44974773478636
21
8.5502564827334666
31
0
0
LINE
5
119
100
AcDbEntity
8
0
100
AcDbLine
10
18.449751036782921
20
-8.5502489691732144
30
0
11
20.449751036782882
21
-8.5502485829861978
31
0
0
LINE
5
120
100
AcDbEntity
8
0
100
AcDbLine
10
20.44974773478636
20
8.5502564827334666
30
0
11
20.449751036782882
21
-8.5502485829861978
31
0
0
ENDSEC
0
SECTION
2
OBJECTS
0
DICTIONARY
5
C
100
AcDbDictionary
3
ACAD_GROUP
350
D
3
ACAD_MLINESTYLE
350
17
0
DICTIONARY
5
D
100
AcDbDictionary
0
DICTIONARY
5
1A
330
C
100
AcDbDictionary
0
DICTIONARY
5
17
100
AcDbDictionary
0
ENDSEC
0
EOF
