0
SECTION
2
HEADER
9
$INSUNITS
70
4
9
$ACADVER
1
AC1014
9
$HANDSEED
5
FFFF
0
ENDSEC
0
SECTION
2
TABLES
0
TABLE
2
VPORT
5
8
100
AcDbSymbolTable
0
ENDTAB
0
TABLE
2
LTYPE
5
5
100
AcDbSymbolTable
0
LTYPE
5
14
100
AcDbSymbolTableRecord
100
AcDbLinetypeTableRecord
2
BYBLOCK
70
0
0
LTYPE
5
15
100
AcDbSymbolTableRecord
100
AcDbLinetypeTableRecord
2
BYLAYER
70
0
0
LTYPE
5
16
100
AcDbSymbolTableRecord
100
AcDbLinetypeTableRecord
2
DASHED
70
0
3
Dashed __ __ __ __ __ __ __ __ __ __ __ __ __ _
72
65
73
2
40
0.75
49
0.5
74
0
49
-0.25
74
0
0
ENDTAB
0
TABLE
2
LAYER
5
2
100
AcDbSymbolTable
70
2
0
LAYER
5
50
100
AcDbSymbolTableRecord
100
AcDbLayerTableRecord
2
0
70
0
62
7
6
CONTINUOUS
0
ENDTAB
0
TABLE
2
STYLE
5
3
100
AcDbSymbolTable
70
1
0
STYLE
5
11
100
AcDbSymbolTableRecord
100
AcDbTextStyleTableRecord
2
STANDARD
70
0
0
ENDTAB
0
TABLE
2
VIEW
5
6
100
AcDbSymbolTable
70
0
0
ENDTAB
0
TABLE
2
UCS
5
7
100
AcDbSymbolTable
70
0
0
ENDTAB
0
TABLE
2
APPID
5
9
100
AcDbSymbolTable
70
2
0
APPID
5
12
100
AcDbSymbolTableRecord
100
AcDbRegAppTableRecord
2
ACAD
70
0
0
ENDTAB
0
TABLE
2
DIMSTYLE
5
A
100
AcDbSymbolTable
70
1
0
ENDTAB
0
TABLE
2
BLOCK_RECORD
5
1
100
AcDbSymbolTable
70
1
0
BLOCK_RECORD
5
1F
100
AcDbSymbolTableRecord
100
AcDbBlockTableRecord
2
*MODEL_SPACE
0
BLOCK_RECORD
5
1B
100
AcDbSymbolTableRecord
100
AcDbBlockTableRecord
2
*PAPER_SPACE
0
ENDTAB
0
ENDSEC
0
SECTION
2
BLOCKS
0
BLOCK
5
20
100
AcDbEntity
100
AcDbBlockBegin
2
*MODEL_SPACE
0
ENDBLK
5
21
100
AcDbEntity
100
AcDbBlockEnd
0
BLOCK
5
1C
100
AcDbEntity
100
AcDbBlockBegin
2
*PAPER_SPACE
0
ENDBLK
5
1D
100
AcDbEntity
100
AcDbBlockEnd
0
ENDSEC
0
SECTION
2
ENTITIES
0
CIRCLE
5
100
100
AcDbEntity
8
0
100
AcDbCircle
10
19.999999999073474
20
20.000000000906574
30
0
40
1.6500000000000004
210
0
220
-0
230
1
0
CIRCLE
5
101
100
AcDbEntity
8
0
100
AcDbCircle
10
19.999999999074479
20
-19.999999999076245
30
0
40
1.6500000000000004
210
0
220
-0
230
1
0
LINE
5
102
100
AcDbEntity
8
0
100
AcDbLine
10
-21.000000000000007
20
-23.000000000000004
30
0
11
12.000000178813934
21
-23.000000342726707
31
0
0
CIRCLE
5
103
100
AcDbEntity
8
0
100
AcDbCircle
10
62.499907550539959
20
14.500830182940307
30
0
40
1.6500000000000004
210
0
220
-0
230
1
0
CIRCLE
5
104
100
AcDbEntity
8
0
100
AcDbCircle
10
62.499907550541806
20
-14.499169817059697
30
0
40
1.6500000000000004
210
0
220
-0
230
1
0
CIRCLE
5
105
100
AcDbEntity
8
0
100
AcDbCircle
10
-34.500000000030262
20
14.499999999996467
30
0
40
1.6500000000000004
210
0
220
-0
230
1
0
CIRCLE
5
106
100
AcDbEntity
8
0
100
AcDbCircle
10
-34.500000000030262
20
-14.500000000006818
30
0
40
1.6500000000000004
210
0
220
-0
230
1
0
LINE
5
107
100
AcDbEntity
8
0
100
AcDbLine
10
-35.000000521540642
20
23.000000342726707
30
0
11
-21
21
23
31
0
0
LINE
5
108
100
AcDbEntity
8
0
100
AcDbLine
10
-35.000000521540642
20
-23.000000342726707
30
0
11
-29.000000432133675
21
-23.000000342726707
31
0
0
LINE
5
109
100
AcDbEntity
8
0
100
AcDbLine
10
-29.000000432133675
20
-23.000000342726707
30
0
11
-21.000000000000007
21
-23.000000000000004
31
0
0
SPLINE
5
110
100
AcDbEntity
8
0
100
AcDbSpline
70
4
71
5
72
21
73
15
74
0
42
0.000000001
43
0.0000000001
44
0.0000000001
40
0
40
0
40
0
40
0
40
0
40
0
40
0.10000000000000001
40
0.20000000000000001
40
0.30000000000000004
40
0.40000000000000002
40
0.5
40
0.59999999999999998
40
0.69999999999999996
40
0.79999999999999993
40
0.89999999999999991
40
1
40
1
40
1
40
1
40
1
40
1
41
1
41
1
41
1
41
1
41
1
41
1
41
1
41
1
41
1
41
1
41
1
41
1
41
1
41
1
41
1
10
-41.242640687089185
20
6.0000000000017479
30
0
10
-40.599052381502943
20
5.7600000000022984
30
0
10
-39.368080030367793
20
5.2800000000033531
30
0
10
-37.6902291164579
20
4.5600000000048144
30
0
10
-35.795902287989442
20
3.6000000000066148
30
0
10
-34.038115893581896
20
2.4000000000084105
30
0
10
-32.944977675284534
20
1.200000000009336
30
0
10
-32.570727979388153
20
9.0393924984111251e-12
30
0
10
-32.944977675314256
20
-1.1999999999925535
30
0
10
-34.03811589363319
20
-2.3999999999949382
30
0
10
-35.795902288046108
20
-3.5999999999973142
30
0
10
-37.690229116500603
20
-4.5599999999985057
30
0
10
-39.368080030387475
20
-5.2799999999986804
30
0
10
-40.599052381501693
20
-5.7599999999984499
30
0
10
-41.242640687076069
20
-5.9999999999982485
30
0
0
ARC
5
111
100
AcDbEntity
8
0
100
AcDbCircle
10
-34.999999657281883
20
16.757359312907695
30
0
40
6.2426410298190742
210
0
220
0
230
1
100
AcDbArc
50
90.00000793228044
51
180
0
ARC
5
112
100
AcDbEntity
8
0
100
AcDbCircle
10
-34.999999657214943
20
-16.757359312877416
30
0
40
6.242641029849354
210
0
220
0
230
1
100
AcDbArc
50
180
51
269.99999206710521
0
LINE
5
113
100
AcDbEntity
8
0
100
AcDbLine
10
30.326576732253322
20
20.500830197846799
30
0
11
23.241269745326871
21
25.049175241844218
31
0
0
LINE
5
114
100
AcDbEntity
8
0
100
AcDbLine
10
30.327568100293657
20
-20.49916983195633
30
0
11
23.241786396300444
21
-25.048843543026685
31
0
0
LINE
5
115
100
AcDbEntity
8
0
100
AcDbLine
10
12.000000178813934
20
23.000000342726707
30
0
11
-21
21
23
31
0
0
ARC
5
116
100
AcDbEntity
8
0
100
AcDbCircle
10
19.999999998821639
20
-19.999999999012349
30
0
40
6.0000000149011594
210
0
220
0
230
1
100
AcDbArc
50
245.94849646536977
51
302.70390902347918
0
ARC
5
117
100
AcDbEntity
8
0
100
AcDbCircle
10
19.999999998827413
20
20.000000001347882
30
0
40
6.0000000149011603
210
0
220
-0
230
1
100
AcDbArc
50
57.301953893040093
51
114.05150355469755
0
LINE
5
118
100
AcDbEntity
8
0
100
AcDbLine
10
12.000000178813934
20
23.000000342726707
30
0
11
17.55465396865273
21
25.479076837049568
31
0
0
LINE
5
119
100
AcDbEntity
8
0
100
AcDbLine
10
12.000000178813934
20
-23.000000342726707
30
0
11
17.554653970565951
21
-25.479076835570496
31
0
0
LINE
5
120
100
AcDbEntity
8
0
100
AcDbLine
10
62.499907550540954
20
20.500830197841466
30
0
11
30.326576732253322
21
20.500830197846799
31
0
0
LINE
5
121
100
AcDbEntity
8
0
100
AcDbLine
10
62.499907550540954
20
-20.49916983196086
30
0
11
30.327568100293657
21
-20.49916983195633
31
0
0
ARC
5
122
100
AcDbEntity
8
0
100
AcDbCircle
10
62.499907550539959
20
14.500830182940307
30
0
40
6.0000000149011559
210
-0
220
0
230
1
100
AcDbArc
50
-22.899631032070566
51
89.999999999990507
0
ARC
5
123
100
AcDbEntity
8
0
100
AcDbCircle
10
62.499907550541806
20
-14.499169817059697
30
0
40
6.000000014901163
210
0
220
0
230
1
100
AcDbArc
50
-90.000000000008143
51
22.904390639347564
0
LINE
5
124
100
AcDbEntity
8
0
100
AcDbLine
10
65.000000968575478
20
5.000000074505806
30
0
11
68.0270350326076
21
12.166122069323869
31
0
0
LINE
5
125
100
AcDbEntity
8
0
100
AcDbLine
10
65.000000968575478
20
-5.000000074505806
30
0
11
68.026841067426005
21
-12.164002568497811
31
0
0
LINE
5
126
100
AcDbEntity
8
0
100
AcDbLine
10
65.000000968575478
20
5.000000074505806
30
0
11
65.000000968575478
21
-5.000000074505806
31
0
0
LINE
5
127
100
AcDbEntity
8
0
100
AcDbLine
10
-41.242640687100959
20
16.757359312900867
30
0
11
-41.242640687089185
21
6.0000000000017479
31
0
0
LINE
5
128
100
AcDbEntity
8
0
100
AcDbLine
10
-41.242640687076069
20
-5.9999999999982485
30
0
11
-41.242640687064302
21
-16.757359312884244
31
0
0
ENDSEC
0
SECTION
2
OBJECTS
0
DICTIONARY
5
C
100
AcDbDictionary
3
ACAD_GROUP
350
D
3
ACAD_MLINESTYLE
350
17
0
DICTIONARY
5
D
100
AcDbDictionary
0
DICTIONARY
5
1A
330
C
100
AcDbDictionary
0
DICTIONARY
5
17
100
AcDbDictionary
0
ENDSEC
0
EOF
