0
SECTION
2
HEADER
9
$INSUNITS
70
4
9
$ACADVER
1
AC1014
9
$HANDSEED
5
FFFF
0
ENDSEC
0
SECTION
2
TABLES
0
TABLE
2
VPORT
5
8
100
AcDbSymbolTable
0
ENDTAB
0
TABLE
2
LTYPE
5
5
100
AcDbSymbolTable
0
LTYPE
5
14
100
AcDbSymbolTableRecord
100
AcDbLinetypeTableRecord
2
BYBLOCK
70
0
0
LTYPE
5
15
100
AcDbSymbolTableRecord
100
AcDbLinetypeTableRecord
2
BYLAYER
70
0
0
LTYPE
5
16
100
AcDbSymbolTableRecord
100
AcDbLinetypeTableRecord
2
DASHED
70
0
3
Dashed __ __ __ __ __ __ __ __ __ __ __ __ __ _
72
65
73
2
40
0.75
49
0.5
74
0
49
-0.25
74
0
0
ENDTAB
0
TABLE
2
LAYER
5
2
100
AcDbSymbolTable
70
2
0
LAYER
5
50
100
AcDbSymbolTableRecord
100
AcDbLayerTableRecord
2
0
70
0
62
7
6
CONTINUOUS
0
ENDTAB
0
TABLE
2
STYLE
5
3
100
AcDbSymbolTable
70
1
0
STYLE
5
11
100
AcDbSymbolTableRecord
100
AcDbTextStyleTableRecord
2
STANDARD
70
0
0
ENDTAB
0
TABLE
2
VIEW
5
6
100
AcDbSymbolTable
70
0
0
ENDTAB
0
TABLE
2
UCS
5
7
100
AcDbSymbolTable
70
0
0
ENDTAB
0
TABLE
2
APPID
5
9
100
AcDbSymbolTable
70
2
0
APPID
5
12
100
AcDbSymbolTableRecord
100
AcDbRegAppTableRecord
2
ACAD
70
0
0
ENDTAB
0
TABLE
2
DIMSTYLE
5
A
100
AcDbSymbolTable
70
1
0
ENDTAB
0
TABLE
2
BLOCK_RECORD
5
1
100
AcDbSymbolTable
70
1
0
BLOCK_RECORD
5
1F
100
AcDbSymbolTableRecord
100
AcDbBlockTableRecord
2
*MODEL_SPACE
0
BLOCK_RECORD
5
1B
100
AcDbSymbolTableRecord
100
AcDbBlockTableRecord
2
*PAPER_SPACE
0
ENDTAB
0
ENDSEC
0
SECTION
2
BLOCKS
0
BLOCK
5
20
100
AcDbEntity
100
AcDbBlockBegin
2
*MODEL_SPACE
0
ENDBLK
5
21
100
AcDbEntity
100
AcDbBlockEnd
0
BLOCK
5
1C
100
AcDbEntity
100
AcDbBlockBegin
2
*PAPER_SPACE
0
ENDBLK
5
1D
100
AcDbEntity
100
AcDbBlockEnd
0
ENDSEC
0
SECTION
2
ENTITIES
0
CIRCLE
5
100
100
AcDbEntity
8
0
100
AcDbCircle
10
-20.00000000092653
20
20.000000000907455
30
0
40
1.6500000000000004
210
0
220
-0
230
1
0
CIRCLE
5
101
100
AcDbEntity
8
0
100
AcDbCircle
10
19.999999999073474
20
20.000000000906574
30
0
40
1.6500000000000004
210
0
220
-0
230
1
0
CIRCLE
5
102
100
AcDbEntity
8
0
100
AcDbCircle
10
19.999999999074479
20
-19.999999999076245
30
0
40
1.6500000000000004
210
0
220
-0
230
1
0
CIRCLE
5
103
100
AcDbEntity
8
0
100
AcDbCircle
10
-19.999999997207979
20
-19.999999999040735
30
0
40
1.6500000000000004
210
0
220
-0
230
1
0
CIRCLE
5
104
100
AcDbEntity
8
0
100
AcDbCircle
10
62.499907550539959
20
14.500830182940307
30
0
40
1.6500000000000004
210
0
220
0
230
1
0
CIRCLE
5
105
100
AcDbEntity
8
0
100
AcDbCircle
10
62.499907550541806
20
-14.499169817059697
30
0
40
1.6500000000000004
210
0
220
0
230
1
0
CIRCLE
5
106
100
AcDbEntity
8
0
100
AcDbCircle
10
-10
20
10
30
0
40
1.6500000000000004
210
0
220
0
230
1
0
CIRCLE
5
107
100
AcDbEntity
8
0
100
AcDbCircle
10
10
20
10
30
0
40
1.6500000000000004
210
0
220
0
230
1
0
CIRCLE
5
108
100
AcDbEntity
8
0
100
AcDbCircle
10
-10
20
-10
30
0
40
1.6500000000000004
210
0
220
0
230
1
0
CIRCLE
5
109
100
AcDbEntity
8
0
100
AcDbCircle
10
10
20
-10
30
0
40
1.6500000000000004
210
0
220
0
230
1
0
ARC
5
110
100
AcDbEntity
8
0
100
AcDbCircle
10
62.499907550541806
20
-14.499169817059697
30
0
40
3.0000000000000004
210
0
220
0
230
1
100
AcDbArc
50
269.99960822340171
51
270.00151808271897
0
CIRCLE
5
111
100
AcDbEntity
8
0
100
AcDbCircle
10
-34.500000000030262
20
14.499999999996467
30
0
40
1.6500000000000004
210
0
220
0
230
1
0
CIRCLE
5
112
100
AcDbEntity
8
0
100
AcDbCircle
10
-34.500000000030262
20
-14.500000000006818
30
0
40
1.6500000000000004
210
0
220
0
230
1
0
LINE
5
113
100
AcDbEntity
8
0
100
AcDbLine
10
-1.1266475530291586e-06
20
21.650000001345418
30
0
11
-24.939339828209413
21
33.424621202476715
31
0
0
LINE
5
114
100
AcDbEntity
8
0
100
AcDbLine
10
-1.1266475530291586e-06
20
21.650000001345418
30
0
11
24.939339828195081
21
33.424621202498635
31
0
0
SPLINE
5
115
100
AcDbEntity
8
0
100
AcDbSpline
70
4
71
5
72
21
73
15
74
0
42
0.000000001
43
0.0000000001
44
0.0000000001
40
0
40
0
40
0
40
0
40
0
40
0
40
0.10000000000000001
40
0.20000000000000001
40
0.30000000000000004
40
0.40000000000000002
40
0.5
40
0.59999999999999998
40
0.69999999999999996
40
0.79999999999999993
40
0.89999999999999991
40
1
40
1
40
1
40
1
40
1
40
1
41
1
41
1
41
1
41
1
41
1
41
1
41
1
41
1
41
1
41
1
41
1
41
1
41
1
41
1
41
1
10
24.939339828195081
20
33.424621202498635
30
0
10
25.350391046597764
20
33.496261218344145
30
0
10
26.151416887648281
20
33.618464649702616
30
0
10
27.289727799702458
20
33.738541933486097
30
0
10
28.678922796901357
20
33.770092065070308
30
0
10
30.186620759837343
20
33.580733896297183
30
0
10
31.445075678887115
20
33.142132629508211
30
0
10
32.433947427638699
20
32.433948133876065
30
0
10
33.142131934932507
20
31.445076335831782
30
0
10
33.580733279266539
20
30.186621316286953
30
0
10
33.770091589532363
20
28.678923208552369
30
0
10
33.738541619640458
20
27.28972806451667
30
0
10
33.618464482898133
20
26.151417026232405
30
0
10
33.496261160843005
20
25.35039109399715
30
0
10
33.42462120246774
20
24.939339828243689
30
0
0
SPLINE
5
116
100
AcDbEntity
8
0
100
AcDbSpline
70
4
71
5
72
21
73
15
74
0
42
0.000000001
43
0.0000000001
44
0.0000000001
40
0
40
0
40
0
40
0
40
0
40
0
40
0.10000000000000001
40
0.20000000000000001
40
0.30000000000000004
40
0.40000000000000002
40
0.5
40
0.59999999999999998
40
0.69999999999999996
40
0.79999999999999993
40
0.89999999999999991
40
1
40
1
40
1
40
1
40
1
40
1
41
1
41
1
41
1
41
1
41
1
41
1
41
1
41
1
41
1
41
1
41
1
41
1
41
1
41
1
41
1
10
24.939339828185886
20
-33.424621202450112
30
0
10
25.350391070255121
20
-33.496261189554659
30
0
10
26.151416956882315
20
-33.618464566251006
30
0
10
27.289727932033983
20
-33.738541776501918
30
0
10
28.678923002639145
20
-33.77009182723112
30
0
10
30.186621037973961
20
-33.580733587711272
30
0
10
31.445076007279759
20
-33.142132282157746
30
0
10
32.433947780689437
20
-32.433947780708564
30
0
10
33.142132282162606
20
-31.445076007327238
30
0
10
33.580733587729974
20
-30.186621038046397
30
0
10
33.770091827249814
20
-28.67892300272462
30
0
10
33.738541776507113
20
-27.289727932113678
30
0
10
33.618464566237819
20
-26.15141695694582
30
0
10
33.496261189525455
20
-25.350391070302219
30
0
10
33.424621202411977
20
-24.939339828223396
30
0
0
LINE
5
117
100
AcDbEntity
8
0
100
AcDbLine
10
3.0463636369049141e-06
20
-21.649999996165839
30
0
11
24.939339828185886
21
-33.424621202450112
31
0
0
LINE
5
118
100
AcDbEntity
8
0
100
AcDbLine
10
-24.939339828149166
20
-33.424621202473858
30
0
11
3.0463636369049141e-06
21
-21.649999996165839
31
0
0
CIRCLE
5
119
100
AcDbEntity
8
0
100
AcDbCircle
10
-28.474873734118219
20
-28.474873734172977
30
0
40
1.6500000000000004
210
0
220
-0
230
1
0
CIRCLE
5
120
100
AcDbEntity
8
0
100
AcDbCircle
10
28.474873734109138
20
-28.474873734137507
30
0
40
1.6500000000000004
210
0
220
-0
230
1
0
CIRCLE
5
121
100
AcDbEntity
8
0
100
AcDbCircle
10
28.474873547792544
20
28.474873920570548
30
0
40
1.6500000000000004
210
0
220
-0
230
1
0
CIRCLE
5
122
100
AcDbEntity
8
0
100
AcDbCircle
10
-28.474873734130909
20
28.474873734169268
30
0
40
1.6500000000000004
210
0
220
-0
230
1
0
LINE
5
123
100
AcDbEntity
8
0
100
AcDbLine
10
65.000000968575478
20
5.000000074505806
30
0
11
68.027035032607614
21
12.166122069323869
31
0
0
LINE
5
124
100
AcDbEntity
8
0
100
AcDbLine
10
65.000000968575478
20
-5.000000074505806
30
0
11
68.026841067426005
21
-12.164002568497811
31
0
0
LINE
5
125
100
AcDbEntity
8
0
100
AcDbLine
10
65.000000968575478
20
5.000000074505806
30
0
11
65.000000968575478
21
-5.000000074505806
31
0
0
LINE
5
126
100
AcDbEntity
8
0
100
AcDbLine
10
52.997128923017407
20
17.498981779376624
30
0
11
60.497078578720291
21
20.156683459719481
31
0
0
LINE
5
127
100
AcDbEntity
8
0
100
AcDbLine
10
52.997128923006173
20
-17.499104839086932
30
0
11
60.497035037587679
21
-20.155007675031502
31
0
0
LINE
5
128
100
AcDbEntity
8
0
100
AcDbLine
10
34.506610497295171
20
-17.498978404729343
30
0
11
52.997128923006173
21
-17.499104839086932
31
0
0
LINE
5
129
100
AcDbEntity
8
0
100
AcDbLine
10
34.506597817429757
20
17.498981779382742
30
0
11
52.997128923017407
21
17.498981779376624
31
0
0
ARC
5
130
100
AcDbEntity
8
0
100
AcDbCircle
10
62.499907550539959
20
14.500830182940307
30
0
40
6.000000014901163
210
0
220
0
230
1
100
AcDbArc
50
-22.899631032070516
51
109.49987652559028
0
ARC
5
131
100
AcDbEntity
8
0
100
AcDbCircle
10
62.499907550541806
20
-14.499169817059697
30
0
40
6.0000000149011887
210
0
220
0
230
1
100
AcDbArc
50
-109.50031761317116
51
22.904390639347564
0
LINE
5
132
100
AcDbEntity
8
0
100
AcDbLine
10
-40.50000001493131
20
14.500001173083545
30
0
11
-40.500000014931423
21
-14.500000000006885
31
0
0
LINE
5
133
100
AcDbEntity
8
0
100
AcDbLine
10
-33.062297706753398
20
31.407424247553148
30
0
11
-39.926748434382525
21
17.059375238031961
31
0
0
LINE
5
134
100
AcDbEntity
8
0
100
AcDbLine
10
-33.068966840706871
20
-31.389134403681183
30
0
11
-39.91213987389466
21
-17.090123967028667
31
0
0
ARC
5
135
100
AcDbEntity
8
0
100
AcDbCircle
10
-34.500000000030262
20
14.499999999996467
30
0
40
6.0000000149011621
210
0
220
0
230
1
100
AcDbArc
50
154.75039284100703
51
179.99998883546087
0
ARC
5
136
100
AcDbEntity
8
0
100
AcDbCircle
10
-34.500000000030262
20
-14.500000000006818
30
0
40
6.0000000149011612
210
0
220
0
230
1
100
AcDbArc
50
180
51
205.57468988335006
0
LINE
5
137
100
AcDbEntity
8
0
100
AcDbLine
10
33.42462120246774
20
24.939339828243689
30
0
11
32.536298058940133
21
19.842374938448444
31
0
0
LINE
5
138
100
AcDbEntity
8
0
100
AcDbLine
10
33.424621202411977
20
-24.939339828223396
30
0
11
32.536297089862302
21
-19.842371716633664
31
0
0
SPLINE
5
139
100
AcDbEntity
8
0
100
AcDbSpline
70
4
71
5
72
18
73
12
74
0
42
0.000000001
43
0.0000000001
44
0.0000000001
40
0.38794899857765464
40
0.38794899857765464
40
0.38794899857765464
40
0.38794899857765464
40
0.38794899857765464
40
0.38794899857765464
40
0.40000000000000002
40
0.5
40
0.59999999999999998
40
0.69999999999999996
40
0.79999999999999993
40
0.89999999999999991
40
1
40
1
40
1
40
1
40
1
40
1
41
1
41
1
41
1
41
1
41
1
41
1
41
1
41
1
41
1
41
1
41
1
41
1
10
-33.142129236302253
20
-31.240560685667571
30
0
10
-33.12905346863446
20
-31.268387373174246
30
0
10
-33.005677616481293
20
-31.525325231162896
30
0
10
-32.74050329377696
20
-31.979875873570215
30
0
10
-32.260007216302391
20
-32.55851601617502
30
0
10
-31.445076007300226
20
-33.142132282223486
30
0
10
-30.1866210380133
20
-33.580733587793333
30
0
10
-28.678923002680708
20
-33.770091827315923
30
0
10
-27.289727932058963
20
-33.738541776573662
30
0
10
-26.151416956881611
20
-33.618464566302841
30
0
10
-25.350391070231247
20
-33.496261189588516
30
0
10
-24.939339828149166
20
-33.424621202473858
30
0
0
SPLINE
5
140
100
AcDbEntity
8
0
100
AcDbSpline
70
4
71
5
72
18
73
12
74
0
42
0.000000001
43
0.0000000001
44
0.0000000001
40
0.38794899857774245
40
0.38794899857774245
40
0.38794899857774245
40
0.38794899857774245
40
0.38794899857774245
40
0.38794899857774245
40
0.40000000000000002
40
0.5
40
0.59999999999999998
40
0.69999999999999996
40
0.79999999999999993
40
0.89999999999999991
40
1
40
1
40
1
40
1
40
1
40
1
41
1
41
1
41
1
41
1
41
1
41
1
41
1
41
1
41
1
41
1
41
1
41
1
10
-33.142129236311547
20
31.240560685691992
30
0
10
-33.12905346865
20
31.268387373185238
30
0
10
-33.005677616498673
20
31.525325231168356
30
0
10
-32.740503293796102
20
31.979875873569878
30
0
10
-32.260007216322414
20
32.558516016170344
30
0
10
-31.445076007321909
20
33.142132282214732
30
0
10
-30.18662103803894
20
33.580733587782497
30
0
10
-28.678923002714221
20
33.770091827305798
30
0
10
-27.289727932101261
20
33.738541776566812
30
0
10
-26.151416956932376
20
33.618464566300169
30
0
10
-25.350391070288339
20
33.496261189589418
30
0
10
-24.939339828209413
20
33.424621202476715
30
0
0
ARC
5
141
100
AcDbEntity
8
0
100
AcDbCircle
10
34.506597817430418
20
19.498981779382742
30
0
40
2.0000000000000022
210
0
220
0
230
1
100
AcDbArc
50
170.11352355804624
51
269.99999999998107
0
ARC
5
142
100
AcDbEntity
8
0
100
AcDbCircle
10
34.506596821707006
20
-19.4989784046826
30
0
40
2.0000000000000124
210
0
220
-0
230
1
100
AcDbArc
50
89.999608223257908
51
189.88648088781835
0
ENDSEC
0
SECTION
2
OBJECTS
0
DICTIONARY
5
C
100
AcDbDictionary
3
ACAD_GROUP
350
D
3
ACAD_MLINESTYLE
350
17
0
DICTIONARY
5
D
100
AcDbDictionary
0
DICTIONARY
5
1A
330
C
100
AcDbDictionary
0
DICTIONARY
5
17
100
AcDbDictionary
0
ENDSEC
0
EOF
