0
SECTION
2
HEADER
9
$INSUNITS
70
4
9
$ACADVER
1
AC1014
9
$HANDSEED
5
FFFF
0
ENDSEC
0
SECTION
2
TABLES
0
TABLE
2
VPORT
5
8
100
AcDbSymbolTable
0
ENDTAB
0
TABLE
2
LTYPE
5
5
100
AcDbSymbolTable
0
LTYPE
5
14
100
AcDbSymbolTableRecord
100
AcDbLinetypeTableRecord
2
BYBLOCK
70
0
0
LTYPE
5
15
100
AcDbSymbolTableRecord
100
AcDbLinetypeTableRecord
2
BYLAYER
70
0
0
LTYPE
5
16
100
AcDbSymbolTableRecord
100
AcDbLinetypeTableRecord
2
DASHED
70
0
3
Dashed __ __ __ __ __ __ __ __ __ __ __ __ __ _
72
65
73
2
40
0.75
49
0.5
74
0
49
-0.25
74
0
0
ENDTAB
0
TABLE
2
LAYER
5
2
100
AcDbSymbolTable
70
2
0
LAYER
5
50
100
AcDbSymbolTableRecord
100
AcDbLayerTableRecord
2
0
70
0
62
7
6
CONTINUOUS
0
ENDTAB
0
TABLE
2
STYLE
5
3
100
AcDbSymbolTable
70
1
0
STYLE
5
11
100
AcDbSymbolTableRecord
100
AcDbTextStyleTableRecord
2
STANDARD
70
0
0
ENDTAB
0
TABLE
2
VIEW
5
6
100
AcDbSymbolTable
70
0
0
ENDTAB
0
TABLE
2
UCS
5
7
100
AcDbSymbolTable
70
0
0
ENDTAB
0
TABLE
2
APPID
5
9
100
AcDbSymbolTable
70
2
0
APPID
5
12
100
AcDbSymbolTableRecord
100
AcDbRegAppTableRecord
2
ACAD
70
0
0
ENDTAB
0
TABLE
2
DIMSTYLE
5
A
100
AcDbSymbolTable
70
1
0
ENDTAB
0
TABLE
2
BLOCK_RECORD
5
1
100
AcDbSymbolTable
70
1
0
BLOCK_RECORD
5
1F
100
AcDbSymbolTableRecord
100
AcDbBlockTableRecord
2
*MODEL_SPACE
0
BLOCK_RECORD
5
1B
100
AcDbSymbolTableRecord
100
AcDbBlockTableRecord
2
*PAPER_SPACE
0
ENDTAB
0
ENDSEC
0
SECTION
2
BLOCKS
0
BLOCK
5
20
100
AcDbEntity
100
AcDbBlockBegin
2
*MODEL_SPACE
0
ENDBLK
5
21
100
AcDbEntity
100
AcDbBlockEnd
0
BLOCK
5
1C
100
AcDbEntity
100
AcDbBlockBegin
2
*PAPER_SPACE
0
ENDBLK
5
1D
100
AcDbEntity
100
AcDbBlockEnd
0
ENDSEC
0
SECTION
2
ENTITIES
0
CIRCLE
5
100
100
AcDbEntity
8
0
100
AcDbCircle
10
10
20
10
30
0
40
3.1500000000000004
210
0
220
0
230
1
0
CIRCLE
5
101
100
AcDbEntity
8
0
100
AcDbCircle
10
-10
20
-10
30
0
40
3.1500000000000004
210
0
220
0
230
1
0
CIRCLE
5
102
100
AcDbEntity
8
0
100
AcDbCircle
10
10
20
-10
30
0
40
3.1500000000000004
210
0
220
0
230
1
0
CIRCLE
5
103
100
AcDbEntity
8
0
100
AcDbCircle
10
-10
20
10
30
0
40
3.1500000000000004
210
0
220
0
230
1
0
CIRCLE
5
104
100
AcDbEntity
8
0
100
AcDbCircle
10
-20.000000001151157
20
20.000000001340283
30
0
40
1.6500000000000004
210
0
220
0
230
1
0
CIRCLE
5
105
100
AcDbEntity
8
0
100
AcDbCircle
10
19.999999998848843
20
20.000000001347882
30
0
40
1.6500000000000004
210
0
220
0
230
1
0
CIRCLE
5
106
100
AcDbEntity
8
0
100
AcDbCircle
10
19.999999998843069
20
-19.99999999865971
30
0
40
1.6500000000000004
210
0
220
0
230
1
0
CIRCLE
5
107
100
AcDbEntity
8
0
100
AcDbCircle
10
-20.000000001151157
20
-19.99999999865971
30
0
40
1.6500000000000004
210
0
220
0
230
1
0
LINE
5
108
100
AcDbEntity
8
0
100
AcDbLine
10
-33.424621202434551
20
-24.939339828216752
30
0
11
-21.649999998645111
21
1.1011436207297716e-09
31
0
0
LINE
5
109
100
AcDbEntity
8
0
100
AcDbLine
10
-24.939339828193006
20
-33.424621202454901
30
0
11
3.0463636369049141e-06
21
-21.649999996165839
31
0
0
SPLINE
5
110
100
AcDbEntity
8
0
100
AcDbSpline
70
4
71
5
72
21
73
15
74
0
42
0.000000001
43
0.0000000001
44
0.0000000001
40
0
40
0
40
0
40
0
40
0
40
0
40
0.10000000000000001
40
0.20000000000000001
40
0.30000000000000004
40
0.40000000000000002
40
0.5
40
0.59999999999999998
40
0.69999999999999996
40
0.79999999999999993
40
0.89999999999999991
40
1
40
1
40
1
40
1
40
1
40
1
41
1
41
1
41
1
41
1
41
1
41
1
41
1
41
1
41
1
41
1
41
1
41
1
41
1
41
1
41
1
10
-33.424621202434551
20
-24.939339828216752
30
0
10
-33.496261189539275
20
-25.350391070292112
30
0
10
-33.618464566236092
20
-26.151416956929914
30
0
10
-33.738541776488006
20
-27.289727932092585
30
0
10
-33.770091827219247
20
-28.678923002703179
30
0
10
-33.580733587702454
20
-30.186621038033294
30
0
10
-33.142132282151707
20
-31.445076007328076
30
0
10
-32.433947780703981
20
-32.433947780725369
30
0
10
-31.445076007322221
20
-33.142132282189017
30
0
10
-30.186621038038759
20
-33.580733587751858
30
0
10
-28.678923002712015
20
-33.770091827272751
30
0
10
-27.289727932095168
20
-33.738541776535364
30
0
10
-26.1514169569218
20
-33.618464566272479
30
0
10
-25.350391070274036
20
-33.496261189565459
30
0
10
-24.939339828193006
20
-33.424621202454901
30
0
0
LINE
5
111
100
AcDbEntity
8
0
100
AcDbLine
10
21.649999998843079
20
1.3438450305423538e-09
30
0
11
33.424621202409654
21
-24.939339828186014
31
0
0
LINE
5
112
100
AcDbEntity
8
0
100
AcDbLine
10
3.0463636369049141e-06
20
-21.649999996165839
30
0
11
24.939339828171093
21
-33.424621202424596
31
0
0
SPLINE
5
113
100
AcDbEntity
8
0
100
AcDbSpline
70
4
71
5
72
21
73
15
74
0
42
0.000000001
43
0.0000000001
44
0.0000000001
40
0
40
0
40
0
40
0
40
0
40
0
40
0.10000000000000001
40
0.20000000000000001
40
0.30000000000000004
40
0.40000000000000002
40
0.5
40
0.59999999999999998
40
0.69999999999999996
40
0.79999999999999993
40
0.89999999999999991
40
1
40
1
40
1
40
1
40
1
40
1
41
1
41
1
41
1
41
1
41
1
41
1
41
1
41
1
41
1
41
1
41
1
41
1
41
1
41
1
41
1
10
24.939339828171093
20
-33.424621202424596
30
0
10
25.350391070244807
20
-33.496261189525825
30
0
10
26.151416956879672
20
-33.618464566216623
30
0
10
27.289727932039014
20
-33.738541776462505
30
0
10
28.678923002647259
20
-33.770091827191045
30
0
10
30.186621037977737
20
-33.580733587677422
30
0
10
31.445076007275809
20
-33.142132282133787
30
0
10
32.433947780678992
20
-32.433947780694574
30
0
10
33.142132282149944
20
-31.445076007320466
30
0
10
33.580733587719386
20
-30.186621038042134
30
0
10
33.770091827243483
20
-28.678923002716814
30
0
10
33.738541776503823
20
-27.28972793209762
30
0
10
33.618464566235588
20
-26.151416956920368
30
0
10
33.496261189523281
20
-25.350391070269048
30
0
10
33.424621202409654
20
-24.939339828186014
30
0
0
LINE
5
114
100
AcDbEntity
8
0
100
AcDbLine
10
21.649999998843079
20
1.3438450305423538e-09
30
0
11
33.424621202467733
21
24.939339828243689
31
0
0
LINE
5
115
100
AcDbEntity
8
0
100
AcDbLine
10
-1.1266475530291586e-06
20
21.650000001345418
30
0
11
24.939339828231674
21
33.424621202491032
31
0
0
SPLINE
5
116
100
AcDbEntity
8
0
100
AcDbSpline
70
4
71
5
72
21
73
15
74
0
42
0.000000001
43
0.0000000001
44
0.0000000001
40
0
40
0
40
0
40
0
40
0
40
0
40
0.10000000000000001
40
0.20000000000000001
40
0.30000000000000004
40
0.40000000000000002
40
0.5
40
0.59999999999999998
40
0.69999999999999996
40
0.79999999999999993
40
0.89999999999999991
40
1
40
1
40
1
40
1
40
1
40
1
41
1
41
1
41
1
41
1
41
1
41
1
41
1
41
1
41
1
41
1
41
1
41
1
41
1
41
1
41
1
10
24.939339828231674
20
33.424621202491032
30
0
10
25.350391046673085
20
33.496261218284353
30
0
10
26.151416887798568
20
33.618464649543633
30
0
10
27.289727799957767
20
33.738541933193886
30
0
10
28.678922797281082
20
33.770092064631989
30
0
10
30.186620760341864
20
33.580733895731399
30
0
10
31.445075679478528
20
33.142132628872702
30
0
10
32.433947428271203
20
32.433948133230139
30
0
10
33.142131935550779
20
31.445076335230311
30
0
10
33.58073327981176
20
30.186621315776524
30
0
10
33.770091589948947
20
28.678923208173813
30
0
10
33.738541619913455
20
27.289728064272651
30
0
10
33.618464483042558
20
26.151417026104564
30
0
10
33.496261160892658
20
25.350391093953423
30
0
10
33.424621202467733
20
24.939339828243689
30
0
0
LINE
5
117
100
AcDbEntity
8
0
100
AcDbLine
10
-1.1266475530291586e-06
20
21.650000001345418
30
0
11
-24.939339828208674
21
33.424621202462177
31
0
0
LINE
5
118
100
AcDbEntity
8
0
100
AcDbLine
10
-21.649999998645111
20
1.1011436207297716e-09
30
0
11
-33.424621202446978
21
24.939339828221662
31
0
0
SPLINE
5
119
100
AcDbEntity
8
0
100
AcDbSpline
70
4
71
5
72
21
73
15
74
0
42
0.000000001
43
0.0000000001
44
0.0000000001
40
0
40
0
40
0
40
0
40
0
40
0
40
0.10000000000000001
40
0.20000000000000001
40
0.30000000000000004
40
0.40000000000000002
40
0.5
40
0.59999999999999998
40
0.69999999999999996
40
0.79999999999999993
40
0.89999999999999991
40
1
40
1
40
1
40
1
40
1
40
1
41
1
41
1
41
1
41
1
41
1
41
1
41
1
41
1
41
1
41
1
41
1
41
1
41
1
41
1
41
1
10
-33.424621202446978
20
24.939339828221662
30
0
10
-33.496261189551596
20
25.350391070295636
30
0
10
-33.618464566248257
20
26.151416956931111
30
0
10
-33.738541776500085
20
27.289727932091612
30
0
10
-33.77009182723144
20
28.678923002701787
30
0
10
-33.580733587715052
20
30.186621038034154
30
0
10
-33.142132282164773
20
31.445076007332183
30
0
10
-32.433947780717332
20
32.433947780732041
30
0
10
-31.445076007335562
20
33.142132282196563
30
0
10
-30.186621038051882
20
33.580733587758814
30
0
10
-28.67892300272516
20
33.770091827278698
30
0
10
-27.289727932108828
20
33.738541776541055
30
0
10
-26.151416956936281
20
33.618464566278689
30
0
10
-25.350391070289277
20
33.496261189572323
30
0
10
-24.939339828208674
20
33.424621202462177
30
0
0
CIRCLE
5
120
100
AcDbEntity
8
0
100
AcDbCircle
10
28.474873548124489
20
28.474873920225111
30
0
40
1.6500000000000004
210
0
220
0
230
1
0
CIRCLE
5
121
100
AcDbEntity
8
0
100
AcDbCircle
10
28.474873734103817
20
-28.474873734118759
30
0
40
1.6500000000000004
210
0
220
0
230
1
0
CIRCLE
5
122
100
AcDbEntity
8
0
100
AcDbCircle
10
-28.474873734128714
20
-28.47487373414949
30
0
40
1.6500000000000004
210
0
220
0
230
1
0
CIRCLE
5
123
100
AcDbEntity
8
0
100
AcDbCircle
10
-28.474873734141415
20
28.474873734156347
30
0
40
1.6500000000000004
210
0
220
0
230
1
0
ENDSEC
0
SECTION
2
OBJECTS
0
DICTIONARY
5
C
100
AcDbDictionary
3
ACAD_GROUP
350
D
3
ACAD_MLINESTYLE
350
17
0
DICTIONARY
5
D
100
AcDbDictionary
0
DICTIONARY
5
1A
330
C
100
AcDbDictionary
0
DICTIONARY
5
17
100
AcDbDictionary
0
ENDSEC
0
EOF
