0
SECTION
2
HEADER
9
$INSUNITS
70
4
9
$ACADVER
1
AC1014
9
$HANDSEED
5
FFFF
0
ENDSEC
0
SECTION
2
TABLES
0
TABLE
2
VPORT
5
8
100
AcDbSymbolTable
0
ENDTAB
0
TABLE
2
LTYPE
5
5
100
AcDbSymbolTable
0
LTYPE
5
14
100
AcDbSymbolTableRecord
100
AcDbLinetypeTableRecord
2
BYBLOCK
70
0
0
LTYPE
5
15
100
AcDbSymbolTableRecord
100
AcDbLinetypeTableRecord
2
BYLAYER
70
0
0
LTYPE
5
16
100
AcDbSymbolTableRecord
100
AcDbLinetypeTableRecord
2
DASHED
70
0
3
Dashed __ __ __ __ __ __ __ __ __ __ __ __ __ _
72
65
73
2
40
0.75
49
0.5
74
0
49
-0.25
74
0
0
ENDTAB
0
TABLE
2
LAYER
5
2
100
AcDbSymbolTable
70
2
0
LAYER
5
50
100
AcDbSymbolTableRecord
100
AcDbLayerTableRecord
2
0
70
0
62
7
6
CONTINUOUS
0
ENDTAB
0
TABLE
2
STYLE
5
3
100
AcDbSymbolTable
70
1
0
STYLE
5
11
100
AcDbSymbolTableRecord
100
AcDbTextStyleTableRecord
2
STANDARD
70
0
0
ENDTAB
0
TABLE
2
VIEW
5
6
100
AcDbSymbolTable
70
0
0
ENDTAB
0
TABLE
2
UCS
5
7
100
AcDbSymbolTable
70
0
0
ENDTAB
0
TABLE
2
APPID
5
9
100
AcDbSymbolTable
70
2
0
APPID
5
12
100
AcDbSymbolTableRecord
100
AcDbRegAppTableRecord
2
ACAD
70
0
0
ENDTAB
0
TABLE
2
DIMSTYLE
5
A
100
AcDbSymbolTable
70
1
0
ENDTAB
0
TABLE
2
BLOCK_RECORD
5
1
100
AcDbSymbolTable
70
1
0
BLOCK_RECORD
5
1F
100
AcDbSymbolTableRecord
100
AcDbBlockTableRecord
2
*MODEL_SPACE
0
BLOCK_RECORD
5
1B
100
AcDbSymbolTableRecord
100
AcDbBlockTableRecord
2
*PAPER_SPACE
0
ENDTAB
0
ENDSEC
0
SECTION
2
BLOCKS
0
BLOCK
5
20
100
AcDbEntity
100
AcDbBlockBegin
2
*MODEL_SPACE
0
ENDBLK
5
21
100
AcDbEntity
100
AcDbBlockEnd
0
BLOCK
5
1C
100
AcDbEntity
100
AcDbBlockBegin
2
*PAPER_SPACE
0
ENDBLK
5
1D
100
AcDbEntity
100
AcDbBlockEnd
0
ENDSEC
0
SECTION
2
ENTITIES
0
POINT
5
100
100
AcDbEntity
8
0
100
AcDbPoint
10
-71.499999997207965
20
-71.49999999904071
30
0
0
POINT
5
101
100
AcDbEntity
8
0
100
AcDbPoint
10
-71.499999997207965
20
-71.49999999904071
30
0
0
ARC
5
102
100
AcDbEntity
8
0
100
AcDbCircle
10
-80.605258333597916
20
-28.304143052511812
30
0
40
32.010959122629735
210
0
220
0
230
1
100
AcDbArc
50
274.2576169422843
51
317.41732493509386
0
ARC
5
103
100
AcDbEntity
8
0
100
AcDbCircle
10
-77.783284258082489
20
-66.210204253055323
30
0
40
6.0000000000000391
210
0
220
0
230
1
100
AcDbArc
50
94.257616942284315
51
162.29472931510472
0
LINE
5
104
100
AcDbEntity
8
0
100
AcDbLine
10
-83.499085311942537
20
-64.385480078640782
30
0
11
-87.156854246700263
21
-75.843145749548455
31
0
0
ARC
5
105
100
AcDbEntity
8
0
100
AcDbCircle
10
-78.355286386341362
20
-78.652976514512005
30
0
40
9.239196162450412
210
0
220
0
230
1
100
AcDbArc
50
162.29472931510463
51
223.69450426872743
0
ARC
5
106
100
AcDbEntity
8
0
100
AcDbCircle
10
-78.652976512679203
20
-78.355286388174434
30
0
40
9.2391961624501953
210
0
220
0
230
1
100
AcDbArc
50
226.30549573127101
51
287.70527068489611
0
LINE
5
107
100
AcDbEntity
8
0
100
AcDbLine
10
-64.385480076807994
20
-83.499085313775282
30
0
11
-75.843145747715596
21
-87.156854248533122
31
0
0
ARC
5
108
100
AcDbEntity
8
0
100
AcDbCircle
10
-66.210204251222592
20
-77.783284259915263
30
0
40
6.0000000000000222
210
0
220
0
230
1
100
AcDbArc
50
287.70527068489588
51
355.74238305771553
0
ARC
5
109
100
AcDbEntity
8
0
100
AcDbCircle
10
-28.304143050678864
20
-80.605258335430833
30
0
40
32.010959122630013
210
0
220
0
230
1
100
AcDbArc
50
132.5826750649062
51
175.74238305771544
0
LINE
5
110
100
AcDbEntity
8
0
100
AcDbLine
10
-15.050252528902149
20
-24.949747467346569
30
0
11
-49.964466091275241
21
-57.035533904973462
31
0
0
LINE
5
111
100
AcDbEntity
8
0
100
AcDbLine
10
-24.949747465513813
20
-15.0502525307349
30
0
11
-57.03553390314071
21
-49.96446609310798
31
0
0
LINE
5
112
100
AcDbEntity
8
0
100
AcDbLine
10
-18.449747468305834
20
-8.55025253169417
30
0
11
-8.55025253169417
21
-18.449747468305837
31
0
0
LINE
5
113
100
AcDbEntity
8
0
100
AcDbLine
10
-18.449747468305834
20
-8.55025253169417
30
0
11
-24.949747465513813
21
-15.0502525307349
31
0
0
LINE
5
114
100
AcDbEntity
8
0
100
AcDbLine
10
-8.55025253169417
20
-18.449747468305837
30
0
11
-15.050252528902149
21
-24.949747467346569
31
0
0
CIRCLE
5
115
100
AcDbEntity
8
0
100
AcDbCircle
10
-19.999999997207979
20
-19.999999999040735
30
0
40
1.6500000000000004
210
0
220
-0
230
1
0
CIRCLE
5
116
100
AcDbEntity
8
0
100
AcDbCircle
10
-28.474873734118219
20
-28.474873734172977
30
0
40
1.6500000000000004
210
0
220
-0
230
1
0
CIRCLE
5
117
100
AcDbEntity
8
0
100
AcDbCircle
10
-71.499999997207965
20
-77.49999999904071
30
0
40
1.1500000000000001
210
0
220
0
230
1
0
CIRCLE
5
118
100
AcDbEntity
8
0
100
AcDbCircle
10
-71.499999997207965
20
-65.49999999904071
30
0
40
1.1500000000000001
210
0
220
0
230
1
0
CIRCLE
5
119
100
AcDbEntity
8
0
100
AcDbCircle
10
-77.499999997207965
20
-71.49999999904071
30
0
40
1.1500000000000001
210
0
220
0
230
1
0
CIRCLE
5
120
100
AcDbEntity
8
0
100
AcDbCircle
10
-65.499999997207965
20
-71.49999999904071
30
0
40
1.1500000000000001
210
0
220
0
230
1
0
CIRCLE
5
121
100
AcDbEntity
8
0
100
AcDbCircle
10
-71.499999997207965
20
-71.49999999904071
30
0
40
2.5
210
0
220
0
230
1
0
ENDSEC
0
SECTION
2
OBJECTS
0
DICTIONARY
5
C
100
AcDbDictionary
3
ACAD_GROUP
350
D
3
ACAD_MLINESTYLE
350
17
0
DICTIONARY
5
D
100
AcDbDictionary
0
DICTIONARY
5
1A
330
C
100
AcDbDictionary
0
DICTIONARY
5
17
100
AcDbDictionary
0
ENDSEC
0
EOF
